0
SECTION
2
HEADER
9
$MEASUREMENT
70
1
0
ENDSEC
0
SECTION
2
TABLES
0
TABLE
2
LTYPE
0
LTYPE
72
65
70
64
2
CONTINUOUS
3
______
73
0
40
0
0
ENDTAB
0
TABLE
2
LAYER
0
LAYER
2
DEFAULT_255_2_778
70
0
62
255
6
CONTINUOUS
0
LAYER
2
DEFAULT_255_1_234
70
0
62
255
6
CONTINUOUS
0
ENDTAB
0
ENDSEC
0
SECTION
2
ENTITIES
0
ARC
8
DEFAULT_255_2_778
10
3.5700693
20
51.9926534
40
0.7914215
50
129.1312896
51
180.1450914
0
ARC
8
DEFAULT_255_2_778
10
3.5703345
20
51.9931405
40
0.7912112
50
89.854026
51
129.1684493
0
ARC
8
DEFAULT_255_2_778
10
25.7993937
20
51.992827
40
0.7915249
50
39.4792447
51
90.147911
0
ARC
8
DEFAULT_255_2_778
10
25.7999935
20
51.9926737
40
0.7911595
50
359.8533901
51
39.5154338
0
ARC
8
DEFAULT_255_2_778
10
25.7996693
20
-1.9863989
40
0.7914836
50
309.4761667
51
0.1482649
0
ARC
8
DEFAULT_255_2_778
10
25.799398
20
-1.98683
40
0.7913235
50
269.8517415
51
309.511178
0
ARC
8
DEFAULT_255_2_778
10
3.570342
20
-1.9867718
40
0.7913815
50
219.1282118
51
270.1454017
0
ARC
8
DEFAULT_255_2_778
10
3.5700247
20
-1.9863893
40
0.7913769
50
179.8524075
51
219.1641908
0
LINE
8
DEFAULT_255_2_778
10
3.5723503
20
52.7843492
11
25.7973503
21
52.7843492
0
LINE
8
DEFAULT_255_2_778
10
26.5911503
20
51.9906492
11
26.5911503
21
-1.9843508
0
LINE
8
DEFAULT_255_2_778
10
25.7973503
20
-2.7781508
11
3.5723503
21
-2.7781508
0
LINE
8
DEFAULT_255_2_778
10
2.7786503
20
-1.9843508
11
2.7786503
21
51.9906492
0
LINE
8
DEFAULT_255_1_234
10
12.1280344
20
-0.1934909
11
11.8525458
21
-0.1934909
0
LINE
8
DEFAULT_255_1_234
10
11.8525458
20
-0.1934909
11
11.8525458
21
-0.6513
0
LINE
8
DEFAULT_255_1_234
10
11.8525458
20
-0.6513
11
11.6983364
21
-0.6513
0
LINE
8
DEFAULT_255_1_234
10
11.6983364
20
-0.6513
11
11.6983364
21
0.5181211
0
LINE
8
DEFAULT_255_1_234
10
11.6983364
20
0.5181211
11
12.1296407
21
0.5181211
0
LINE
8
DEFAULT_255_1_234
10
11.8525458
20
0.3912196
11
11.8525458
21
-0.0673926
0
LINE
8
DEFAULT_255_1_234
10
11.8525458
20
-0.0673926
11
12.1296407
21
-0.0673926
0
LINE
8
DEFAULT_255_1_234
10
12.1384756
20
0.3912196
11
11.8525458
21
0.3912196
0
ARC
8
DEFAULT_255_1_234
10
12.1338534
20
-0.0877805
40
0.6059162
50
78.8378113
51
90.3983573
0
ARC
8
DEFAULT_255_1_234
10
12.1754548
20
0.1142879
40
0.3996205
50
58.9632738
51
79.0810598
0
ARC
8
DEFAULT_255_1_234
10
12.205609
20
0.1702721
40
0.3361177
50
48.0197965
51
58.447194
0
ARC
8
DEFAULT_255_1_234
10
12.2144951
20
0.1788225
40
0.3238191
50
3.3375044
51
48.1766626
0
ARC
8
DEFAULT_255_1_234
10
12.091479
20
0.1611171
40
0.4477806
50
359.9477528
51
4.6829065
0
ARC
8
DEFAULT_255_1_234
10
12.1038107
20
0.1568628
40
0.4354656
50
346.1877825
51
0.5060252
0
ARC
8
DEFAULT_255_1_234
10
12.2396975
20
0.1215731
40
0.295089
50
310.8831995
51
346.5426355
0
ARC
8
DEFAULT_255_1_234
10
12.2088395
20
0.1632695
40
0.3468331
50
286.6925341
51
310.2288297
0
ARC
8
DEFAULT_255_1_234
10
12.1519226
20
0.3422882
40
0.5346654
50
274.6850312
51
287.0245141
0
ARC
8
DEFAULT_255_1_234
10
12.1293949
20
0.5631932
40
0.7566852
50
269.8969846
51
275.018904
0
ARC
8
DEFAULT_255_1_234
10
12.132154
20
0.3552707
40
0.4226708
50
269.6593078
51
279.4153575
0
ARC
8
DEFAULT_255_1_234
10
12.1578815
20
0.2062133
40
0.2714146
50
279.2049762
51
294.9900808
0
ARC
8
DEFAULT_255_1_234
10
12.1869141
20
0.1414508
40
0.2004525
50
295.2888114
51
311.2911209
0
ARC
8
DEFAULT_255_1_234
10
12.1940035
20
0.130922
40
0.1878703
50
311.7854996
51
347.2861051
0
ARC
8
DEFAULT_255_1_234
10
12.0956194
20
0.1562092
40
0.2894234
50
346.6893224
51
0.1059443
0
ARC
8
DEFAULT_255_1_234
10
12.0201089
20
0.1590685
40
0.3649409
50
359.6350983
51
0.0053152
0
ARC
8
DEFAULT_255_1_234
10
12.1171417
20
0.1615937
40
0.2679199
50
359.4672059
51
15.5933957
0
ARC
8
DEFAULT_255_1_234
10
12.1796306
20
0.1784779
40
0.2031932
50
15.7442113
51
46.6203375
0
ARC
8
DEFAULT_255_1_234
10
12.1648527
20
0.1614484
40
0.2257226
50
46.8628658
51
75.6676503
0
ARC
8
DEFAULT_255_1_234
10
12.1354347
20
0.0555718
40
0.3355939
50
75.276167
51
88.2915297
0
ARC
8
DEFAULT_255_1_234
10
12.1296054
20
-0.0322476
40
0.4235602
50
87.8575022
51
88.8000139
0
LINE
8
DEFAULT_255_1_234
10
12.9135384
20
-0.1155831
11
12.9135384
21
0.0056962
0
LINE
8
DEFAULT_255_1_234
10
12.9135384
20
0.0056962
11
13.0251795
21
0.0056962
0
LINE
8
DEFAULT_255_1_234
10
12.8348273
20
0.2113087
11
12.6862402
21
0.2113087
0
LINE
8
DEFAULT_255_1_234
10
12.6757989
20
-0.3428812
11
12.8251893
21
-0.3428812
0
LINE
8
DEFAULT_255_1_234
10
13.0251795
20
-0.1155831
11
12.9135384
21
-0.1155831
0
ARC
8
DEFAULT_255_1_234
10
13.0222662
20
0.3449713
40
0.3392876
50
270.4919872
51
281.8951556
0
ARC
8
DEFAULT_255_1_234
10
13.0463923
20
0.2347702
40
0.2264817
50
281.6691735
51
301.2943132
0
ARC
8
DEFAULT_255_1_234
10
13.0634134
20
0.2036304
40
0.1910381
50
301.7833094
51
311.7545298
0
ARC
8
DEFAULT_255_1_234
10
13.0725709
20
0.1934748
40
0.1773635
50
311.7323931
51
354.2802411
0
ARC
8
DEFAULT_255_1_234
10
12.9999335
20
0.2059722
40
0.2509385
50
353.0937916
51
0.1181479
0
ARC
8
DEFAULT_255_1_234
10
12.953812
20
0.2107386
40
0.2970898
50
359.1805295
51
15.0453146
0
ARC
8
DEFAULT_255_1_234
10
13.0883957
20
0.2499992
40
0.1569564
50
13.9577229
51
77.6713066
0
ARC
8
DEFAULT_255_1_234
10
13.0497486
20
0.1114949
40
0.3006298
50
76.1116566
51
90.7026153
0
ARC
8
DEFAULT_255_1_234
10
13.0438324
20
0.1388545
40
0.2732568
50
89.5324876
51
103.531937
0
ARC
8
DEFAULT_255_1_234
10
13.0237768
20
0.2187884
40
0.1908508
50
103.2931773
51
133.5619022
0
ARC
8
DEFAULT_255_1_234
10
13.0193256
20
0.2247375
40
0.1834746
50
133.8349307
51
173.5344437
0
ARC
8
DEFAULT_255_1_234
10
13.09163
20
0.2119213
40
0.2568033
50
172.5096846
51
180.1366907
0
ARC
8
DEFAULT_255_1_234
10
12.9965193
20
0.2153622
40
0.3103056
50
155.3484492
51
180.7484736
0
ARC
8
DEFAULT_255_1_234
10
12.9916283
20
0.2124846
40
0.3070957
50
131.5744599
51
154.4798489
0
ARC
8
DEFAULT_255_1_234
10
13.022943
20
0.180831
40
0.3515643
50
96.9875458
51
131.9690667
0
ARC
8
DEFAULT_255_1_234
10
13.044891
20
0.0562636
40
0.4779224
50
89.8596053
51
97.7825159
0
ARC
8
DEFAULT_255_1_234
10
13.0496973
20
0.0300616
40
0.5041361
50
78.3655447
51
90.4131539
0
ARC
8
DEFAULT_255_1_234
10
13.0854891
20
0.1959887
40
0.3344039
50
56.6229102
51
78.638727
0
ARC
8
DEFAULT_255_1_234
10
13.1069834
20
0.2335805
40
0.2912001
50
47.0253525
51
56.0854072
0
ARC
8
DEFAULT_255_1_234
10
13.1089614
20
0.2375223
40
0.2869704
50
10.9208013
51
46.7778124
0
ARC
8
DEFAULT_255_1_234
10
12.9725681
20
0.2059857
40
0.426899
50
359.6364486
51
11.6087304
0
ARC
8
DEFAULT_255_1_234
10
13.1560525
20
0.2044752
40
0.243409
50
332.3549906
51
359.7179418
0
ARC
8
DEFAULT_255_1_234
10
13.0910126
20
0.2353142
40
0.3153459
50
325.2333722
51
332.8745602
0
ARC
8
DEFAULT_255_1_234
10
13.106275
20
0.2246828
40
0.2967456
50
292.9802137
51
325.2392345
0
ARC
8
DEFAULT_255_1_234
10
13.0788124
20
0.2780863
40
0.3566604
50
292.5402179
51
293.6924929
0
ARC
8
DEFAULT_255_1_234
10
13.118072
20
-0.3673909
40
0.3307468
50
57.6435486
51
72.8625112
0
ARC
8
DEFAULT_255_1_234
10
13.153522
20
-0.3099451
40
0.2632492
50
36.7248896
51
57.4697979
0
ARC
8
DEFAULT_255_1_234
10
13.1523852
20
-0.308678
40
0.2634081
50
8.0545065
51
36.356114
0
ARC
8
DEFAULT_255_1_234
10
13.0661038
20
-0.3241826
40
0.3510261
50
359.8320645
51
8.5869982
0
ARC
8
DEFAULT_255_1_234
10
13.0285814
20
-0.3289899
40
0.3885653
50
343.9829931
51
0.5571613
0
ARC
8
DEFAULT_255_1_234
10
13.1172011
20
-0.3532562
40
0.2966924
50
311.6359546
51
343.7651759
0
ARC
8
DEFAULT_255_1_234
10
13.079358
20
-0.3105898
40
0.3537231
50
279.7829875
51
311.6255694
0
ARC
8
DEFAULT_255_1_234
10
13.0492356
20
-0.166872
40
0.5004971
50
269.7286406
51
280.3856417
0
ARC
8
DEFAULT_255_1_234
10
13.0430429
20
-0.1710004
40
0.4963778
50
256.6828919
51
270.4412052
0
ARC
8
DEFAULT_255_1_234
10
13.0091725
20
-0.3094606
40
0.3538406
50
229.4223008
51
256.8556159
0
ARC
8
DEFAULT_255_1_234
10
12.9677118
20
-0.3561264
40
0.2914296
50
181.818294
51
229.6455059
0
ARC
8
DEFAULT_255_1_234
10
13.0717074
20
-0.3430504
40
0.3959084
50
179.9755256
51
183.2323064
0
ARC
8
DEFAULT_255_1_234
10
13.054482
20
-0.3450963
40
0.2293034
50
179.4465117
51
196.2869258
0
ARC
8
DEFAULT_255_1_234
10
13.0057228
20
-0.3584349
40
0.1787621
50
196.5661473
51
227.705904
0
ARC
8
DEFAULT_255_1_234
10
13.0221323
20
-0.3400845
40
0.2033784
50
227.7652068
51
257.8762805
0
ARC
8
DEFAULT_255_1_234
10
13.0446293
20
-0.2457844
40
0.3003081
50
257.4584385
51
270.426602
0
ARC
8
DEFAULT_255_1_234
10
13.0491859
20
-0.2168004
40
0.329292
50
269.5962073
51
280.8789248
0
ARC
8
DEFAULT_255_1_234
10
13.0721388
20
-0.3314315
40
0.2123908
50
280.6346389
51
299.8595945
0
ARC
8
DEFAULT_255_1_234
10
13.0912294
20
-0.3676788
40
0.171457
50
300.3576302
51
314.5517981
0
ARC
8
DEFAULT_255_1_234
10
13.0829354
20
-0.3616081
40
0.1816095
50
315.0728369
51
345.0431014
0
ARC
8
DEFAULT_255_1_234
10
12.9906169
20
-0.3347159
40
0.2777492
50
344.5986631
51
357.9269593
0
ARC
8
DEFAULT_255_1_234
10
12.9010495
20
-0.3285724
40
0.3674917
50
357.4748886
51
0.0231117
0
ARC
8
DEFAULT_255_1_234
10
13.0033604
20
-0.3261321
40
0.2651907
50
359.5047933
51
13.4239635
0
ARC
8
DEFAULT_255_1_234
10
13.0900248
20
-0.3039522
40
0.1757509
50
12.9498199
51
48.7551375
0
ARC
8
DEFAULT_255_1_234
10
13.0717982
20
-0.32886
40
0.2065134
50
49.5088623
51
72.1836453
0
ARC
8
DEFAULT_255_1_234
10
13.0360135
20
-0.4350709
40
0.3185836
50
71.9010081
51
84.3554254
0
ARC
8
DEFAULT_255_1_234
10
13.0198766
20
-0.5711674
40
0.4556151
50
84.0193428
51
89.333121
0
LINE
8
DEFAULT_255_1_234
10
13.9456167
20
-0.0938974
11
13.9456167
21
-0.2151766
0
LINE
8
DEFAULT_255_1_234
10
13.9456167
20
-0.2151766
11
13.5536679
21
-0.2151766
0
LINE
8
DEFAULT_255_1_234
10
13.5536679
20
-0.2151766
11
13.5536679
21
-0.0938974
0
LINE
8
DEFAULT_255_1_234
10
13.5536679
20
-0.0938974
11
13.9456167
21
-0.0938974
0
LINE
8
DEFAULT_255_1_234
10
14.2620672
20
-0.0955037
11
14.1431975
21
-0.0649831
0
LINE
8
DEFAULT_255_1_234
10
14.1431975
20
-0.0649831
11
14.2026324
21
0.5181211
0
LINE
8
DEFAULT_255_1_234
10
14.2026324
20
0.5181211
11
14.8018
21
0.5181211
0
LINE
8
DEFAULT_255_1_234
10
14.8018
20
0.5181211
11
14.8018
21
0.3807784
0
LINE
8
DEFAULT_255_1_234
10
14.8018
20
0.3807784
11
14.3287307
21
0.3807784
0
LINE
8
DEFAULT_255_1_234
10
14.3287307
20
0.3807784
11
14.293391
21
0.0619184
0
LINE
8
DEFAULT_255_1_234
10
14.1014325
20
-0.3436844
11
14.2419879
21
-0.3436844
0
LINE
8
DEFAULT_255_1_234
10
14.3014228
20
-0.0633768
11
14.2620672
21
-0.0955037
0
ARC
8
DEFAULT_255_1_234
10
14.4788694
20
-0.256077
40
0.3681349
50
93.7182161
51
120.2538958
0
ARC
8
DEFAULT_255_1_234
10
14.4882957
20
-0.3368606
40
0.449379
50
89.9660152
51
94.2496022
0
ARC
8
DEFAULT_255_1_234
10
14.4923691
20
-0.2779451
40
0.390482
50
73.8043271
51
90.5585896
0
ARC
8
DEFAULT_255_1_234
10
14.5158588
20
-0.1921398
40
0.3015334
50
41.3071453
51
73.5430202
0
ARC
8
DEFAULT_255_1_234
10
14.4742415
20
-0.2279676
40
0.3564457
50
13.5075983
51
41.2174222
0
ARC
8
DEFAULT_255_1_234
10
14.3100619
20
-0.2709514
40
0.5261351
50
1.1331335
51
13.8829381
0
ARC
8
DEFAULT_255_1_234
10
14.1688988
20
-0.2785335
40
0.6674378
50
359.9919444
51
1.544251
0
ARC
8
DEFAULT_255_1_234
10
14.2965814
20
-0.282672
40
0.5397702
50
347.8572367
51
0.4293338
0
ARC
8
DEFAULT_255_1_234
10
14.4716132
20
-0.3223264
40
0.3603188
50
323.673004
51
348.1672506
0
ARC
8
DEFAULT_255_1_234
10
14.501064
20
-0.3402832
40
0.3259678
50
316.8171152
51
323.1492751
0
ARC
8
DEFAULT_255_1_234
10
14.5071829
20
-0.343954
40
0.3189975
50
281.8396411
51
316.5457803
0
ARC
8
DEFAULT_255_1_234
10
14.4696093
20
-0.1884238
40
0.4789527
50
269.5770101
51
282.4214771
0
ARC
8
DEFAULT_255_1_234
10
14.4624904
20
-0.2097875
40
0.45759
50
256.2427136
51
270.4486331
0
ARC
8
DEFAULT_255_1_234
10
14.4325807
20
-0.3297771
40
0.3339303
50
228.9023911
51
256.3314342
0
ARC
8
DEFAULT_255_1_234
10
14.4252039
20
-0.3414254
40
0.32031
50
193.753695
51
228.5271154
0
ARC
8
DEFAULT_255_1_234
10
14.5489993
20
-0.30512
40
0.4492253
50
184.924711
51
194.497588
0
ARC
8
DEFAULT_255_1_234
10
14.568256
20
-0.3015409
40
0.3289787
50
187.3600538
51
198.6732863
0
ARC
8
DEFAULT_255_1_234
10
14.4632854
20
-0.3379326
40
0.217884
50
198.4451669
51
217.794479
0
ARC
8
DEFAULT_255_1_234
10
14.4337029
20
-0.3588915
40
0.1816698
50
218.2887171
51
228.5612368
0
ARC
8
DEFAULT_255_1_234
10
14.4434816
20
-0.3457037
40
0.1980329
50
228.9654866
51
258.1234728
0
ARC
8
DEFAULT_255_1_234
10
14.4640526
20
-0.2576167
40
0.2884748
50
257.7258293
51
270.401361
0
ARC
8
DEFAULT_255_1_234
10
14.4685412
20
-0.3021179
40
0.2439788
50
269.4204404
51
286.4209037
0
ARC
8
DEFAULT_255_1_234
10
14.48339
20
-0.3560343
40
0.1880666
50
286.7251356
51
320.600362
0
ARC
8
DEFAULT_255_1_234
10
14.4450725
20
-0.3249405
40
0.2374121
50
320.6712579
51
344.5441685
0
ARC
8
DEFAULT_255_1_234
10
14.3294051
20
-0.2909955
40
0.3579479
50
344.2412205
51
356.7357071
0
ARC
8
DEFAULT_255_1_234
10
14.20452
20
-0.2806556
40
0.4832297
50
356.3548756
51
0.0500261
0
ARC
8
DEFAULT_255_1_234
10
14.3381709
20
-0.277535
40
0.3495889
50
359.5576869
51
12.953486
0
ARC
8
DEFAULT_255_1_234
10
14.4436606
20
-0.2519566
40
0.2410532
50
12.6490276
51
41.6081334
0
ARC
8
DEFAULT_255_1_234
10
14.4666977
20
-0.2323679
40
0.2108218
50
41.7850273
51
85.9892764
0
ARC
8
DEFAULT_255_1_234
10
14.4543714
20
-0.3136538
40
0.2928454
50
84.6957577
51
90.0676183
0
ARC
8
DEFAULT_255_1_234
10
14.4520198
20
-0.3805284
40
0.3597255
50
89.6804936
51
99.1614436
0
ARC
8
DEFAULT_255_1_234
10
14.4314829
20
-0.2577869
40
0.235281
50
98.9830931
51
113.8908934
0
ARC
8
DEFAULT_255_1_234
10
14.4085239
20
-0.2036413
40
0.176479
50
114.1950727
51
127.3641004
0
LINE
8
DEFAULT_255_1_234
10
15.2146314
20
-0.1155831
11
15.2146314
21
0.0056962
0
LINE
8
DEFAULT_255_1_234
10
15.2146314
20
0.0056962
11
15.3262726
21
0.0056962
0
LINE
8
DEFAULT_255_1_234
10
15.1359204
20
0.2113087
11
14.9873332
21
0.2113087
0
LINE
8
DEFAULT_255_1_234
10
14.9768919
20
-0.3428812
11
15.1262823
21
-0.3428812
0
LINE
8
DEFAULT_255_1_234
10
15.3262726
20
-0.1155831
11
15.2146314
21
-0.1155831
0
ARC
8
DEFAULT_255_1_234
10
15.3233592
20
0.3449713
40
0.3392876
50
270.4919872
51
281.8951556
0
ARC
8
DEFAULT_255_1_234
10
15.3474854
20
0.2347702
40
0.2264817
50
281.6691735
51
301.2943132
0
ARC
8
DEFAULT_255_1_234
10
15.3645064
20
0.2036304
40
0.1910381
50
301.7833094
51
311.7545298
0
ARC
8
DEFAULT_255_1_234
10
15.373664
20
0.1934748
40
0.1773635
50
311.7323931
51
354.2802411
0
ARC
8
DEFAULT_255_1_234
10
15.3010265
20
0.2059722
40
0.2509385
50
353.0937916
51
0.1181479
0
ARC
8
DEFAULT_255_1_234
10
15.254905
20
0.2107386
40
0.2970898
50
359.1805295
51
15.0453146
0
ARC
8
DEFAULT_255_1_234
10
15.3894887
20
0.2499992
40
0.1569564
50
13.9577229
51
77.6713066
0
ARC
8
DEFAULT_255_1_234
10
15.3508416
20
0.1114949
40
0.3006298
50
76.1116566
51
90.7026153
0
ARC
8
DEFAULT_255_1_234
10
15.3449254
20
0.1388545
40
0.2732568
50
89.5324876
51
103.531937
0
ARC
8
DEFAULT_255_1_234
10
15.3248698
20
0.2187884
40
0.1908508
50
103.2931773
51
133.5619022
0
ARC
8
DEFAULT_255_1_234
10
15.3204187
20
0.2247375
40
0.1834746
50
133.8349307
51
173.5344437
0
ARC
8
DEFAULT_255_1_234
10
15.392723
20
0.2119213
40
0.2568033
50
172.5096846
51
180.1366907
0
ARC
8
DEFAULT_255_1_234
10
15.2976124
20
0.2153622
40
0.3103056
50
155.3484492
51
180.7484736
0
ARC
8
DEFAULT_255_1_234
10
15.2927213
20
0.2124846
40
0.3070957
50
131.5744599
51
154.4798489
0
ARC
8
DEFAULT_255_1_234
10
15.324036
20
0.180831
40
0.3515643
50
96.9875458
51
131.9690667
0
ARC
8
DEFAULT_255_1_234
10
15.345984
20
0.0562636
40
0.4779224
50
89.8596053
51
97.7825159
0
ARC
8
DEFAULT_255_1_234
10
15.3507903
20
0.0300616
40
0.5041361
50
78.3655447
51
90.4131539
0
ARC
8
DEFAULT_255_1_234
10
15.3865821
20
0.1959887
40
0.3344039
50
56.6229102
51
78.638727
0
ARC
8
DEFAULT_255_1_234
10
15.4080765
20
0.2335805
40
0.2912001
50
47.0253525
51
56.0854072
0
ARC
8
DEFAULT_255_1_234
10
15.4100545
20
0.2375223
40
0.2869704
50
10.9208013
51
46.7778124
0
ARC
8
DEFAULT_255_1_234
10
15.2736611
20
0.2059857
40
0.426899
50
359.6364486
51
11.6087304
0
ARC
8
DEFAULT_255_1_234
10
15.4571455
20
0.2044752
40
0.243409
50
332.3549906
51
359.7179418
0
ARC
8
DEFAULT_255_1_234
10
15.3921057
20
0.2353142
40
0.3153459
50
325.2333722
51
332.8745602
0
ARC
8
DEFAULT_255_1_234
10
15.4073681
20
0.2246828
40
0.2967456
50
292.9802137
51
325.2392345
0
ARC
8
DEFAULT_255_1_234
10
15.3799054
20
0.2780863
40
0.3566604
50
292.5402179
51
293.6924929
0
ARC
8
DEFAULT_255_1_234
10
15.419165
20
-0.3673909
40
0.3307468
50
57.6435486
51
72.8625112
0
ARC
8
DEFAULT_255_1_234
10
15.454615
20
-0.3099451
40
0.2632492
50
36.7248896
51
57.4697979
0
ARC
8
DEFAULT_255_1_234
10
15.4534783
20
-0.308678
40
0.2634081
50
8.0545065
51
36.356114
0
ARC
8
DEFAULT_255_1_234
10
15.3671968
20
-0.3241826
40
0.3510261
50
359.8320645
51
8.5869982
0
ARC
8
DEFAULT_255_1_234
10
15.3296744
20
-0.3289899
40
0.3885653
50
343.9829931
51
0.5571613
0
ARC
8
DEFAULT_255_1_234
10
15.4182941
20
-0.3532562
40
0.2966924
50
311.6359546
51
343.7651759
0
ARC
8
DEFAULT_255_1_234
10
15.3804511
20
-0.3105898
40
0.3537231
50
279.7829875
51
311.6255694
0
ARC
8
DEFAULT_255_1_234
10
15.3503287
20
-0.166872
40
0.5004971
50
269.7286406
51
280.3856417
0
ARC
8
DEFAULT_255_1_234
10
15.3441359
20
-0.1710004
40
0.4963778
50
256.6828919
51
270.4412052
0
ARC
8
DEFAULT_255_1_234
10
15.3102655
20
-0.3094606
40
0.3538406
50
229.4223008
51
256.8556159
0
ARC
8
DEFAULT_255_1_234
10
15.2688048
20
-0.3561264
40
0.2914296
50
181.818294
51
229.6455059
0
ARC
8
DEFAULT_255_1_234
10
15.3728004
20
-0.3430504
40
0.3959084
50
179.9755256
51
183.2323064
0
ARC
8
DEFAULT_255_1_234
10
15.355575
20
-0.3450963
40
0.2293034
50
179.4465117
51
196.2869258
0
ARC
8
DEFAULT_255_1_234
10
15.3068158
20
-0.3584349
40
0.1787621
50
196.5661473
51
227.705904
0
ARC
8
DEFAULT_255_1_234
10
15.3232253
20
-0.3400845
40
0.2033784
50
227.7652068
51
257.8762805
0
ARC
8
DEFAULT_255_1_234
10
15.3457223
20
-0.2457844
40
0.3003081
50
257.4584385
51
270.426602
0
ARC
8
DEFAULT_255_1_234
10
15.3502789
20
-0.2168004
40
0.329292
50
269.5962073
51
280.8789248
0
ARC
8
DEFAULT_255_1_234
10
15.3732318
20
-0.3314315
40
0.2123908
50
280.6346389
51
299.8595945
0
ARC
8
DEFAULT_255_1_234
10
15.3923225
20
-0.3676788
40
0.171457
50
300.3576302
51
314.5517981
0
ARC
8
DEFAULT_255_1_234
10
15.3840285
20
-0.3616081
40
0.1816095
50
315.0728369
51
345.0431014
0
ARC
8
DEFAULT_255_1_234
10
15.2917099
20
-0.3347159
40
0.2777492
50
344.5986631
51
357.9269593
0
ARC
8
DEFAULT_255_1_234
10
15.2021426
20
-0.3285724
40
0.3674917
50
357.4748886
51
0.0231117
0
ARC
8
DEFAULT_255_1_234
10
15.3044535
20
-0.3261321
40
0.2651907
50
359.5047933
51
13.4239635
0
ARC
8
DEFAULT_255_1_234
10
15.3911178
20
-0.3039522
40
0.1757509
50
12.9498199
51
48.7551375
0
ARC
8
DEFAULT_255_1_234
10
15.3728912
20
-0.32886
40
0.2065134
50
49.5088623
51
72.1836453
0
ARC
8
DEFAULT_255_1_234
10
15.3371065
20
-0.4350709
40
0.3185836
50
71.9010081
51
84.3554254
0
ARC
8
DEFAULT_255_1_234
10
15.3209697
20
-0.5711674
40
0.4556151
50
84.0193428
51
89.333121
0
LINE
8
DEFAULT_255_1_234
10
16.6555252
20
0.0402327
11
16.6555252
21
-0.1525291
0
LINE
8
DEFAULT_255_1_234
10
15.9174085
20
-0.1726084
11
15.9174085
21
0.0257755
0
LINE
8
DEFAULT_255_1_234
10
16.5069381
20
-0.1926877
11
16.5069381
21
0.0506739
0
LINE
8
DEFAULT_255_1_234
10
16.0659957
20
0.0619184
11
16.0659957
21
-0.1758211
0
ARC
8
DEFAULT_255_1_234
10
15.4308142
20
-0.1574195
40
1.2247208
50
353.8441951
51
0.2287902
0
ARC
8
DEFAULT_255_1_234
10
15.8947646
20
-0.2092194
40
0.7578929
50
344.4934747
51
353.9765454
0
ARC
8
DEFAULT_255_1_234
10
16.1940236
20
-0.2943019
40
0.4467846
50
329.2803592
51
344.7472793
0
ARC
8
DEFAULT_255_1_234
10
16.2933061
20
-0.3487982
40
0.3336173
50
324.9352394
51
328.6160465
0
ARC
8
DEFAULT_255_1_234
10
16.3310169
20
-0.3751573
40
0.2876076
50
280.580143
51
324.9173126
0
ARC
8
DEFAULT_255_1_234
10
16.2908962
20
-0.2080901
40
0.4592847
50
269.5977311
51
281.6734359
0
ARC
8
DEFAULT_255_1_234
10
16.2836868
20
-0.2200827
40
0.4472986
50
256.6228859
51
270.51044
0
ARC
8
DEFAULT_255_1_234
10
16.2434846
20
-0.3749123
40
0.2873874
50
215.8618325
51
257.2788573
0
ARC
8
DEFAULT_255_1_234
10
16.3455877
20
-0.3064023
40
0.4102928
50
197.9693508
51
215.2623606
0
ARC
8
DEFAULT_255_1_234
10
16.5940993
20
-0.2225291
40
0.6725652
50
187.8816417
51
198.2346507
0
ARC
8
DEFAULT_255_1_234
10
16.9899201
20
-0.1653921
40
1.0724845
50
180.8976217
51
188.0055519
0
ARC
8
DEFAULT_255_1_234
10
17.2699389
20
-0.1550223
40
1.3526448
50
180.7449369
51
181.1510016
0
ARC
8
DEFAULT_255_1_234
10
17.1122118
20
0.0306042
40
1.1948131
50
173.7675579
51
180.231553
0
ARC
8
DEFAULT_255_1_234
10
16.6604265
20
0.0816666
40
0.7401564
50
164.3058563
51
173.9002247
0
ARC
8
DEFAULT_255_1_234
10
16.3692334
20
0.1655656
40
0.4371288
50
148.7922025
51
164.568378
0
ARC
8
DEFAULT_255_1_234
10
16.2740786
20
0.2186929
40
0.3282386
50
144.5883898
51
148.1176286
0
ARC
8
DEFAULT_255_1_234
10
16.2397684
20
0.2426315
40
0.2864044
50
101.6440918
51
144.514236
0
ARC
8
DEFAULT_255_1_234
10
16.2822751
20
0.0737069
40
0.4604934
50
89.5284041
51
102.5819763
0
ARC
8
DEFAULT_255_1_234
10
16.2901838
20
0.0698018
40
0.464401
50
77.0437873
51
90.5081339
0
ARC
8
DEFAULT_255_1_234
10
16.330384
20
0.2340615
40
0.2953195
50
48.2778575
51
77.4994676
0
ARC
8
DEFAULT_255_1_234
10
16.3376471
20
0.2469746
40
0.2808655
50
36.3142134
51
47.6305865
0
ARC
8
DEFAULT_255_1_234
10
16.2507778
20
0.1884515
40
0.3855453
50
18.2931786
51
35.6769206
0
ARC
8
DEFAULT_255_1_234
10
15.9964537
20
0.1011593
40
0.654423
50
8.024666
51
18.5605216
0
ARC
8
DEFAULT_255_1_234
10
15.5801457
20
0.0396792
40
1.0752407
50
1.1274072
51
8.1718305
0
ARC
8
DEFAULT_255_1_234
10
15.2565648
20
0.0269885
40
1.3990231
50
0.5424119
51
1.3863029
0
ARC
8
DEFAULT_255_1_234
10
15.4387026
20
0.0542342
40
1.0682415
50
359.8090433
51
4.9407866
0
ARC
8
DEFAULT_255_1_234
10
15.859704
20
0.0918113
40
0.6455691
50
4.8362157
51
12.2904523
0
ARC
8
DEFAULT_255_1_234
10
16.1352154
20
0.1531965
40
0.3633074
50
12.0805627
51
23.8173984
0
ARC
8
DEFAULT_255_1_234
10
16.252586
20
0.2028919
40
0.2358723
50
24.2871213
51
31.3935614
0
ARC
8
DEFAULT_255_1_234
10
16.3050557
20
0.2372233
40
0.1732111
50
30.7407893
51
82.4657128
0
ARC
8
DEFAULT_255_1_234
10
16.2870691
20
0.1488691
40
0.263235
50
81.1060089
51
90.2184952
0
ARC
8
DEFAULT_255_1_234
10
16.283499
20
0.1746924
40
0.2374236
50
89.3806855
51
105.6762551
0
ARC
8
DEFAULT_255_1_234
10
16.2651621
20
0.2413567
40
0.1682847
50
105.7981136
51
149.7388061
0
ARC
8
DEFAULT_255_1_234
10
16.3715699
20
0.177395
40
0.2924306
50
149.4208916
51
163.6286378
0
ARC
8
DEFAULT_255_1_234
10
16.5806587
20
0.113625
40
0.5110213
50
163.3763315
51
172.1410975
0
ARC
8
DEFAULT_255_1_234
10
16.9107306
20
0.0663518
40
0.8444586
50
172.0259487
51
178.0703232
0
ARC
8
DEFAULT_255_1_234
10
17.2137396
20
0.0519906
40
1.1477868
50
177.8631668
51
179.5044149
0
ARC
8
DEFAULT_255_1_234
10
17.10648
20
-0.1794611
40
1.0404907
50
179.7995573
51
185.2460446
0
ARC
8
DEFAULT_255_1_234
10
16.7021839
20
-0.2177487
40
0.6343885
50
185.1411642
51
193.0079639
0
ARC
8
DEFAULT_255_1_234
10
16.4378312
20
-0.2802359
40
0.3627568
50
192.7897626
51
205.2507664
0
ARC
8
DEFAULT_255_1_234
10
16.3331859
20
-0.3269585
40
0.2481908
50
205.8005384
51
211.2537509
0
ARC
8
DEFAULT_255_1_234
10
16.2808299
20
-0.362042
40
0.1852521
50
210.3789793
51
238.4008143
0
ARC
8
DEFAULT_255_1_234
10
16.2788821
20
-0.3573624
40
0.1882621
50
239.6520629
51
265.9793761
0
ARC
8
DEFAULT_255_1_234
10
16.2874021
20
-0.2901573
40
0.2559272
50
265.1315437
51
270.060332
0
ARC
8
DEFAULT_255_1_234
10
16.29028
20
-0.3225466
40
0.2235528
50
269.3314664
51
287.2178029
0
ARC
8
DEFAULT_255_1_234
10
16.3040652
20
-0.3728721
40
0.1714108
50
287.7958004
51
329.080874
0
ARC
8
DEFAULT_255_1_234
10
16.2083109
20
-0.313107
40
0.2842745
50
328.6634704
51
343.3325132
0
ARC
8
DEFAULT_255_1_234
10
15.9910129
20
-0.2454137
40
0.5118644
50
343.0499468
51
351.9393422
0
ARC
8
DEFAULT_255_1_234
10
15.6443429
20
-0.1943051
40
0.8622784
50
351.8069023
51
357.7959224
0
ARC
8
DEFAULT_255_1_234
10
15.3207985
20
-0.1775279
40
1.1862365
50
357.5871873
51
359.2677531
0
LINE
8
DEFAULT_255_1_234
10
8.5458344
20
46.7700091
11
8.2703458
21
46.7700091
0
LINE
8
DEFAULT_255_1_234
10
8.2703458
20
46.7700091
11
8.2703458
21
46.3122
0
LINE
8
DEFAULT_255_1_234
10
8.2703458
20
46.3122
11
8.1161364
21
46.3122
0
LINE
8
DEFAULT_255_1_234
10
8.1161364
20
46.3122
11
8.1161364
21
47.4816211
0
LINE
8
DEFAULT_255_1_234
10
8.1161364
20
47.4816211
11
8.5474407
21
47.4816211
0
LINE
8
DEFAULT_255_1_234
10
8.2703458
20
47.3547196
11
8.2703458
21
46.8961074
0
LINE
8
DEFAULT_255_1_234
10
8.2703458
20
46.8961074
11
8.5474407
21
46.8961074
0
LINE
8
DEFAULT_255_1_234
10
8.5562756
20
47.3547196
11
8.2703458
21
47.3547196
0
ARC
8
DEFAULT_255_1_234
10
8.5516534
20
46.8757195
40
0.6059162
50
78.8378113
51
90.3983573
0
ARC
8
DEFAULT_255_1_234
10
8.5932548
20
47.0777879
40
0.3996205
50
58.9632738
51
79.0810598
0
ARC
8
DEFAULT_255_1_234
10
8.623409
20
47.1337721
40
0.3361177
50
48.0197965
51
58.447194
0
ARC
8
DEFAULT_255_1_234
10
8.6322951
20
47.1423225
40
0.3238191
50
3.3375044
51
48.1766626
0
ARC
8
DEFAULT_255_1_234
10
8.509279
20
47.1246171
40
0.4477806
50
359.9477528
51
4.6829065
0
ARC
8
DEFAULT_255_1_234
10
8.5216107
20
47.1203628
40
0.4354656
50
346.1877825
51
0.5060252
0
ARC
8
DEFAULT_255_1_234
10
8.6574975
20
47.0850731
40
0.295089
50
310.8831995
51
346.5426355
0
ARC
8
DEFAULT_255_1_234
10
8.6266395
20
47.1267695
40
0.3468331
50
286.6925341
51
310.2288297
0
ARC
8
DEFAULT_255_1_234
10
8.5697226
20
47.3057882
40
0.5346654
50
274.6850312
51
287.0245141
0
ARC
8
DEFAULT_255_1_234
10
8.5471949
20
47.5266932
40
0.7566852
50
269.8969846
51
275.018904
0
ARC
8
DEFAULT_255_1_234
10
8.549954
20
47.3187707
40
0.4226708
50
269.6593078
51
279.4153575
0
ARC
8
DEFAULT_255_1_234
10
8.5756815
20
47.1697133
40
0.2714146
50
279.2049762
51
294.9900808
0
ARC
8
DEFAULT_255_1_234
10
8.6047141
20
47.1049508
40
0.2004525
50
295.2888114
51
311.2911209
0
ARC
8
DEFAULT_255_1_234
10
8.6118035
20
47.094422
40
0.1878703
50
311.7854996
51
347.2861051
0
ARC
8
DEFAULT_255_1_234
10
8.5134194
20
47.1197092
40
0.2894234
50
346.6893224
51
0.1059443
0
ARC
8
DEFAULT_255_1_234
10
8.4379089
20
47.1225685
40
0.3649409
50
359.6350983
51
0.0053152
0
ARC
8
DEFAULT_255_1_234
10
8.5349417
20
47.1250937
40
0.2679199
50
359.4672059
51
15.5933957
0
ARC
8
DEFAULT_255_1_234
10
8.5974306
20
47.1419779
40
0.2031932
50
15.7442113
51
46.6203375
0
ARC
8
DEFAULT_255_1_234
10
8.5826527
20
47.1249484
40
0.2257226
50
46.8628658
51
75.6676503
0
ARC
8
DEFAULT_255_1_234
10
8.5532347
20
47.0190718
40
0.3355939
50
75.276167
51
88.2915297
0
ARC
8
DEFAULT_255_1_234
10
8.5474054
20
46.9312524
40
0.4235602
50
87.8575022
51
88.8000139
0
LINE
8
DEFAULT_255_1_234
10
9.5506048
20
47.1860531
11
9.5506048
21
47.0479072
0
LINE
8
DEFAULT_255_1_234
10
9.2791321
20
46.9290375
11
9.2791321
21
46.3122
0
LINE
8
DEFAULT_255_1_234
10
9.2791321
20
46.3122
11
9.1305449
21
46.3122
0
LINE
8
DEFAULT_255_1_234
10
9.1305449
20
46.3122
11
9.1305449
21
47.1812341
0
LINE
8
DEFAULT_255_1_234
10
9.1305449
20
47.1812341
11
9.2751162
21
47.1812341
0
LINE
8
DEFAULT_255_1_234
10
9.2751162
20
47.1812341
11
9.2775257
21
47.0808374
0
ARC
8
DEFAULT_255_1_234
10
9.4839454
20
46.6419342
40
0.4114092
50
80.6754243
51
86.8932892
0
ARC
8
DEFAULT_255_1_234
10
9.4778988
20
46.54517
40
0.5083596
50
86.8038578
51
90.0431435
0
ARC
8
DEFAULT_255_1_234
10
9.4741969
20
46.7908866
40
0.2626638
50
89.2759698
51
106.6213787
0
ARC
8
DEFAULT_255_1_234
10
9.4537533
20
46.865183
40
0.1856317
50
107.1346045
51
157.6458115
0
ARC
8
DEFAULT_255_1_234
10
9.5229134
20
46.8268311
40
0.2643398
50
155.6586782
51
157.2539184
0
ARC
8
DEFAULT_255_1_234
10
9.5024337
20
46.9437157
40
0.2634121
50
127.8165941
51
148.6302098
0
ARC
8
DEFAULT_255_1_234
10
9.4770806
20
46.9697218
40
0.2273596
50
91.3329982
51
126.7875809
0
ARC
8
DEFAULT_255_1_234
10
9.4846746
20
46.8982195
40
0.299078
50
89.986594
51
92.4688449
0
ARC
8
DEFAULT_255_1_234
10
9.4855141
20
46.9257078
40
0.2715908
50
85.3589899
51
90.1623399
0
ARC
8
DEFAULT_255_1_234
10
9.4939657
20
47.0261164
40
0.1708278
50
78.401942
51
85.4594656
0
ARC
8
DEFAULT_255_1_234
10
9.5084541
20
47.0952236
40
0.1002194
50
67.7858312
51
78.5728455
0
ARC
8
DEFAULT_255_1_234
10
9.5192393
20
47.1231887
40
0.0702548
50
63.4835954
51
67.3062642
0
LINE
8
DEFAULT_255_1_234
10
9.6317254
20
46.7443075
11
9.6317254
21
46.7547488
0
LINE
8
DEFAULT_255_1_234
10
10.4228516
20
46.7475202
11
10.4228516
21
46.737079
0
ARC
8
DEFAULT_255_1_234
10
10.1903433
20
46.7579837
40
0.5586273
50
166.3003825
51
180.3317926
0
ARC
8
DEFAULT_255_1_234
10
10.1040593
20
46.7772964
40
0.4702272
50
153.8608245
51
166.0967125
0
ARC
8
DEFAULT_255_1_234
10
10.0374995
20
46.812975
40
0.3947658
50
135.1316692
51
154.253643
0
ARC
8
DEFAULT_255_1_234
10
10.0096555
20
46.8375666
40
0.3576898
50
121.7044358
51
134.776924
0
ARC
8
DEFAULT_255_1_234
10
10.0163548
20
46.8246867
40
0.3721701
50
93.4002104
51
121.5398234
0
ARC
8
DEFAULT_255_1_234
10
10.0258504
20
46.7421228
40
0.4551749
50
89.9706281
51
93.9769836
0
ARC
8
DEFAULT_255_1_234
10
10.0305596
20
46.7811362
40
0.4161854
50
71.3323442
51
90.6161982
0
ARC
8
DEFAULT_255_1_234
10
10.0468293
20
46.8413578
40
0.3539455
50
41.1815071
51
70.707185
0
ARC
8
DEFAULT_255_1_234
10
9.9990693
20
46.7979919
40
0.4184468
50
12.1971897
51
41.3445735
0
ARC
8
DEFAULT_255_1_234
10
9.80647
20
46.7521425
40
0.616399
50
359.5703439
51
12.5804035
0
ARC
8
DEFAULT_255_1_234
10
9.8537775
20
46.7339116
40
0.5690829
50
347.0197749
51
0.3188898
0
ARC
8
DEFAULT_255_1_234
10
9.9496277
20
46.7132808
40
0.4710501
50
334.3504053
51
346.846361
0
ARC
8
DEFAULT_255_1_234
10
10.0341701
20
46.6693805
40
0.3758475
50
310.422922
51
334.8045033
0
ARC
8
DEFAULT_255_1_234
10
10.0423526
20
46.6629782
40
0.3656736
50
301.8486886
51
310.097356
0
ARC
8
DEFAULT_255_1_234
10
10.0391252
20
46.6705638
40
0.3738224
50
274.307774
51
301.655379
0
ARC
8
DEFAULT_255_1_234
10
10.028056
20
46.7583361
40
0.4621997
50
269.9546461
51
274.8588071
0
ARC
8
DEFAULT_255_1_234
10
10.0231493
20
46.7082249
40
0.4121134
50
250.888809
51
270.631312
0
ARC
8
DEFAULT_255_1_234
10
10.0081413
20
46.6523277
40
0.3544073
50
221.1701932
51
250.2227191
0
ARC
8
DEFAULT_255_1_234
10
10.0565568
20
46.6964439
40
0.4198961
50
191.6263638
51
221.3526367
0
ARC
8
DEFAULT_255_1_234
10
10.2453563
20
46.7401329
40
0.6136451
50
179.610213
51
192.0693181
0
ARC
8
DEFAULT_255_1_234
10
10.2876791
20
46.7338633
40
0.5065736
50
179.636298
51
190.6162791
0
ARC
8
DEFAULT_255_1_234
10
10.1234459
20
46.701859
40
0.3392576
50
190.4136628
51
208.7170242
0
ARC
8
DEFAULT_255_1_234
10
10.0724084
20
46.6765366
40
0.2823401
50
209.1867941
51
217.4225593
0
ARC
8
DEFAULT_255_1_234
10
10.0194918
20
46.6299558
40
0.2120636
50
216.1156896
51
265.2575835
0
ARC
8
DEFAULT_255_1_234
10
10.0274066
20
46.6873109
40
0.2698952
50
264.5897417
51
270.0601757
0
ARC
8
DEFAULT_255_1_234
10
10.0307127
20
46.6493185
40
0.2319225
50
269.2532621
51
291.8792492
0
ARC
8
DEFAULT_255_1_234
10
10.0336348
20
46.6315238
40
0.2143562
50
292.9269754
51
323.1776747
0
ARC
8
DEFAULT_255_1_234
10
9.994317
20
46.6663452
40
0.2667346
50
322.2518483
51
323.0930371
0
ARC
8
DEFAULT_255_1_234
10
9.9648829
20
46.684499
40
0.3011886
50
323.6941278
51
343.8493282
0
ARC
8
DEFAULT_255_1_234
10
9.8070372
20
46.732535
40
0.4661719
50
343.5748474
51
355.0079071
0
ARC
8
DEFAULT_255_1_234
10
9.6062618
20
46.7533424
40
0.6680042
50
354.7285225
51
0.1206288
0
ARC
8
DEFAULT_255_1_234
10
9.7831084
20
46.7579751
40
0.4911667
50
359.623636
51
11.2015604
0
ARC
8
DEFAULT_255_1_234
10
9.9365311
20
46.789564
40
0.3345323
50
10.9989411
51
30.8319188
0
ARC
8
DEFAULT_255_1_234
10
9.9761184
20
46.8104297
40
0.2898553
50
31.3008956
51
37.3959224
0
ARC
8
DEFAULT_255_1_234
10
10.0257762
20
46.8523653
40
0.2249582
50
36.5915954
51
62.2442953
0
ARC
8
DEFAULT_255_1_234
10
10.0304216
20
46.8520602
40
0.2231053
50
63.3365542
51
89.7195421
0
ARC
8
DEFAULT_255_1_234
10
10.0261069
20
46.7951884
40
0.2800267
50
88.8936788
51
90.0047485
0
ARC
8
DEFAULT_255_1_234
10
10.0229429
20
46.8524787
40
0.2227586
50
89.1921125
51
114.7099455
0
ARC
8
DEFAULT_255_1_234
10
10.0258193
20
46.8562628
40
0.2205633
50
115.7997161
51
142.2900762
0
ARC
8
DEFAULT_255_1_234
10
10.0696925
20
46.8172658
40
0.2791541
50
141.4658779
51
142.3795754
0
ARC
8
DEFAULT_255_1_234
10
10.080583
20
46.8129557
40
0.2904292
50
143.0175714
51
163.234115
0
ARC
8
DEFAULT_255_1_234
10
10.2384002
20
46.7630054
40
0.4559523
50
162.9447461
51
174.3732162
0
ARC
8
DEFAULT_255_1_234
10
10.4529816
20
46.7389143
40
0.6718682
50
174.1228657
51
180.1565175
0
LINE
8
DEFAULT_255_1_234
10
10.5730451
20
46.7427012
11
10.5730451
21
46.7539456
0
LINE
8
DEFAULT_255_1_234
10
11.1577557
20
47.092885
11
11.1577557
21
47.545875
0
LINE
8
DEFAULT_255_1_234
10
11.1577557
20
47.545875
11
11.3063428
21
47.545875
0
LINE
8
DEFAULT_255_1_234
10
11.3063428
20
47.545875
11
11.3063428
21
46.3122
0
LINE
8
DEFAULT_255_1_234
10
11.3063428
20
46.3122
11
11.1698033
21
46.3122
0
LINE
8
DEFAULT_255_1_234
10
11.1698033
20
46.3122
11
11.1625747
21
46.4053682
0
LINE
8
DEFAULT_255_1_234
10
11.1577557
20
46.5491363
11
11.1577557
21
46.9483137
0
ARC
8
DEFAULT_255_1_234
10
11.2605605
20
46.7583457
40
0.6875294
50
169.1661407
51
180.3666851
0
ARC
8
DEFAULT_255_1_234
10
11.040925
20
46.8021387
40
0.4635805
50
150.2838427
51
169.3798909
0
ARC
8
DEFAULT_255_1_234
10
10.9775867
20
46.8345238
40
0.392532
50
142.1062393
51
149.806405
0
ARC
8
DEFAULT_255_1_234
10
10.9203599
20
46.8843749
40
0.3167807
50
118.4283255
51
142.8643566
0
ARC
8
DEFAULT_255_1_234
10
10.9104944
20
46.8906137
40
0.3066506
50
89.9199246
51
117.3621547
0
ARC
8
DEFAULT_255_1_234
10
10.9159923
20
46.8148731
40
0.3824245
50
89.9987914
51
90.7595231
0
ARC
8
DEFAULT_255_1_234
10
10.9197314
20
46.8383667
40
0.3589502
50
72.8978905
51
90.5955712
0
ARC
8
DEFAULT_255_1_234
10
10.9395262
20
46.9098123
40
0.2848505
50
39.9932841
51
72.477307
0
ARC
8
DEFAULT_255_1_234
10
10.936601
20
46.5885579
40
0.2908996
50
275.084999
51
320.969419
0
ARC
8
DEFAULT_255_1_234
10
10.915173
20
46.7152893
40
0.4191533
50
269.8935077
51
276.4672393
0
ARC
8
DEFAULT_255_1_234
10
10.9083745
20
46.5885703
40
0.2924958
50
222.0839186
51
271.1792213
0
ARC
8
DEFAULT_255_1_234
10
10.9694255
20
46.6510816
40
0.3797413
50
217.5160585
51
222.9101888
0
ARC
8
DEFAULT_255_1_234
10
11.0188094
20
46.6850781
40
0.4396261
50
193.0962774
51
217.1109254
0
ARC
8
DEFAULT_255_1_234
10
11.2145193
20
46.7339128
40
0.6413192
50
181.1070734
51
193.3838631
0
ARC
8
DEFAULT_255_1_234
10
11.3811252
20
46.7425869
40
0.8080801
50
179.9919009
51
181.4937549
0
ARC
8
DEFAULT_255_1_234
10
11.2994854
20
46.733972
40
0.5778615
50
179.6919417
51
188.6549204
0
ARC
8
DEFAULT_255_1_234
10
11.097527
20
46.7021672
40
0.3734182
50
188.4936033
51
202.2187731
0
ARC
8
DEFAULT_255_1_234
10
11.0007978
20
46.6638391
40
0.2693801
50
202.4517848
51
215.9307642
0
ARC
8
DEFAULT_255_1_234
10
10.9415424
20
46.6166191
40
0.1937215
50
214.9062306
51
264.2077075
0
ARC
8
DEFAULT_255_1_234
10
10.9509252
20
46.676415
40
0.2541804
50
263.4637896
51
270.0934907
0
ARC
8
DEFAULT_255_1_234
10
10.9549169
20
46.6672045
40
0.2449958
50
269.1634649
51
291.0931088
0
ARC
8
DEFAULT_255_1_234
10
10.9630874
20
46.6339994
40
0.2111194
50
292.2674853
51
328.1937478
0
ARC
8
DEFAULT_255_1_234
10
10.8939292
20
46.6839026
40
0.2962539
50
327.0410354
51
332.9414029
0
ARC
8
DEFAULT_255_1_234
10
10.935249
20
46.8315886
40
0.2512647
50
27.6811062
51
48.7893196
0
ARC
8
DEFAULT_255_1_234
10
10.9635771
20
46.8576916
40
0.2130039
50
49.8959006
51
87.010286
0
ARC
8
DEFAULT_255_1_234
10
10.9531629
20
46.7789504
40
0.292249
50
85.7764096
51
90.0424572
0
ARC
8
DEFAULT_255_1_234
10
10.9502345
20
46.8449006
40
0.2263149
50
89.313423
51
109.4265906
0
ARC
8
DEFAULT_255_1_234
10
10.9428056
20
46.8753962
40
0.1951098
50
110.3478057
51
145.1577858
0
ARC
8
DEFAULT_255_1_234
10
11.0081849
20
46.827775
40
0.2759807
50
144.7982748
51
162.8715388
0
ARC
8
DEFAULT_255_1_234
10
11.1776499
20
46.7732842
40
0.453983
50
162.5984223
51
173.3418672
0
ARC
8
DEFAULT_255_1_234
10
11.4444277
20
46.7401851
40
0.7228019
50
173.1877442
51
180.2462216
0
LINE
8
DEFAULT_255_1_234
10
12.0765865
20
46.3122
11
12.0733738
21
46.3981396
0
LINE
8
DEFAULT_255_1_234
10
11.533641
20
46.6157997
11
11.533641
21
47.1812341
0
LINE
8
DEFAULT_255_1_234
10
11.533641
20
47.1812341
11
11.6822282
21
47.1812341
0
LINE
8
DEFAULT_255_1_234
10
11.6822282
20
47.1812341
11
11.6822282
21
46.6198156
0
LINE
8
DEFAULT_255_1_234
10
12.069358
20
46.5491363
11
12.069358
21
47.1812341
0
LINE
8
DEFAULT_255_1_234
10
12.069358
20
47.1812341
11
12.2179451
21
47.1812341
0
LINE
8
DEFAULT_255_1_234
10
12.2179451
20
47.1812341
11
12.2179451
21
46.3122
0
LINE
8
DEFAULT_255_1_234
10
12.2179451
20
46.3122
11
12.0765865
21
46.3122
0
ARC
8
DEFAULT_255_1_234
10
11.8618203
20
46.579906
40
0.2789157
50
282.5436552
51
319.3308843
0
ARC
8
DEFAULT_255_1_234
10
11.8231036
20
46.7305137
40
0.4343667
50
269.8917857
51
283.214153
0
ARC
8
DEFAULT_255_1_234
10
11.8187721
20
46.8465183
40
0.5503818
50
269.9995424
51
270.3655186
0
ARC
8
DEFAULT_255_1_234
10
11.8157197
20
46.677453
40
0.3813286
50
257.7355913
51
270.4579866
0
ARC
8
DEFAULT_255_1_234
10
11.7859896
20
46.5475503
40
0.2480795
50
233.3384413
51
258.0721298
0
ARC
8
DEFAULT_255_1_234
10
11.7725503
20
46.5256041
40
0.2224626
50
221.9626381
51
232.7401232
0
ARC
8
DEFAULT_255_1_234
10
11.8005552
20
46.547133
40
0.2576959
50
197.9450831
51
221.3585622
0
ARC
8
DEFAULT_255_1_234
10
11.9400747
20
46.5947997
40
0.4051213
50
185.8088195
51
198.2790125
0
ARC
8
DEFAULT_255_1_234
10
12.129255
20
46.6172963
40
0.5956158
50
180.1439627
51
186.1199408
0
ARC
8
DEFAULT_255_1_234
10
12.0391418
20
46.616256
40
0.3569313
50
179.4285986
51
191.0735588
0
ARC
8
DEFAULT_255_1_234
10
11.8707846
20
46.5815017
40
0.1850421
50
190.5251661
51
212.6990766
0
ARC
8
DEFAULT_255_1_234
10
11.8243639
20
46.555883
40
0.1321852
50
214.2246197
51
264.4398755
0
ARC
8
DEFAULT_255_1_234
10
11.8420975
20
46.6468426
40
0.224609
50
262.1850223
51
270.1952455
0
ARC
8
DEFAULT_255_1_234
10
11.8462865
20
46.7744524
40
0.3522342
50
269.4431043
51
282.9585023
0
ARC
8
DEFAULT_255_1_234
10
11.8799555
20
46.6374561
40
0.2111871
50
282.391263
51
311.9722193
0
ARC
8
DEFAULT_255_1_234
10
11.8807152
20
46.6301809
40
0.2053153
50
313.1724425
51
336.7506893
0
LINE
8
DEFAULT_255_1_234
10
12.9970237
20
46.5860823
11
13.1375792
21
46.5860823
0
LINE
8
DEFAULT_255_1_234
10
12.4050846
20
46.7386853
11
12.4050846
21
46.7635837
0
LINE
8
DEFAULT_255_1_234
10
13.1375792
20
46.8824534
11
12.9970237
21
46.8824534
0
LINE
8
DEFAULT_255_1_234
10
12.5536718
20
46.7579615
11
12.5536718
21
46.7298504
0
ARC
8
DEFAULT_255_1_234
10
12.7958273
20
46.6314121
40
0.2140268
50
269.0327816
51
309.2224514
0
ARC
8
DEFAULT_255_1_234
10
12.8168027
20
46.6099108
40
0.1841255
50
308.396669
51
329.6984113
0
ARC
8
DEFAULT_255_1_234
10
12.8305882
20
46.599482
40
0.166974
50
330.401383
51
355.3970571
0
ARC
8
DEFAULT_255_1_234
10
12.8762748
20
46.6012082
40
0.2617417
50
329.2357853
51
356.6870514
0
ARC
8
DEFAULT_255_1_234
10
12.821277
20
46.6302971
40
0.3238945
50
324.8706984
51
329.7905871
0
ARC
8
DEFAULT_255_1_234
10
12.8134489
20
46.6370106
40
0.3341614
50
298.8769168
51
324.7016144
0
ARC
8
DEFAULT_255_1_234
10
12.780268
20
46.6898917
40
0.3965068
50
296.9023738
51
299.385174
0
ARC
8
DEFAULT_255_1_234
10
12.7932294
20
46.6611422
40
0.365007
50
269.8406811
51
297.1299281
0
ARC
8
DEFAULT_255_1_234
10
12.787895
20
46.7249407
40
0.4288259
50
253.315473
51
270.5771285
0
ARC
8
DEFAULT_255_1_234
10
12.7631985
20
46.6355739
40
0.3361372
50
221.1002312
51
252.9744583
0
ARC
8
DEFAULT_255_1_234
10
12.8091983
20
46.675059
40
0.3967576
50
194.5394537
51
221.0302238
0
ARC
8
DEFAULT_255_1_234
10
12.9940804
20
46.7265952
40
0.5886672
50
182.0499201
51
194.8773585
0
ARC
8
DEFAULT_255_1_234
10
13.1711002
20
46.738406
40
0.7660157
50
179.9791086
51
182.4591564
0
ARC
8
DEFAULT_255_1_234
10
12.9973046
20
46.7665498
40
0.5922274
50
168.614861
51
180.2869651
0
ARC
8
DEFAULT_255_1_234
10
12.8771191
20
46.7901269
40
0.4697532
50
154.9162259
51
168.5402336
0
ARC
8
DEFAULT_255_1_234
10
12.7849699
20
46.835663
40
0.3669966
50
133.5746694
51
155.2558665
0
ARC
8
DEFAULT_255_1_234
10
12.7686857
20
46.8495467
40
0.3457206
50
122.0165146
51
133.2055214
0
ARC
8
DEFAULT_255_1_234
10
12.7722696
20
46.8407361
40
0.355095
50
97.8731644
51
121.7531281
0
ARC
8
DEFAULT_255_1_234
10
12.7901779
20
46.7350159
40
0.4622833
50
89.8471353
51
98.2769494
0
ARC
8
DEFAULT_255_1_234
10
12.7950531
20
46.7960091
40
0.401305
50
73.3760412
51
90.5199766
0
ARC
8
DEFAULT_255_1_234
10
12.8146895
20
46.8682516
40
0.3264695
50
47.7085968
51
73.0509704
0
ARC
8
DEFAULT_255_1_234
10
12.8276765
20
46.8795128
40
0.309407
50
3.7443473
51
48.0843753
0
ARC
8
DEFAULT_255_1_234
10
12.7289714
20
46.8637614
40
0.4090351
50
2.6192045
51
5.0432185
0
ARC
8
DEFAULT_255_1_234
10
12.7746568
20
46.8677592
40
0.2228519
50
3.780656
51
23.9356886
0
ARC
8
DEFAULT_255_1_234
10
12.7975184
20
46.8758155
40
0.198697
50
24.4869552
51
46.9440088
0
ARC
8
DEFAULT_255_1_234
10
12.7976034
20
46.8781484
40
0.1969404
50
46.498716
51
89.3298174
0
ARC
8
DEFAULT_255_1_234
10
12.7914388
20
46.8186723
40
0.2565428
50
88.1083975
51
90.0061569
0
ARC
8
DEFAULT_255_1_234
10
12.7886818
20
46.8240759
40
0.251154
50
89.3773333
51
107.2071161
0
ARC
8
DEFAULT_255_1_234
10
12.7743941
20
46.875819
40
0.1975072
50
107.6883219
51
143.3583002
0
ARC
8
DEFAULT_255_1_234
10
12.8311325
20
46.8331873
40
0.2684762
50
143.2846717
51
162.935323
0
ARC
8
DEFAULT_255_1_234
10
12.9816926
20
46.7848652
40
0.4265927
50
162.6650068
51
174.0805419
0
ARC
8
DEFAULT_255_1_234
10
13.1959766
20
46.7599636
40
0.6423078
50
173.8423985
51
180.1785963
0
ARC
8
DEFAULT_255_1_234
10
13.1411866
20
46.7268039
40
0.5875227
50
179.7028978
51
188.2277152
0
ARC
8
DEFAULT_255_1_234
10
12.9310167
20
46.6953247
40
0.3750127
50
188.0629871
51
201.1160002
0
ARC
8
DEFAULT_255_1_234
10
12.8212366
20
46.6534238
40
0.2575093
50
201.2187293
51
216.9761968
0
ARC
8
DEFAULT_255_1_234
10
12.7760929
20
46.6195993
40
0.2010998
50
217.0135981
51
265.2056839
0
ARC
8
DEFAULT_255_1_234
10
12.7916788
20
46.7117695
40
0.2943543
50
263.681807
51
270.104251
0
LINE
8
DEFAULT_255_1_234
10
13.3576488
20
47.3916656
11
13.5062359
21
47.3916656
0
LINE
8
DEFAULT_255_1_234
10
13.5062359
20
47.3916656
11
13.5062359
21
47.1812341
0
LINE
8
DEFAULT_255_1_234
10
13.5062359
20
47.1812341
11
13.6684771
21
47.1812341
0
LINE
8
DEFAULT_255_1_234
10
13.6684771
20
47.1812341
11
13.6684771
21
47.0663802
0
LINE
8
DEFAULT_255_1_234
10
13.6684771
20
47.0663802
11
13.5062359
21
47.0663802
0
LINE
8
DEFAULT_255_1_234
10
13.5062359
20
47.0663802
11
13.5062359
21
46.5274506
0
LINE
8
DEFAULT_255_1_234
10
13.6724929
20
46.4326761
11
13.6724929
21
46.3122
0
LINE
8
DEFAULT_255_1_234
10
13.3576488
20
46.5274506
11
13.3576488
21
47.0663802
0
LINE
8
DEFAULT_255_1_234
10
13.3576488
20
47.0663802
11
13.1994235
21
47.0663802
0
LINE
8
DEFAULT_255_1_234
10
13.1994235
20
47.0663802
11
13.1994235
21
47.1812341
0
LINE
8
DEFAULT_255_1_234
10
13.1994235
20
47.1812341
11
13.3576488
21
47.1812341
0
LINE
8
DEFAULT_255_1_234
10
13.3576488
20
47.1812341
11
13.3576488
21
47.3916656
0
ARC
8
DEFAULT_255_1_234
10
13.7069862
20
46.5264084
40
0.200753
50
179.7025659
51
187.917967
0
ARC
8
DEFAULT_255_1_234
10
13.6323888
20
46.5156724
40
0.1253883
50
187.7545981
51
200.2447476
0
ARC
8
DEFAULT_255_1_234
10
13.5903209
20
46.4999859
40
0.0804913
50
200.130383
51
219.174133
0
ARC
8
DEFAULT_255_1_234
10
13.5767386
20
46.4907515
40
0.0641445
50
220.4434483
51
249.6172
0
ARC
8
DEFAULT_255_1_234
10
13.5922236
20
46.5296968
40
0.1060489
50
249.1032952
51
262.775154
0
ARC
8
DEFAULT_255_1_234
10
13.6010408
20
46.5925715
40
0.1695354
50
262.4913187
51
270.2611758
0
ARC
8
DEFAULT_255_1_234
10
13.6007825
20
46.6141103
40
0.191075
50
270.3091804
51
275.6625139
0
ARC
8
DEFAULT_255_1_234
10
13.586505
20
46.7642435
40
0.3418851
50
275.5610264
51
279.0879356
0
ARC
8
DEFAULT_255_1_234
10
13.5534927
20
46.9737699
40
0.5539959
50
279.0365489
51
281.5011378
0
ARC
8
DEFAULT_255_1_234
10
13.5178004
20
47.1541423
40
0.7378639
50
281.4243939
51
282.1017894
0
ARC
8
DEFAULT_255_1_234
10
13.5521251
20
46.7459858
40
0.4501761
50
275.2597045
51
285.5083879
0
ARC
8
DEFAULT_255_1_234
10
13.5582576
20
46.6903606
40
0.3942242
50
270.0268409
51
275.1132796
0
ARC
8
DEFAULT_255_1_234
10
13.5562541
20
46.5576614
40
0.261534
50
257.3573315
51
270.479383
0
ARC
8
DEFAULT_255_1_234
10
13.5349431
20
46.4678406
40
0.1692304
50
230.8037497
51
257.741658
0
ARC
8
DEFAULT_255_1_234
10
13.5281335
20
46.4568777
40
0.1564393
50
219.974146
51
230.1990686
0
ARC
8
DEFAULT_255_1_234
10
13.5613281
20
46.4822579
40
0.1981916
50
196.5084186
51
219.4318458
0
ARC
8
DEFAULT_255_1_234
10
13.6628727
20
46.5141194
40
0.3046086
50
184.6404872
51
196.8269686
0
ARC
8
DEFAULT_255_1_234
10
13.7873791
20
46.5266908
40
0.4297309
50
179.8986958
51
184.9681077
0
LINE
8
DEFAULT_255_1_234
10
14.0034005
20
47.1812341
11
14.0034005
21
46.3122
0
LINE
8
DEFAULT_255_1_234
10
14.0034005
20
46.3122
11
13.8548134
21
46.3122
0
LINE
8
DEFAULT_255_1_234
10
13.8548134
20
46.3122
11
13.8548134
21
47.1812341
0
LINE
8
DEFAULT_255_1_234
10
13.8548134
20
47.1812341
11
14.0034005
21
47.1812341
0
ARC
8
DEFAULT_255_1_234
10
13.9406282
20
47.4126889
40
0.097867
50
161.415052
51
180.5526306
0
ARC
8
DEFAULT_255_1_234
10
13.9282061
20
47.4161077
40
0.0850062
50
138.1827368
51
160.9307106
0
ARC
8
DEFAULT_255_1_234
10
13.9172006
20
47.4256588
40
0.0704362
50
104.6368899
51
138.0039868
0
ARC
8
DEFAULT_255_1_234
10
13.9279161
20
47.3889963
40
0.1086221
50
92.0600725
51
105.2189128
0
ARC
8
DEFAULT_255_1_234
10
13.9302509
20
47.3547117
40
0.1429728
50
89.9756393
51
92.5012496
0
ARC
8
DEFAULT_255_1_234
10
13.9312529
20
47.3772731
40
0.1204151
50
78.0235316
51
90.4478182
0
ARC
8
DEFAULT_255_1_234
10
13.9404621
20
47.4186295
40
0.0780493
50
55.051506
51
78.3369085
0
ARC
8
DEFAULT_255_1_234
10
13.9454895
20
47.4270711
40
0.0682538
50
42.0501187
51
54.4513741
0
ARC
8
DEFAULT_255_1_234
10
13.9319762
20
47.4146798
40
0.0865878
50
1.7497075
51
42.1496013
0
ARC
8
DEFAULT_255_1_234
10
13.9065095
20
47.4117738
40
0.1121515
50
359.9852656
51
2.8364544
0
ARC
8
DEFAULT_255_1_234
10
13.9231087
20
47.4108229
40
0.0955566
50
342.1070653
51
0.552888
0
ARC
8
DEFAULT_255_1_234
10
13.9373784
20
47.4068904
40
0.0807713
50
316.7107116
51
341.6516965
0
ARC
8
DEFAULT_255_1_234
10
13.9440822
20
47.4008823
40
0.0717724
50
285.4397031
51
316.5324284
0
ARC
8
DEFAULT_255_1_234
10
13.9330739
20
47.4374554
40
0.1099597
50
272.3547054
51
285.8953117
0
ARC
8
DEFAULT_255_1_234
10
13.9303897
20
47.4740048
40
0.1465932
50
269.9695369
51
272.8160237
0
ARC
8
DEFAULT_255_1_234
10
13.9294078
20
47.4520863
40
0.1246779
50
258.8431134
51
270.4153935
0
ARC
8
DEFAULT_255_1_234
10
13.920412
20
47.4085414
40
0.0802162
50
238.5431189
51
259.1288175
0
ARC
8
DEFAULT_255_1_234
10
13.9136005
20
47.3961856
40
0.0661247
50
222.5062634
51
237.9906969
0
ARC
8
DEFAULT_255_1_234
10
13.9263593
20
47.4077889
40
0.0833707
50
184.1069131
51
222.460413
0
ARC
8
DEFAULT_255_1_234
10
13.9532833
20
47.4116349
40
0.1105176
50
179.9429482
51
185.0960898
0
LINE
8
DEFAULT_255_1_234
10
14.3070002
20
47.1812341
11
14.527873
21
46.5137966
0
LINE
8
DEFAULT_255_1_234
10
14.527873
20
46.5137966
11
14.7431236
21
47.1812341
0
LINE
8
DEFAULT_255_1_234
10
14.7431236
20
47.1812341
11
14.8949235
21
47.1812341
0
LINE
8
DEFAULT_255_1_234
10
14.8949235
20
47.1812341
11
14.583292
21
46.3122
0
LINE
8
DEFAULT_255_1_234
10
14.583292
20
46.3122
11
14.4700445
21
46.3122
0
LINE
8
DEFAULT_255_1_234
10
14.4700445
20
46.3122
11
14.1552004
21
47.1812341
0
LINE
8
DEFAULT_255_1_234
10
14.1552004
20
47.1812341
11
14.3070002
21
47.1812341
0
LINE
8
DEFAULT_255_1_234
10
15.1993264
20
47.1812341
11
15.1993264
21
46.3122
0
LINE
8
DEFAULT_255_1_234
10
15.1993264
20
46.3122
11
15.0507392
21
46.3122
0
LINE
8
DEFAULT_255_1_234
10
15.0507392
20
46.3122
11
15.0507392
21
47.1812341
0
LINE
8
DEFAULT_255_1_234
10
15.0507392
20
47.1812341
11
15.1993264
21
47.1812341
0
ARC
8
DEFAULT_255_1_234
10
15.1365541
20
47.4126889
40
0.097867
50
161.415052
51
180.5526306
0
ARC
8
DEFAULT_255_1_234
10
15.1241319
20
47.4161077
40
0.0850062
50
138.1827368
51
160.9307106
0
ARC
8
DEFAULT_255_1_234
10
15.1131265
20
47.4256588
40
0.0704362
50
104.6368899
51
138.0039868
0
ARC
8
DEFAULT_255_1_234
10
15.1238419
20
47.3889963
40
0.1086221
50
92.0600725
51
105.2189128
0
ARC
8
DEFAULT_255_1_234
10
15.1261768
20
47.3547117
40
0.1429728
50
89.9756393
51
92.5012496
0
ARC
8
DEFAULT_255_1_234
10
15.1271787
20
47.3772731
40
0.1204151
50
78.0235316
51
90.4478182
0
ARC
8
DEFAULT_255_1_234
10
15.1363879
20
47.4186295
40
0.0780493
50
55.051506
51
78.3369085
0
ARC
8
DEFAULT_255_1_234
10
15.1414153
20
47.4270711
40
0.0682538
50
42.0501187
51
54.4513741
0
ARC
8
DEFAULT_255_1_234
10
15.127902
20
47.4146798
40
0.0865878
50
1.7497075
51
42.1496013
0
ARC
8
DEFAULT_255_1_234
10
15.1024353
20
47.4117738
40
0.1121515
50
359.9852656
51
2.8364544
0
ARC
8
DEFAULT_255_1_234
10
15.1190345
20
47.4108229
40
0.0955566
50
342.1070653
51
0.552888
0
ARC
8
DEFAULT_255_1_234
10
15.1333043
20
47.4068904
40
0.0807713
50
316.7107116
51
341.6516965
0
ARC
8
DEFAULT_255_1_234
10
15.140008
20
47.4008823
40
0.0717724
50
285.4397031
51
316.5324284
0
ARC
8
DEFAULT_255_1_234
10
15.1289997
20
47.4374554
40
0.1099597
50
272.3547054
51
285.8953117
0
ARC
8
DEFAULT_255_1_234
10
15.1263155
20
47.4740048
40
0.1465932
50
269.9695369
51
272.8160237
0
ARC
8
DEFAULT_255_1_234
10
15.1253336
20
47.4520863
40
0.1246779
50
258.8431134
51
270.4153935
0
ARC
8
DEFAULT_255_1_234
10
15.1163379
20
47.4085414
40
0.0802162
50
238.5431189
51
259.1288175
0
ARC
8
DEFAULT_255_1_234
10
15.1095264
20
47.3961856
40
0.0661247
50
222.5062634
51
237.9906969
0
ARC
8
DEFAULT_255_1_234
10
15.1222851
20
47.4077889
40
0.0833707
50
184.1069131
51
222.460413
0
ARC
8
DEFAULT_255_1_234
10
15.1492092
20
47.4116349
40
0.1105176
50
179.9429482
51
185.0960898
0
LINE
8
DEFAULT_255_1_234
10
15.4900753
20
47.3916656
11
15.6386625
21
47.3916656
0
LINE
8
DEFAULT_255_1_234
10
15.6386625
20
47.3916656
11
15.6386625
21
47.1812341
0
LINE
8
DEFAULT_255_1_234
10
15.6386625
20
47.1812341
11
15.8009036
21
47.1812341
0
LINE
8
DEFAULT_255_1_234
10
15.8009036
20
47.1812341
11
15.8009036
21
47.0663802
0
LINE
8
DEFAULT_255_1_234
10
15.8009036
20
47.0663802
11
15.6386625
21
47.0663802
0
LINE
8
DEFAULT_255_1_234
10
15.6386625
20
47.0663802
11
15.6386625
21
46.5274506
0
LINE
8
DEFAULT_255_1_234
10
15.8049194
20
46.4326761
11
15.8049194
21
46.3122
0
LINE
8
DEFAULT_255_1_234
10
15.4900753
20
46.5274506
11
15.4900753
21
47.0663802
0
LINE
8
DEFAULT_255_1_234
10
15.4900753
20
47.0663802
11
15.33185
21
47.0663802
0
LINE
8
DEFAULT_255_1_234
10
15.33185
20
47.0663802
11
15.33185
21
47.1812341
0
LINE
8
DEFAULT_255_1_234
10
15.33185
20
47.1812341
11
15.4900753
21
47.1812341
0
LINE
8
DEFAULT_255_1_234
10
15.4900753
20
47.1812341
11
15.4900753
21
47.3916656
0
ARC
8
DEFAULT_255_1_234
10
15.8394127
20
46.5264084
40
0.200753
50
179.7025659
51
187.917967
0
ARC
8
DEFAULT_255_1_234
10
15.7648153
20
46.5156724
40
0.1253883
50
187.7545981
51
200.2447476
0
ARC
8
DEFAULT_255_1_234
10
15.7227474
20
46.4999859
40
0.0804913
50
200.130383
51
219.174133
0
ARC
8
DEFAULT_255_1_234
10
15.7091651
20
46.4907515
40
0.0641445
50
220.4434483
51
249.6172
0
ARC
8
DEFAULT_255_1_234
10
15.7246501
20
46.5296968
40
0.1060489
50
249.1032952
51
262.775154
0
ARC
8
DEFAULT_255_1_234
10
15.7334673
20
46.5925715
40
0.1695354
50
262.4913187
51
270.2611758
0
ARC
8
DEFAULT_255_1_234
10
15.7332091
20
46.6141103
40
0.191075
50
270.3091804
51
275.6625139
0
ARC
8
DEFAULT_255_1_234
10
15.7189315
20
46.7642435
40
0.3418851
50
275.5610264
51
279.0879356
0
ARC
8
DEFAULT_255_1_234
10
15.6859192
20
46.9737699
40
0.5539959
50
279.0365489
51
281.5011378
0
ARC
8
DEFAULT_255_1_234
10
15.6502269
20
47.1541423
40
0.7378639
50
281.4243939
51
282.1017894
0
ARC
8
DEFAULT_255_1_234
10
15.6845516
20
46.7459858
40
0.4501761
50
275.2597045
51
285.5083879
0
ARC
8
DEFAULT_255_1_234
10
15.6906841
20
46.6903606
40
0.3942242
50
270.0268409
51
275.1132796
0
ARC
8
DEFAULT_255_1_234
10
15.6886806
20
46.5576614
40
0.261534
50
257.3573315
51
270.479383
0
ARC
8
DEFAULT_255_1_234
10
15.6673697
20
46.4678406
40
0.1692304
50
230.8037497
51
257.741658
0
ARC
8
DEFAULT_255_1_234
10
15.66056
20
46.4568777
40
0.1564393
50
219.974146
51
230.1990686
0
ARC
8
DEFAULT_255_1_234
10
15.6937546
20
46.4822579
40
0.1981916
50
196.5084186
51
219.4318458
0
ARC
8
DEFAULT_255_1_234
10
15.7952992
20
46.5141194
40
0.3046086
50
184.6404872
51
196.8269686
0
ARC
8
DEFAULT_255_1_234
10
15.9198056
20
46.5266908
40
0.4297309
50
179.8986958
51
184.9681077
0
LINE
8
DEFAULT_255_1_234
10
16.0418557
20
47.1812341
11
16.2587126
21
46.5298601
0
LINE
8
DEFAULT_255_1_234
10
16.2587126
20
46.5298601
11
16.4611125
21
47.1812341
0
LINE
8
DEFAULT_255_1_234
10
16.4611125
20
47.1812341
11
16.6201409
21
47.1812341
0
LINE
8
DEFAULT_255_1_234
10
16.6201409
20
47.1812341
11
16.2707603
21
46.17807
0
LINE
8
DEFAULT_255_1_234
10
16.0129415
20
45.961213
11
15.9848304
21
45.9636226
0
LINE
8
DEFAULT_255_1_234
10
15.9848304
20
45.9636226
11
15.9294114
21
45.9740638
0
LINE
8
DEFAULT_255_1_234
10
15.9294114
20
45.9740638
11
15.9294114
21
46.0945399
0
LINE
8
DEFAULT_255_1_234
10
15.9294114
20
46.0945399
11
15.9695701
21
46.0913272
0
LINE
8
DEFAULT_255_1_234
10
16.1567096
20
46.233489
11
16.1896397
21
46.3218381
0
LINE
8
DEFAULT_255_1_234
10
16.1896397
20
46.3218381
11
15.8796146
21
47.1812341
0
LINE
8
DEFAULT_255_1_234
10
15.8796146
20
47.1812341
11
16.0418557
21
47.1812341
0
ARC
8
DEFAULT_255_1_234
10
15.8072945
20
46.3465403
40
0.4931356
50
327.7224013
51
340.0237316
0
ARC
8
DEFAULT_255_1_234
10
15.9825161
20
46.233372
40
0.2845645
50
305.2163759
51
328.1469174
0
ARC
8
DEFAULT_255_1_234
10
16.0170212
20
46.1924893
40
0.2313123
50
268.9893887
51
304.0733175
0
ARC
8
DEFAULT_255_1_234
10
15.9710414
20
46.3948864
40
0.3035628
50
269.7222887
51
278.0404605
0
ARC
8
DEFAULT_255_1_234
10
15.9866237
20
46.2888823
40
0.1964222
50
277.8648378
51
290.8634365
0
ARC
8
DEFAULT_255_1_234
10
16.0074226
20
46.2333422
40
0.1371168
50
291.0076295
51
305.5967213
0
ARC
8
DEFAULT_255_1_234
10
16.0055417
20
46.2317702
40
0.1369553
50
306.6194038
51
324.1023288
0
ARC
8
DEFAULT_255_1_234
10
15.9308231
20
46.28722
40
0.2299972
50
323.8264381
51
334.2987676
0
ARC
8
DEFAULT_255_1_234
10
15.806434
20
46.3483087
40
0.3685747
50
334.1277399
51
340.8153554
0
ARC
8
DEFAULT_255_1_234
10
15.7088275
20
46.3842465
40
0.4725741
50
340.5889714
51
341.3967148
0
LINE
8
DEFAULT_255_1_234
10
16.953458
20
46.8479169
11
16.953458
21
46.9691962
0
LINE
8
DEFAULT_255_1_234
10
16.953458
20
46.9691962
11
17.0650992
21
46.9691962
0
LINE
8
DEFAULT_255_1_234
10
16.874747
20
47.1748087
11
16.7261598
21
47.1748087
0
LINE
8
DEFAULT_255_1_234
10
16.7157186
20
46.6206188
11
16.8651089
21
46.6206188
0
LINE
8
DEFAULT_255_1_234
10
17.0650992
20
46.8479169
11
16.953458
21
46.8479169
0
ARC
8
DEFAULT_255_1_234
10
17.0621858
20
47.3084713
40
0.3392876
50
270.4919872
51
281.8951556
0
ARC
8
DEFAULT_255_1_234
10
17.086312
20
47.1982702
40
0.2264817
50
281.6691735
51
301.2943132
0
ARC
8
DEFAULT_255_1_234
10
17.103333
20
47.1671304
40
0.1910381
50
301.7833094
51
311.7545298
0
ARC
8
DEFAULT_255_1_234
10
17.1124906
20
47.1569748
40
0.1773635
50
311.7323931
51
354.2802411
0
ARC
8
DEFAULT_255_1_234
10
17.0398531
20
47.1694722
40
0.2509385
50
353.0937916
51
0.1181479
0
ARC
8
DEFAULT_255_1_234
10
16.9937316
20
47.1742386
40
0.2970898
50
359.1805295
51
15.0453146
0
ARC
8
DEFAULT_255_1_234
10
17.1283153
20
47.2134992
40
0.1569564
50
13.9577229
51
77.6713066
0
ARC
8
DEFAULT_255_1_234
10
17.0896682
20
47.0749949
40
0.3006298
50
76.1116566
51
90.7026153
0
ARC
8
DEFAULT_255_1_234
10
17.083752
20
47.1023545
40
0.2732568
50
89.5324876
51
103.531937
0
ARC
8
DEFAULT_255_1_234
10
17.0636965
20
47.1822884
40
0.1908508
50
103.2931773
51
133.5619022
0
ARC
8
DEFAULT_255_1_234
10
17.0592453
20
47.1882375
40
0.1834746
50
133.8349307
51
173.5344437
0
ARC
8
DEFAULT_255_1_234
10
17.1315496
20
47.1754213
40
0.2568033
50
172.5096846
51
180.1366907
0
ARC
8
DEFAULT_255_1_234
10
17.036439
20
47.1788622
40
0.3103056
50
155.3484492
51
180.7484736
0
ARC
8
DEFAULT_255_1_234
10
17.0315479
20
47.1759846
40
0.3070957
50
131.5744599
51
154.4798489
0
ARC
8
DEFAULT_255_1_234
10
17.0628626
20
47.144331
40
0.3515643
50
96.9875458
51
131.9690667
0
ARC
8
DEFAULT_255_1_234
10
17.0848106
20
47.0197636
40
0.4779224
50
89.8596053
51
97.7825159
0
ARC
8
DEFAULT_255_1_234
10
17.0896169
20
46.9935616
40
0.5041361
50
78.3655447
51
90.4131539
0
ARC
8
DEFAULT_255_1_234
10
17.1254087
20
47.1594887
40
0.3344039
50
56.6229102
51
78.638727
0
ARC
8
DEFAULT_255_1_234
10
17.1469031
20
47.1970805
40
0.2912001
50
47.0253525
51
56.0854072
0
ARC
8
DEFAULT_255_1_234
10
17.1488811
20
47.2010223
40
0.2869704
50
10.9208013
51
46.7778124
0
ARC
8
DEFAULT_255_1_234
10
17.0124878
20
47.1694857
40
0.426899
50
359.6364486
51
11.6087304
0
ARC
8
DEFAULT_255_1_234
10
17.1959722
20
47.1679752
40
0.243409
50
332.3549906
51
359.7179418
0
ARC
8
DEFAULT_255_1_234
10
17.1309323
20
47.1988142
40
0.3153459
50
325.2333722
51
332.8745602
0
ARC
8
DEFAULT_255_1_234
10
17.1461947
20
47.1881828
40
0.2967456
50
292.9802137
51
325.2392345
0
ARC
8
DEFAULT_255_1_234
10
17.1187321
20
47.2415863
40
0.3566604
50
292.5402179
51
293.6924929
0
ARC
8
DEFAULT_255_1_234
10
17.1579917
20
46.5961091
40
0.3307468
50
57.6435486
51
72.8625112
0
ARC
8
DEFAULT_255_1_234
10
17.1934416
20
46.6535549
40
0.2632492
50
36.7248896
51
57.4697979
0
ARC
8
DEFAULT_255_1_234
10
17.1923049
20
46.654822
40
0.2634081
50
8.0545065
51
36.356114
0
ARC
8
DEFAULT_255_1_234
10
17.1060234
20
46.6393174
40
0.3510261
50
359.8320645
51
8.5869982
0
ARC
8
DEFAULT_255_1_234
10
17.068501
20
46.6345101
40
0.3885653
50
343.9829931
51
0.5571613
0
ARC
8
DEFAULT_255_1_234
10
17.1571208
20
46.6102438
40
0.2966924
50
311.6359546
51
343.7651759
0
ARC
8
DEFAULT_255_1_234
10
17.1192777
20
46.6529102
40
0.3537231
50
279.7829875
51
311.6255694
0
ARC
8
DEFAULT_255_1_234
10
17.0891553
20
46.796628
40
0.5004971
50
269.7286406
51
280.3856417
0
ARC
8
DEFAULT_255_1_234
10
17.0829626
20
46.7924996
40
0.4963778
50
256.6828919
51
270.4412052
0
ARC
8
DEFAULT_255_1_234
10
17.0490921
20
46.6540394
40
0.3538406
50
229.4223008
51
256.8556159
0
ARC
8
DEFAULT_255_1_234
10
17.0076314
20
46.6073736
40
0.2914296
50
181.818294
51
229.6455059
0
ARC
8
DEFAULT_255_1_234
10
17.111627
20
46.6204496
40
0.3959084
50
179.9755256
51
183.2323064
0
ARC
8
DEFAULT_255_1_234
10
17.0944016
20
46.6184037
40
0.2293034
50
179.4465117
51
196.2869258
0
ARC
8
DEFAULT_255_1_234
10
17.0456424
20
46.6050651
40
0.1787621
50
196.5661473
51
227.705904
0
ARC
8
DEFAULT_255_1_234
10
17.0620519
20
46.6234155
40
0.2033784
50
227.7652068
51
257.8762805
0
ARC
8
DEFAULT_255_1_234
10
17.0845489
20
46.7177156
40
0.3003081
50
257.4584385
51
270.426602
0
ARC
8
DEFAULT_255_1_234
10
17.0891055
20
46.7466996
40
0.329292
50
269.5962073
51
280.8789248
0
ARC
8
DEFAULT_255_1_234
10
17.1120584
20
46.6320685
40
0.2123908
50
280.6346389
51
299.8595945
0
ARC
8
DEFAULT_255_1_234
10
17.1311491
20
46.5958212
40
0.171457
50
300.3576302
51
314.5517981
0
ARC
8
DEFAULT_255_1_234
10
17.1228551
20
46.6018919
40
0.1816095
50
315.0728369
51
345.0431014
0
ARC
8
DEFAULT_255_1_234
10
17.0305365
20
46.6287841
40
0.2777492
50
344.5986631
51
357.9269593
0
ARC
8
DEFAULT_255_1_234
10
16.9409692
20
46.6349276
40
0.3674917
50
357.4748886
51
0.0231117
0
ARC
8
DEFAULT_255_1_234
10
17.0432801
20
46.6373679
40
0.2651907
50
359.5047933
51
13.4239635
0
ARC
8
DEFAULT_255_1_234
10
17.1299445
20
46.6595478
40
0.1757509
50
12.9498199
51
48.7551375
0
ARC
8
DEFAULT_255_1_234
10
17.1117179
20
46.63464
40
0.2065134
50
49.5088623
51
72.1836453
0
ARC
8
DEFAULT_255_1_234
10
17.0759331
20
46.5284291
40
0.3185836
50
71.9010081
51
84.3554254
0
ARC
8
DEFAULT_255_1_234
10
17.0597963
20
46.3923326
40
0.4556151
50
84.0193428
51
89.333121
0
LINE
8
DEFAULT_255_1_234
10
18.3943519
20
47.0037327
11
18.3943519
21
46.8109709
0
LINE
8
DEFAULT_255_1_234
10
17.6562351
20
46.7908916
11
17.6562351
21
46.9892755
0
LINE
8
DEFAULT_255_1_234
10
18.2457647
20
46.7708123
11
18.2457647
21
47.0141739
0
LINE
8
DEFAULT_255_1_234
10
17.8048223
20
47.0254184
11
17.8048223
21
46.7876789
0
ARC
8
DEFAULT_255_1_234
10
17.1696408
20
46.8060805
40
1.2247208
50
353.8441951
51
0.2287902
0
ARC
8
DEFAULT_255_1_234
10
17.6335912
20
46.7542806
40
0.7578929
50
344.4934747
51
353.9765454
0
ARC
8
DEFAULT_255_1_234
10
17.9328502
20
46.6691981
40
0.4467846
50
329.2803592
51
344.7472793
0
ARC
8
DEFAULT_255_1_234
10
18.0321327
20
46.6147018
40
0.3336173
50
324.9352394
51
328.6160465
0
ARC
8
DEFAULT_255_1_234
10
18.0698436
20
46.5883427
40
0.2876076
50
280.580143
51
324.9173126
0
ARC
8
DEFAULT_255_1_234
10
18.0297228
20
46.7554099
40
0.4592847
50
269.5977311
51
281.6734359
0
ARC
8
DEFAULT_255_1_234
10
18.0225134
20
46.7434173
40
0.4472986
50
256.6228859
51
270.51044
0
ARC
8
DEFAULT_255_1_234
10
17.9823112
20
46.5885877
40
0.2873874
50
215.8618325
51
257.2788573
0
ARC
8
DEFAULT_255_1_234
10
18.0844143
20
46.6570977
40
0.4102928
50
197.9693508
51
215.2623606
0
ARC
8
DEFAULT_255_1_234
10
18.3329259
20
46.7409709
40
0.6725652
50
187.8816417
51
198.2346507
0
ARC
8
DEFAULT_255_1_234
10
18.7287467
20
46.7981079
40
1.0724845
50
180.8976217
51
188.0055519
0
ARC
8
DEFAULT_255_1_234
10
19.0087655
20
46.8084777
40
1.3526448
50
180.7449369
51
181.1510016
0
ARC
8
DEFAULT_255_1_234
10
18.8510384
20
46.9941042
40
1.1948131
50
173.7675579
51
180.231553
0
ARC
8
DEFAULT_255_1_234
10
18.3992531
20
47.0451666
40
0.7401564
50
164.3058563
51
173.9002247
0
ARC
8
DEFAULT_255_1_234
10
18.10806
20
47.1290656
40
0.4371288
50
148.7922025
51
164.568378
0
ARC
8
DEFAULT_255_1_234
10
18.0129052
20
47.1821929
40
0.3282386
50
144.5883898
51
148.1176286
0
ARC
8
DEFAULT_255_1_234
10
17.978595
20
47.2061315
40
0.2864044
50
101.6440918
51
144.514236
0
ARC
8
DEFAULT_255_1_234
10
18.0211017
20
47.0372069
40
0.4604934
50
89.5284041
51
102.5819763
0
ARC
8
DEFAULT_255_1_234
10
18.0290104
20
47.0333018
40
0.464401
50
77.0437873
51
90.5081339
0
ARC
8
DEFAULT_255_1_234
10
18.0692106
20
47.1975615
40
0.2953195
50
48.2778575
51
77.4994676
0
ARC
8
DEFAULT_255_1_234
10
18.0764737
20
47.2104746
40
0.2808655
50
36.3142134
51
47.6305865
0
ARC
8
DEFAULT_255_1_234
10
17.9896044
20
47.1519515
40
0.3855453
50
18.2931786
51
35.6769206
0
ARC
8
DEFAULT_255_1_234
10
17.7352803
20
47.0646593
40
0.654423
50
8.024666
51
18.5605216
0
ARC
8
DEFAULT_255_1_234
10
17.3189723
20
47.0031792
40
1.0752407
50
1.1274072
51
8.1718305
0
ARC
8
DEFAULT_255_1_234
10
16.9953914
20
46.9904885
40
1.3990231
50
0.5424119
51
1.3863029
0
ARC
8
DEFAULT_255_1_234
10
17.1775292
20
47.0177342
40
1.0682415
50
359.8090433
51
4.9407866
0
ARC
8
DEFAULT_255_1_234
10
17.5985306
20
47.0553113
40
0.6455691
50
4.8362157
51
12.2904523
0
ARC
8
DEFAULT_255_1_234
10
17.874042
20
47.1166965
40
0.3633074
50
12.0805627
51
23.8173984
0
ARC
8
DEFAULT_255_1_234
10
17.9914126
20
47.1663919
40
0.2358723
50
24.2871213
51
31.3935614
0
ARC
8
DEFAULT_255_1_234
10
18.0438823
20
47.2007233
40
0.1732111
50
30.7407893
51
82.4657128
0
ARC
8
DEFAULT_255_1_234
10
18.0258957
20
47.1123691
40
0.263235
50
81.1060089
51
90.2184952
0
ARC
8
DEFAULT_255_1_234
10
18.0223256
20
47.1381924
40
0.2374236
50
89.3806855
51
105.6762551
0
ARC
8
DEFAULT_255_1_234
10
18.0039887
20
47.2048567
40
0.1682847
50
105.7981136
51
149.7388061
0
ARC
8
DEFAULT_255_1_234
10
18.1103965
20
47.140895
40
0.2924306
50
149.4208916
51
163.6286378
0
ARC
8
DEFAULT_255_1_234
10
18.3194853
20
47.077125
40
0.5110213
50
163.3763315
51
172.1410975
0
ARC
8
DEFAULT_255_1_234
10
18.6495572
20
47.0298518
40
0.8444586
50
172.0259487
51
178.0703232
0
ARC
8
DEFAULT_255_1_234
10
18.9525662
20
47.0154906
40
1.1477868
50
177.8631668
51
179.5044149
0
ARC
8
DEFAULT_255_1_234
10
18.8453066
20
46.7840389
40
1.0404907
50
179.7995573
51
185.2460446
0
ARC
8
DEFAULT_255_1_234
10
18.4410105
20
46.7457513
40
0.6343885
50
185.1411642
51
193.0079639
0
ARC
8
DEFAULT_255_1_234
10
18.1766578
20
46.6832641
40
0.3627568
50
192.7897626
51
205.2507664
0
ARC
8
DEFAULT_255_1_234
10
18.0720125
20
46.6365415
40
0.2481908
50
205.8005384
51
211.2537509
0
ARC
8
DEFAULT_255_1_234
10
18.0196565
20
46.601458
40
0.1852521
50
210.3789793
51
238.4008143
0
ARC
8
DEFAULT_255_1_234
10
18.0177087
20
46.6061376
40
0.1882621
50
239.6520629
51
265.9793761
0
ARC
8
DEFAULT_255_1_234
10
18.0262288
20
46.6733427
40
0.2559272
50
265.1315437
51
270.060332
0
ARC
8
DEFAULT_255_1_234
10
18.0291066
20
46.6409534
40
0.2235528
50
269.3314664
51
287.2178029
0
ARC
8
DEFAULT_255_1_234
10
18.0428918
20
46.5906279
40
0.1714108
50
287.7958004
51
329.080874
0
ARC
8
DEFAULT_255_1_234
10
17.9471375
20
46.650393
40
0.2842745
50
328.6634704
51
343.3325132
0
ARC
8
DEFAULT_255_1_234
10
17.7298395
20
46.7180863
40
0.5118644
50
343.0499468
51
351.9393422
0
ARC
8
DEFAULT_255_1_234
10
17.3831695
20
46.7691949
40
0.8622784
50
351.8069023
51
357.7959224
0
ARC
8
DEFAULT_255_1_234
10
17.0596251
20
46.7859721
40
1.1862365
50
357.5871873
51
359.2677531
0
LINE
8
DEFAULT_255_1_234
10
19.3180018
20
47.0037327
11
19.3180018
21
46.8109709
0
LINE
8
DEFAULT_255_1_234
10
18.579885
20
46.7908916
11
18.579885
21
46.9892755
0
LINE
8
DEFAULT_255_1_234
10
19.1694146
20
46.7708123
11
19.1694146
21
47.0141739
0
LINE
8
DEFAULT_255_1_234
10
18.7284722
20
47.0254184
11
18.7284722
21
46.7876789
0
ARC
8
DEFAULT_255_1_234
10
18.0932907
20
46.8060805
40
1.2247208
50
353.8441951
51
0.2287902
0
ARC
8
DEFAULT_255_1_234
10
18.5572411
20
46.7542806
40
0.7578929
50
344.4934747
51
353.9765454
0
ARC
8
DEFAULT_255_1_234
10
18.8565001
20
46.6691981
40
0.4467846
50
329.2803592
51
344.7472793
0
ARC
8
DEFAULT_255_1_234
10
18.9557826
20
46.6147018
40
0.3336173
50
324.9352394
51
328.6160465
0
ARC
8
DEFAULT_255_1_234
10
18.9934935
20
46.5883427
40
0.2876076
50
280.580143
51
324.9173126
0
ARC
8
DEFAULT_255_1_234
10
18.9533727
20
46.7554099
40
0.4592847
50
269.5977311
51
281.6734359
0
ARC
8
DEFAULT_255_1_234
10
18.9461633
20
46.7434173
40
0.4472986
50
256.6228859
51
270.51044
0
ARC
8
DEFAULT_255_1_234
10
18.9059611
20
46.5885877
40
0.2873874
50
215.8618325
51
257.2788573
0
ARC
8
DEFAULT_255_1_234
10
19.0080642
20
46.6570977
40
0.4102928
50
197.9693508
51
215.2623606
0
ARC
8
DEFAULT_255_1_234
10
19.2565758
20
46.7409709
40
0.6725652
50
187.8816417
51
198.2346507
0
ARC
8
DEFAULT_255_1_234
10
19.6523966
20
46.7981079
40
1.0724845
50
180.8976217
51
188.0055519
0
ARC
8
DEFAULT_255_1_234
10
19.9324154
20
46.8084777
40
1.3526448
50
180.7449369
51
181.1510016
0
ARC
8
DEFAULT_255_1_234
10
19.7746883
20
46.9941042
40
1.1948131
50
173.7675579
51
180.231553
0
ARC
8
DEFAULT_255_1_234
10
19.322903
20
47.0451666
40
0.7401564
50
164.3058563
51
173.9002247
0
ARC
8
DEFAULT_255_1_234
10
19.0317099
20
47.1290656
40
0.4371288
50
148.7922025
51
164.568378
0
ARC
8
DEFAULT_255_1_234
10
18.9365551
20
47.1821929
40
0.3282386
50
144.5883898
51
148.1176286
0
ARC
8
DEFAULT_255_1_234
10
18.9022449
20
47.2061315
40
0.2864044
50
101.6440918
51
144.514236
0
ARC
8
DEFAULT_255_1_234
10
18.9447516
20
47.0372069
40
0.4604934
50
89.5284041
51
102.5819763
0
ARC
8
DEFAULT_255_1_234
10
18.9526603
20
47.0333018
40
0.464401
50
77.0437873
51
90.5081339
0
ARC
8
DEFAULT_255_1_234
10
18.9928605
20
47.1975615
40
0.2953195
50
48.2778575
51
77.4994676
0
ARC
8
DEFAULT_255_1_234
10
19.0001236
20
47.2104746
40
0.2808655
50
36.3142134
51
47.6305865
0
ARC
8
DEFAULT_255_1_234
10
18.9132543
20
47.1519515
40
0.3855453
50
18.2931786
51
35.6769206
0
ARC
8
DEFAULT_255_1_234
10
18.6589302
20
47.0646593
40
0.654423
50
8.024666
51
18.5605216
0
ARC
8
DEFAULT_255_1_234
10
18.2426222
20
47.0031792
40
1.0752407
50
1.1274072
51
8.1718305
0
ARC
8
DEFAULT_255_1_234
10
17.9190413
20
46.9904885
40
1.3990231
50
0.5424119
51
1.3863029
0
ARC
8
DEFAULT_255_1_234
10
18.1011791
20
47.0177342
40
1.0682415
50
359.8090433
51
4.9407866
0
ARC
8
DEFAULT_255_1_234
10
18.5221805
20
47.0553113
40
0.6455691
50
4.8362157
51
12.2904523
0
ARC
8
DEFAULT_255_1_234
10
18.797692
20
47.1166965
40
0.3633074
50
12.0805627
51
23.8173984
0
ARC
8
DEFAULT_255_1_234
10
18.9150625
20
47.1663919
40
0.2358723
50
24.2871213
51
31.3935614
0
ARC
8
DEFAULT_255_1_234
10
18.9675322
20
47.2007233
40
0.1732111
50
30.7407893
51
82.4657128
0
ARC
8
DEFAULT_255_1_234
10
18.9495456
20
47.1123691
40
0.263235
50
81.1060089
51
90.2184952
0
ARC
8
DEFAULT_255_1_234
10
18.9459755
20
47.1381924
40
0.2374236
50
89.3806855
51
105.6762551
0
ARC
8
DEFAULT_255_1_234
10
18.9276386
20
47.2048567
40
0.1682847
50
105.7981136
51
149.7388061
0
ARC
8
DEFAULT_255_1_234
10
19.0340464
20
47.140895
40
0.2924306
50
149.4208916
51
163.6286378
0
ARC
8
DEFAULT_255_1_234
10
19.2431352
20
47.077125
40
0.5110213
50
163.3763315
51
172.1410975
0
ARC
8
DEFAULT_255_1_234
10
19.5732071
20
47.0298518
40
0.8444586
50
172.0259487
51
178.0703232
0
ARC
8
DEFAULT_255_1_234
10
19.8762161
20
47.0154906
40
1.1477868
50
177.8631668
51
179.5044149
0
ARC
8
DEFAULT_255_1_234
10
19.7689565
20
46.7840389
40
1.0404907
50
179.7995573
51
185.2460446
0
ARC
8
DEFAULT_255_1_234
10
19.3646604
20
46.7457513
40
0.6343885
50
185.1411642
51
193.0079639
0
ARC
8
DEFAULT_255_1_234
10
19.1003077
20
46.6832641
40
0.3627568
50
192.7897626
51
205.2507664
0
ARC
8
DEFAULT_255_1_234
10
18.9956624
20
46.6365415
40
0.2481908
50
205.8005384
51
211.2537509
0
ARC
8
DEFAULT_255_1_234
10
18.9433064
20
46.601458
40
0.1852521
50
210.3789793
51
238.4008143
0
ARC
8
DEFAULT_255_1_234
10
18.9413586
20
46.6061376
40
0.1882621
50
239.6520629
51
265.9793761
0
ARC
8
DEFAULT_255_1_234
10
18.9498787
20
46.6733427
40
0.2559272
50
265.1315437
51
270.060332
0
ARC
8
DEFAULT_255_1_234
10
18.9527565
20
46.6409534
40
0.2235528
50
269.3314664
51
287.2178029
0
ARC
8
DEFAULT_255_1_234
10
18.9665417
20
46.5906279
40
0.1714108
50
287.7958004
51
329.080874
0
ARC
8
DEFAULT_255_1_234
10
18.8707874
20
46.650393
40
0.2842745
50
328.6634704
51
343.3325132
0
ARC
8
DEFAULT_255_1_234
10
18.6534894
20
46.7180863
40
0.5118644
50
343.0499468
51
351.9393422
0
ARC
8
DEFAULT_255_1_234
10
18.3068194
20
46.7691949
40
0.8622784
50
351.8069023
51
357.7959224
0
ARC
8
DEFAULT_255_1_234
10
17.983275
20
46.7859721
40
1.1862365
50
357.5871873
51
359.2677531
0
LINE
8
DEFAULT_255_1_234
10
20.2416517
20
47.0037327
11
20.2416517
21
46.8109709
0
LINE
8
DEFAULT_255_1_234
10
19.5035349
20
46.7908916
11
19.5035349
21
46.9892755
0
LINE
8
DEFAULT_255_1_234
10
20.0930645
20
46.7708123
11
20.0930645
21
47.0141739
0
LINE
8
DEFAULT_255_1_234
10
19.6521221
20
47.0254184
11
19.6521221
21
46.7876789
0
ARC
8
DEFAULT_255_1_234
10
19.0169406
20
46.8060805
40
1.2247208
50
353.8441951
51
0.2287902
0
ARC
8
DEFAULT_255_1_234
10
19.480891
20
46.7542806
40
0.7578929
50
344.4934747
51
353.9765454
0
ARC
8
DEFAULT_255_1_234
10
19.78015
20
46.6691981
40
0.4467846
50
329.2803592
51
344.7472793
0
ARC
8
DEFAULT_255_1_234
10
19.8794325
20
46.6147018
40
0.3336173
50
324.9352394
51
328.6160465
0
ARC
8
DEFAULT_255_1_234
10
19.9171434
20
46.5883427
40
0.2876076
50
280.580143
51
324.9173126
0
ARC
8
DEFAULT_255_1_234
10
19.8770226
20
46.7554099
40
0.4592847
50
269.5977311
51
281.6734359
0
ARC
8
DEFAULT_255_1_234
10
19.8698132
20
46.7434173
40
0.4472986
50
256.6228859
51
270.51044
0
ARC
8
DEFAULT_255_1_234
10
19.829611
20
46.5885877
40
0.2873874
50
215.8618325
51
257.2788573
0
ARC
8
DEFAULT_255_1_234
10
19.9317141
20
46.6570977
40
0.4102928
50
197.9693508
51
215.2623606
0
ARC
8
DEFAULT_255_1_234
10
20.1802257
20
46.7409709
40
0.6725652
50
187.8816417
51
198.2346507
0
ARC
8
DEFAULT_255_1_234
10
20.5760465
20
46.7981079
40
1.0724845
50
180.8976217
51
188.0055519
0
ARC
8
DEFAULT_255_1_234
10
20.8560653
20
46.8084777
40
1.3526448
50
180.7449369
51
181.1510016
0
ARC
8
DEFAULT_255_1_234
10
20.6983382
20
46.9941042
40
1.1948131
50
173.7675579
51
180.231553
0
ARC
8
DEFAULT_255_1_234
10
20.2465529
20
47.0451666
40
0.7401564
50
164.3058563
51
173.9002247
0
ARC
8
DEFAULT_255_1_234
10
19.9553598
20
47.1290656
40
0.4371288
50
148.7922025
51
164.568378
0
ARC
8
DEFAULT_255_1_234
10
19.860205
20
47.1821929
40
0.3282386
50
144.5883898
51
148.1176286
0
ARC
8
DEFAULT_255_1_234
10
19.8258948
20
47.2061315
40
0.2864044
50
101.6440918
51
144.514236
0
ARC
8
DEFAULT_255_1_234
10
19.8684015
20
47.0372069
40
0.4604934
50
89.5284041
51
102.5819763
0
ARC
8
DEFAULT_255_1_234
10
19.8763102
20
47.0333018
40
0.464401
50
77.0437873
51
90.5081339
0
ARC
8
DEFAULT_255_1_234
10
19.9165104
20
47.1975615
40
0.2953195
50
48.2778575
51
77.4994676
0
ARC
8
DEFAULT_255_1_234
10
19.9237735
20
47.2104746
40
0.2808655
50
36.3142134
51
47.6305865
0
ARC
8
DEFAULT_255_1_234
10
19.8369042
20
47.1519515
40
0.3855453
50
18.2931786
51
35.6769206
0
ARC
8
DEFAULT_255_1_234
10
19.5825801
20
47.0646593
40
0.654423
50
8.024666
51
18.5605216
0
ARC
8
DEFAULT_255_1_234
10
19.1662721
20
47.0031792
40
1.0752407
50
1.1274072
51
8.1718305
0
ARC
8
DEFAULT_255_1_234
10
18.8426912
20
46.9904885
40
1.3990231
50
0.5424119
51
1.3863029
0
ARC
8
DEFAULT_255_1_234
10
19.024829
20
47.0177342
40
1.0682415
50
359.8090433
51
4.9407866
0
ARC
8
DEFAULT_255_1_234
10
19.4458304
20
47.0553113
40
0.6455691
50
4.8362157
51
12.2904523
0
ARC
8
DEFAULT_255_1_234
10
19.7213419
20
47.1166965
40
0.3633074
50
12.0805627
51
23.8173984
0
ARC
8
DEFAULT_255_1_234
10
19.8387124
20
47.1663919
40
0.2358723
50
24.2871213
51
31.3935614
0
ARC
8
DEFAULT_255_1_234
10
19.8911821
20
47.2007233
40
0.1732111
50
30.7407893
51
82.4657128
0
ARC
8
DEFAULT_255_1_234
10
19.8731955
20
47.1123691
40
0.263235
50
81.1060089
51
90.2184952
0
ARC
8
DEFAULT_255_1_234
10
19.8696254
20
47.1381924
40
0.2374236
50
89.3806855
51
105.6762551
0
ARC
8
DEFAULT_255_1_234
10
19.8512885
20
47.2048567
40
0.1682847
50
105.7981136
51
149.7388061
0
ARC
8
DEFAULT_255_1_234
10
19.9576963
20
47.140895
40
0.2924306
50
149.4208916
51
163.6286378
0
ARC
8
DEFAULT_255_1_234
10
20.1667851
20
47.077125
40
0.5110213
50
163.3763315
51
172.1410975
0
ARC
8
DEFAULT_255_1_234
10
20.496857
20
47.0298518
40
0.8444586
50
172.0259487
51
178.0703232
0
ARC
8
DEFAULT_255_1_234
10
20.799866
20
47.0154906
40
1.1477868
50
177.8631668
51
179.5044149
0
ARC
8
DEFAULT_255_1_234
10
20.6926064
20
46.7840389
40
1.0404907
50
179.7995573
51
185.2460446
0
ARC
8
DEFAULT_255_1_234
10
20.2883104
20
46.7457513
40
0.6343885
50
185.1411642
51
193.0079639
0
ARC
8
DEFAULT_255_1_234
10
20.0239576
20
46.6832641
40
0.3627568
50
192.7897626
51
205.2507664
0
ARC
8
DEFAULT_255_1_234
10
19.9193123
20
46.6365415
40
0.2481908
50
205.8005384
51
211.2537509
0
ARC
8
DEFAULT_255_1_234
10
19.8669564
20
46.601458
40
0.1852521
50
210.3789793
51
238.4008143
0
ARC
8
DEFAULT_255_1_234
10
19.8650085
20
46.6061376
40
0.1882621
50
239.6520629
51
265.9793761
0
ARC
8
DEFAULT_255_1_234
10
19.8735286
20
46.6733427
40
0.2559272
50
265.1315437
51
270.060332
0
ARC
8
DEFAULT_255_1_234
10
19.8764064
20
46.6409534
40
0.2235528
50
269.3314664
51
287.2178029
0
ARC
8
DEFAULT_255_1_234
10
19.8901916
20
46.5906279
40
0.1714108
50
287.7958004
51
329.080874
0
ARC
8
DEFAULT_255_1_234
10
19.7944373
20
46.650393
40
0.2842745
50
328.6634704
51
343.3325132
0
ARC
8
DEFAULT_255_1_234
10
19.5771393
20
46.7180863
40
0.5118644
50
343.0499468
51
351.9393422
0
ARC
8
DEFAULT_255_1_234
10
19.2304693
20
46.7691949
40
0.8622784
50
351.8069023
51
357.7959224
0
ARC
8
DEFAULT_255_1_234
10
18.9069249
20
46.7859721
40
1.1862365
50
357.5871873
51
359.2677531
0
ARC
8
DEFAULT_255_2_778
10
21.9705968
20
49.3439327
40
0.3998203
50
186.2132484
51
214.6493538
0
ARC
8
DEFAULT_255_2_778
10
21.8841482
20
49.3042342
40
0.306577
50
217.73315
51
266.8103771
0
ARC
8
DEFAULT_255_2_778
10
21.9236889
20
49.514846
40
0.5198043
50
263.7489618
51
266.7837018
0
ARC
8
DEFAULT_255_2_778
10
21.9002315
20
49.3207587
40
0.2400661
50
195.3205632
51
268.6379359
0
ARC
8
DEFAULT_255_2_778
10
22.1727069
20
49.4465098
40
0.5383454
50
193.3112816
51
200.5737177
0
ARC
8
DEFAULT_255_2_778
10
21.9557782
20
49.2937585
40
0.3083015
50
141.9315536
51
174.6395313
0
ARC
8
DEFAULT_255_2_778
10
21.8946342
20
49.3196429
40
0.2448175
50
90.025547
51
137.8738944
0
ARC
8
DEFAULT_255_2_778
10
21.8900516
20
49.3377521
40
0.3116405
50
89.1775175
51
162.365692
0
ARC
8
DEFAULT_255_2_778
10
22.1498498
20
49.205957
40
0.6009893
50
157.8900335
51
162.6116752
0
LINE
8
DEFAULT_255_2_778
10
18.967225
20
49.3884604
11
18.967225
21
49.3006604
0
LINE
8
DEFAULT_255_2_778
10
18.967225
20
49.3006604
11
21.573125
21
49.3006604
0
LINE
8
DEFAULT_255_2_778
10
21.894525
20
48.9958604
11
21.894525
21
49.0807604
0
LINE
8
DEFAULT_255_2_778
10
21.894525
20
49.5644604
11
21.894525
21
49.6493604
0
LINE
8
DEFAULT_255_2_778
10
21.576325
20
49.3855604
11
18.973525
21
49.3855604
0
ARC
8
DEFAULT_255_2_778
10
19.6925529
20
50.6739466
40
0.0240743
50
29.0529276
51
103.4937712
0
ARC
8
DEFAULT_255_2_778
10
19.6675286
20
50.4578845
40
0.2402568
50
85.3668647
51
90.317335
0
ARC
8
DEFAULT_255_2_778
10
19.6830481
20
50.0617259
40
0.7359887
50
91.4445043
51
94.5082143
0
ARC
8
DEFAULT_255_2_778
10
19.6762883
20
50.2870799
40
0.510537
50
90.0204411
51
91.3236595
0
ARC
8
DEFAULT_255_2_778
10
19.6819035
20
50.5626894
40
0.234999
50
77.9191012
51
91.4136047
0
ARC
8
DEFAULT_255_2_778
10
19.7290393
20
50.7589469
40
0.0335995
50
19.4828986
51
86.5059996
0
ARC
8
DEFAULT_255_2_778
10
19.7399806
20
50.766561
40
0.0210433
50
359.8753665
51
9.8287108
0
ARC
8
DEFAULT_255_2_778
10
19.7114031
20
50.7714275
40
0.0498633
50
318.6549341
51
354.3463421
0
ARC
8
DEFAULT_255_2_778
10
19.5933
20
50.8591044
40
0.1968255
50
312.3913188
51
322.2071703
0
ARC
8
DEFAULT_255_2_778
10
19.7074994
20
50.6708784
40
0.0466808
50
7.8211356
51
66.6544263
0
ARC
8
DEFAULT_255_2_778
10
19.5739503
20
50.6430306
40
0.1830194
50
4.3516874
51
10.7699648
0
ARC
8
DEFAULT_255_2_778
10
19.7790881
20
50.6531912
40
0.0229506
50
170.6553415
51
230.4661874
0
ARC
8
DEFAULT_255_2_778
10
19.7669101
20
50.6436667
40
0.0085297
50
253.4430888
51
270.5900942
0
ARC
8
DEFAULT_255_2_778
10
19.6866504
20
50.740595
40
0.0341371
50
13.1090465
51
106.1583193
0
ARC
8
DEFAULT_255_2_778
10
19.6697504
20
50.5955182
40
0.1780193
50
87.6176468
51
90.0490737
0
ARC
8
DEFAULT_255_2_778
10
19.6795828
20
50.7923746
40
0.0666888
50
261.3891358
51
304.5653386
0
ARC
8
DEFAULT_255_2_778
10
19.7083184
20
50.7450951
40
0.0118802
50
319.9940947
51
0.6866831
0
ARC
8
DEFAULT_255_2_778
10
19.6912745
20
50.7169613
40
0.1602765
50
89.8843696
51
180.00852
0
ARC
8
DEFAULT_255_2_778
10
19.6921123
20
50.7171526
40
0.1600857
50
359.923006
51
90.1841118
0
ARC
8
DEFAULT_255_2_778
10
19.6920276
20
50.7167075
40
0.1601705
50
269.8462838
51
0.0822692
0
ARC
8
DEFAULT_255_2_778
10
19.6911681
20
50.7167074
40
0.1601705
50
179.9177057
51
270.1537517
0
ARC
8
DEFAULT_255_2_778
10
19.6937473
20
50.7180555
40
0.1249544
50
179.9900418
51
180.5126445
0
ARC
8
DEFAULT_255_2_778
10
19.6934073
20
50.7181266
40
0.1246146
50
135.6497696
51
180.0227234
0
ARC
8
DEFAULT_255_2_778
10
19.6929982
20
50.7184377
40
0.1241046
50
90.5079979
51
135.6204406
0
ARC
8
DEFAULT_255_2_778
10
19.6907941
20
50.7186676
40
0.1238749
50
44.3347873
51
89.4894407
0
ARC
8
DEFAULT_255_2_778
10
19.6902885
20
50.7181266
40
0.1246146
50
359.9772766
51
44.3502304
0
ARC
8
DEFAULT_255_2_778
10
19.6899485
20
50.7180555
40
0.1249546
50
359.4873555
51
0.0099582
0
ARC
8
DEFAULT_255_2_778
10
19.6892212
20
50.7158161
40
0.1256817
50
359.9900717
51
0.5112118
0
ARC
8
DEFAULT_255_2_778
10
19.6902314
20
50.7156718
40
0.1246718
50
315.6604182
51
0.0563277
0
ARC
8
DEFAULT_255_2_778
10
19.690617
20
50.7155233
40
0.1242924
50
270.5905059
51
315.5851458
0
ARC
8
DEFAULT_255_2_778
10
19.6931761
20
50.7157548
40
0.1245239
50
224.4596468
51
269.4118891
0
ARC
8
DEFAULT_255_2_778
10
19.6934644
20
50.7156718
40
0.1246718
50
179.9436723
51
224.3395818
0
ARC
8
DEFAULT_255_2_778
10
19.6944746
20
50.7158161
40
0.1256819
50
179.4887882
51
180.0099283
0
LINE
8
DEFAULT_255_2_778
10
19.7672979
20
50.6354375
11
19.7262979
21
50.6354375
0
LINE
8
DEFAULT_255_2_778
10
19.7262979
20
50.6354375
11
19.7135979
21
50.6856375
0
LINE
8
DEFAULT_255_2_778
10
19.6661979
20
50.6981375
11
19.6661979
21
50.6354375
0
LINE
8
DEFAULT_255_2_778
10
19.6661979
20
50.6354375
11
19.6283979
21
50.6354375
0
LINE
8
DEFAULT_255_2_778
10
19.6283979
20
50.6354375
11
19.6251979
21
50.7954375
0
LINE
8
DEFAULT_255_2_778
10
19.7669979
20
50.6351375
11
19.7672979
21
50.6354375
0
LINE
8
DEFAULT_255_2_778
10
19.6695979
20
50.7735375
11
19.6695979
21
50.7264375
0
LINE
8
DEFAULT_255_2_778
10
19.5309979
20
50.7169375
11
19.5309979
21
50.7169375
0
LINE
8
DEFAULT_255_2_778
10
19.5687979
20
50.7169375
11
19.5687979
21
50.7169375
0
ARC
8
DEFAULT_255_2_778
10
19.5739995
20
49.6507562
40
0.4679169
50
114.816099
51
123.1671443
0
ARC
8
DEFAULT_255_2_778
10
19.524052
20
49.7596633
40
0.3481031
50
104.1803266
51
114.8776204
0
ARC
8
DEFAULT_255_2_778
10
19.5023429
20
49.8469534
40
0.2581547
50
90.3368173
51
104.2549448
0
ARC
8
DEFAULT_255_2_778
10
19.5036163
20
49.9210304
40
0.1840945
50
63.1258397
51
90.8686801
0
ARC
8
DEFAULT_255_2_778
10
19.5291143
20
49.9682442
40
0.1304613
50
15.1320717
51
63.7415875
0
ARC
8
DEFAULT_255_2_778
10
19.5491883
20
49.9761768
40
0.1090393
50
0.0473462
51
13.8618027
0
ARC
8
DEFAULT_255_2_778
10
19.5515456
20
49.9762625
40
0.1066819
50
356.2550712
51
0.0023505
0
ARC
8
DEFAULT_255_2_778
10
19.5419228
20
49.9787506
40
0.1164614
50
310.1750055
51
355.3427743
0
ARC
8
DEFAULT_255_2_778
10
19.4908137
20
50.0360087
40
0.1931944
50
288.8572085
51
310.8015881
0
ARC
8
DEFAULT_255_2_778
10
19.4433414
20
50.168377
40
0.3338085
50
275.3110996
51
289.2247685
0
ARC
8
DEFAULT_255_2_778
10
19.4242391
20
50.33128
40
0.4977958
50
269.8679804
51
275.7647658
0
ARC
8
DEFAULT_255_2_778
10
19.4233676
20
50.441031
40
0.6075455
50
267.4793058
51
269.9740161
0
ARC
8
DEFAULT_255_2_778
10
19.4257943
20
50.5013112
40
0.6678741
50
266.4216467
51
267.4987577
0
ARC
8
DEFAULT_255_2_778
10
19.4224432
20
49.2097733
40
0.560179
50
91.0220031
51
93.9238277
0
ARC
8
DEFAULT_255_2_778
10
19.4216234
20
49.2441554
40
0.5257879
50
90.0043694
51
90.999511
0
ARC
8
DEFAULT_255_2_778
10
19.4248465
20
49.3476939
40
0.422262
50
76.9800692
51
90.4427808
0
ARC
8
DEFAULT_255_2_778
10
19.4590295
20
49.4908643
40
0.275073
50
58.629145
51
77.1986522
0
ARC
8
DEFAULT_255_2_778
10
19.5160816
20
49.5814493
40
0.1680375
50
29.9882851
51
59.1595841
0
ARC
8
DEFAULT_255_2_778
10
19.5598869
20
49.6088785
40
0.1164017
50
9.0537754
51
29.0715668
0
ARC
8
DEFAULT_255_2_778
10
19.5729947
20
49.6115115
40
0.1030444
50
0.0346426
51
8.7548846
0
ARC
8
DEFAULT_255_2_778
10
19.5687699
20
49.6134688
40
0.1072858
50
305.5059809
51
358.9879419
0
ARC
8
DEFAULT_255_2_778
10
19.5189298
20
49.6770658
40
0.188039
50
283.9056302
51
306.6140005
0
ARC
8
DEFAULT_255_2_778
10
19.4842816
20
49.8066245
40
0.3221372
50
270.2535061
51
284.3497175
0
ARC
8
DEFAULT_255_2_778
10
19.4797556
20
49.902141
40
0.4176929
50
269.9968235
51
270.8163842
0
ARC
8
DEFAULT_255_2_778
10
19.4811206
20
49.9756449
40
0.4911988
50
263.1634232
51
269.8380686
0
ARC
8
DEFAULT_255_2_778
10
19.4991954
20
50.1292174
40
0.645831
50
257.6175675
51
263.1931179
0
ARC
8
DEFAULT_255_2_778
10
19.5387853
20
50.3110244
40
0.8318985
50
252.9187613
51
257.6393953
0
ARC
8
DEFAULT_255_2_778
10
19.5797453
20
50.4491545
40
0.9759676
50
251.5522309
51
253.0020898
0
ARC
8
DEFAULT_255_2_778
10
19.5248934
20
50.0007091
40
0.6169724
50
245.6907954
51
253.3086054
0
ARC
8
DEFAULT_255_2_778
10
19.4937986
20
49.8964052
40
0.5081326
50
253.2890695
51
262.3539513
0
ARC
8
DEFAULT_255_2_778
10
19.4835519
20
49.8236064
40
0.4346178
50
262.4158537
51
269.9226498
0
ARC
8
DEFAULT_255_2_778
10
19.4858877
20
49.7463156
40
0.3573384
50
269.531384
51
291.1392741
0
ARC
8
DEFAULT_255_2_778
10
19.5139103
20
49.6760904
40
0.2817342
50
290.9743163
51
319.8315111
0
ARC
8
DEFAULT_255_2_778
10
19.5703324
20
49.6297128
40
0.208706
50
319.5693811
51
352.147275
0
ARC
8
DEFAULT_255_2_778
10
19.6080843
20
49.6216331
40
0.170228
50
353.1052432
51
359.9694768
0
ARC
8
DEFAULT_255_2_778
10
19.619217
20
49.6215923
40
0.1590954
50
359.9820323
51
48.1680262
0
ARC
8
DEFAULT_255_2_778
10
19.5685344
20
49.5666109
40
0.2338675
50
47.8999999
51
68.5994477
0
ARC
8
DEFAULT_255_2_778
10
19.515911
20
49.4378112
40
0.3729934
50
68.2925482
51
81.2254538
0
ARC
8
DEFAULT_255_2_778
10
19.5841972
20
49.9543084
40
0.148307
50
265.5964328
51
269.9780427
0
ARC
8
DEFAULT_255_2_778
10
19.5760096
20
49.9609336
40
0.1551453
50
273.004087
51
349.8612615
0
ARC
8
DEFAULT_255_2_778
10
19.5123628
20
49.9900954
40
0.2236176
50
345.3721348
51
359.9751256
0
ARC
8
DEFAULT_255_2_778
10
19.5339585
20
49.9899983
40
0.2020219
50
4e-7
51
0.2280423
0
ARC
8
DEFAULT_255_2_778
10
19.5597555
20
49.9971481
40
0.1763376
50
357.9376831
51
63.2925076
0
ARC
8
DEFAULT_255_2_778
10
19.5460136
20
49.9556165
40
0.2197074
50
64.9591354
51
87.7288567
0
ARC
8
DEFAULT_255_2_778
10
19.538318
20
49.8777926
40
0.2978108
50
86.8427678
51
90.0256913
0
ARC
8
DEFAULT_255_2_778
10
19.5400484
20
49.8025446
40
0.3730632
50
90.2862735
51
99.8078285
0
ARC
8
DEFAULT_255_2_778
10
19.5660703
20
49.6483047
40
0.5294817
50
99.7394106
51
106.9636812
0
ARC
8
DEFAULT_255_2_778
10
19.623885
20
49.4560819
40
0.7302097
50
106.9021021
51
112.2967575
0
ARC
8
DEFAULT_255_2_778
10
19.7194539
20
49.2222038
40
0.9828604
50
112.2786278
51
116.8488609
0
LINE
8
DEFAULT_255_2_778
10
19.2755562
20
50.0991129
11
19.27541
21
50.0990392
0
LINE
8
DEFAULT_255_2_778
10
19.38411
20
49.8347392
11
19.38411
21
49.7686392
0
LINE
8
DEFAULT_255_2_778
10
19.27091
20
49.5233392
11
19.27091
21
49.4384392
0
LINE
8
DEFAULT_255_2_778
10
19.27541
20
50.0990392
11
19.32251
21
50.0376392
0
ARC
8
DEFAULT_255_2_778
10
21.6488338
20
49.7854013
40
0.5330281
50
158.8297779
51
180.8126209
0
ARC
8
DEFAULT_255_2_778
10
21.3440043
20
49.9115829
40
0.2033429
50
124.0119958
51
160.9659866
0
ARC
8
DEFAULT_255_2_778
10
21.2740176
20
50.004962
40
0.0869831
50
90.4994457
51
120.2017555
0
ARC
8
DEFAULT_255_2_778
10
21.2597082
20
49.9665586
40
0.1261132
50
24.6798401
51
83.8315083
0
ARC
8
DEFAULT_255_2_778
10
21.0022231
20
49.811452
40
0.4261556
50
6.130385
51
29.1785479
0
ARC
8
DEFAULT_255_2_778
10
20.8145831
20
49.7784702
40
0.6163766
50
359.941576
51
7.3161118
0
ARC
8
DEFAULT_255_2_778
10
20.8988049
20
49.7702366
40
0.5322088
50
338.8055679
51
0.8187669
0
ARC
8
DEFAULT_255_2_778
10
21.2030747
20
49.6441684
40
0.203082
50
303.9150541
51
340.932466
0
ARC
8
DEFAULT_255_2_778
10
21.2725185
20
49.5512902
40
0.0874515
50
270.4854298
51
300.1080748
0
ARC
8
DEFAULT_255_2_778
10
21.2868918
20
49.5895041
40
0.1263997
50
204.3281643
51
263.8084993
0
ARC
8
DEFAULT_255_2_778
10
21.5495039
20
49.7455123
40
0.4313014
50
185.613152
51
208.8453558
0
ARC
8
DEFAULT_255_2_778
10
21.737981
20
49.7772819
40
0.6221217
50
179.9484445
51
186.8272745
0
ARC
8
DEFAULT_255_2_778
10
21.5393261
20
49.7819048
40
0.5243157
50
152.5254433
51
180.7827883
0
ARC
8
DEFAULT_255_2_778
10
21.3135339
20
49.9093837
40
0.2653266
50
108.4095367
51
154.4544086
0
ARC
8
DEFAULT_255_2_778
10
21.2765034
20
49.9881783
40
0.1791635
50
90.0140927
51
105.1293658
0
ARC
8
DEFAULT_255_2_778
10
21.2620719
20
49.9364205
40
0.231369
50
28.2822033
51
86.4348199
0
ARC
8
DEFAULT_255_2_778
10
21.0415618
20
49.7892258
40
0.4959362
50
2.837394
51
31.1881489
0
ARC
8
DEFAULT_255_2_778
10
20.9401116
20
49.7748304
40
0.5980477
50
359.9914968
51
3.7337628
0
ARC
8
DEFAULT_255_2_778
10
21.0134058
20
49.7676164
40
0.524802
50
332.6504535
51
0.7779361
0
ARC
8
DEFAULT_255_2_778
10
21.2392936
20
49.6406026
40
0.265965
50
288.44039
51
334.5981325
0
ARC
8
DEFAULT_255_2_778
10
21.2764199
20
49.5618438
40
0.1798021
50
270.0125899
51
285.1541198
0
ARC
8
DEFAULT_255_2_778
10
21.2906632
20
49.6126186
40
0.2310141
50
208.1688806
51
266.4749618
0
ARC
8
DEFAULT_255_2_778
10
21.512701
20
49.7600235
40
0.4969751
50
182.8019459
51
211.0671432
0
ARC
8
DEFAULT_255_2_778
10
21.6166279
20
49.7746537
40
0.6015684
50
179.9916184
51
183.7098813
0
LINE
8
DEFAULT_255_2_778
10
21.1158594
20
49.7778417
11
21.1158594
21
49.7778417
0
LINE
8
DEFAULT_255_2_778
10
21.0150594
20
49.7747417
11
21.0150594
21
49.7747417
0
ARC
8
DEFAULT_255_2_778
10
21.0564338
20
49.7854013
40
0.5330281
50
158.8297779
51
180.8126209
0
ARC
8
DEFAULT_255_2_778
10
20.7516043
20
49.9115829
40
0.2033429
50
124.0119958
51
160.9659866
0
ARC
8
DEFAULT_255_2_778
10
20.6816176
20
50.004962
40
0.0869831
50
90.4994457
51
120.2017555
0
ARC
8
DEFAULT_255_2_778
10
20.6673082
20
49.9665586
40
0.1261132
50
24.6798401
51
83.8315083
0
ARC
8
DEFAULT_255_2_778
10
20.4098231
20
49.811452
40
0.4261556
50
6.130385
51
29.1785479
0
ARC
8
DEFAULT_255_2_778
10
20.2221831
20
49.7784702
40
0.6163766
50
359.941576
51
7.3161118
0
ARC
8
DEFAULT_255_2_778
10
20.3064049
20
49.7702366
40
0.5322088
50
338.8055679
51
0.8187669
0
ARC
8
DEFAULT_255_2_778
10
20.6106747
20
49.6441684
40
0.203082
50
303.9150541
51
340.932466
0
ARC
8
DEFAULT_255_2_778
10
20.6801185
20
49.5512902
40
0.0874515
50
270.4854298
51
300.1080748
0
ARC
8
DEFAULT_255_2_778
10
20.6944918
20
49.5895041
40
0.1263997
50
204.3281643
51
263.8084993
0
ARC
8
DEFAULT_255_2_778
10
20.9571039
20
49.7455123
40
0.4313014
50
185.613152
51
208.8453558
0
ARC
8
DEFAULT_255_2_778
10
21.145581
20
49.7772819
40
0.6221217
50
179.9484445
51
186.8272745
0
ARC
8
DEFAULT_255_2_778
10
20.9469261
20
49.7819048
40
0.5243157
50
152.5254433
51
180.7827883
0
ARC
8
DEFAULT_255_2_778
10
20.7211339
20
49.9093837
40
0.2653266
50
108.4095367
51
154.4544086
0
ARC
8
DEFAULT_255_2_778
10
20.6841034
20
49.9881783
40
0.1791635
50
90.0140927
51
105.1293658
0
ARC
8
DEFAULT_255_2_778
10
20.6696719
20
49.9364205
40
0.231369
50
28.2822033
51
86.4348199
0
ARC
8
DEFAULT_255_2_778
10
20.4491618
20
49.7892258
40
0.4959362
50
2.837394
51
31.1881489
0
ARC
8
DEFAULT_255_2_778
10
20.3477116
20
49.7748304
40
0.5980477
50
359.9914968
51
3.7337628
0
ARC
8
DEFAULT_255_2_778
10
20.4210058
20
49.7676164
40
0.524802
50
332.6504535
51
0.7779361
0
ARC
8
DEFAULT_255_2_778
10
20.6468936
20
49.6406026
40
0.265965
50
288.44039
51
334.5981325
0
ARC
8
DEFAULT_255_2_778
10
20.6840199
20
49.5618438
40
0.1798021
50
270.0125899
51
285.1541198
0
ARC
8
DEFAULT_255_2_778
10
20.6982632
20
49.6126186
40
0.2310141
50
208.1688806
51
266.4749618
0
ARC
8
DEFAULT_255_2_778
10
20.920301
20
49.7600235
40
0.4969751
50
182.8019459
51
211.0671432
0
ARC
8
DEFAULT_255_2_778
10
21.0242279
20
49.7746537
40
0.6015684
50
179.9916184
51
183.7098813
0
LINE
8
DEFAULT_255_2_778
10
20.5234594
20
49.7778417
11
20.5234594
21
49.7778417
0
LINE
8
DEFAULT_255_2_778
10
20.4226594
20
49.7747417
11
20.4226594
21
49.7747417
0
ARC
8
DEFAULT_255_2_778
10
20.4640206
20
49.7854013
40
0.5330281
50
158.8297779
51
180.8126209
0
ARC
8
DEFAULT_255_2_778
10
20.159191
20
49.9115829
40
0.2033429
50
124.0119958
51
160.9659866
0
ARC
8
DEFAULT_255_2_778
10
20.0892044
20
50.004962
40
0.0869831
50
90.4994457
51
120.2017555
0
ARC
8
DEFAULT_255_2_778
10
20.074895
20
49.9665586
40
0.1261132
50
24.6798401
51
83.8315083
0
ARC
8
DEFAULT_255_2_778
10
19.8174098
20
49.811452
40
0.4261556
50
6.130385
51
29.1785479
0
ARC
8
DEFAULT_255_2_778
10
19.6297698
20
49.7784702
40
0.6163766
50
359.941576
51
7.3161118
0
ARC
8
DEFAULT_255_2_778
10
19.7139917
20
49.7702366
40
0.5322088
50
338.8055679
51
0.8187669
0
ARC
8
DEFAULT_255_2_778
10
20.0182615
20
49.6441684
40
0.203082
50
303.9150541
51
340.932466
0
ARC
8
DEFAULT_255_2_778
10
20.0877052
20
49.5512902
40
0.0874515
50
270.4854298
51
300.1080748
0
ARC
8
DEFAULT_255_2_778
10
20.1020786
20
49.5895041
40
0.1263997
50
204.3281643
51
263.8084993
0
ARC
8
DEFAULT_255_2_778
10
20.3646907
20
49.7455123
40
0.4313014
50
185.613152
51
208.8453558
0
ARC
8
DEFAULT_255_2_778
10
20.5531678
20
49.7772819
40
0.6221217
50
179.9484445
51
186.8272745
0
ARC
8
DEFAULT_255_2_778
10
20.3542295
20
49.7819257
40
0.5240325
50
152.511927
51
180.7855003
0
ARC
8
DEFAULT_255_2_778
10
20.1281351
20
49.9098056
40
0.264594
50
107.9689651
51
154.4798484
0
ARC
8
DEFAULT_255_2_778
10
20.0919777
20
49.9876433
40
0.1796984
50
90.01006
51
104.6572928
0
ARC
8
DEFAULT_255_2_778
10
20.0777408
20
49.9367502
40
0.2310286
50
28.1748595
51
86.4748124
0
ARC
8
DEFAULT_255_2_778
10
19.8558945
20
49.7894241
40
0.4967862
50
2.8051578
51
31.0734515
0
ARC
8
DEFAULT_255_2_778
10
19.7522964
20
49.7748293
40
0.6010497
50
359.9916466
51
3.711491
0
ARC
8
DEFAULT_255_2_778
10
19.8283059
20
49.7676382
40
0.5250883
50
332.6639313
51
0.7751279
0
ARC
8
DEFAULT_255_2_778
10
20.0540943
20
49.640845
40
0.2664398
50
288.748604
51
334.5889087
0
ARC
8
DEFAULT_255_2_778
10
20.0918958
20
49.5612814
40
0.1792398
50
270.0161048
51
285.4790874
0
ARC
8
DEFAULT_255_2_778
10
20.1063142
20
49.6130162
40
0.231421
50
208.2265906
51
266.4404307
0
ARC
8
DEFAULT_255_2_778
10
20.3272488
20
49.7602124
40
0.4963409
50
182.827365
51
211.1367331
0
ARC
8
DEFAULT_255_2_778
10
20.4293323
20
49.7746562
40
0.5990863
50
179.9918267
51
183.7255174
0
LINE
8
DEFAULT_255_2_778
10
19.9310462
20
49.7778417
11
19.9310462
21
49.7778417
0
LINE
8
DEFAULT_255_2_778
10
19.8302462
20
49.7747417
11
19.8302462
21
49.7747417
0
ARC
8
DEFAULT_255_2_778
10
22.0340737
20
49.3269444
40
0.1933064
50
91.2007449
51
181.3742454
0
ARC
8
DEFAULT_255_2_778
10
22.0259721
20
49.3269444
40
0.1933064
50
358.6257546
51
88.7992551
0
ARC
8
DEFAULT_255_2_778
10
22.0260368
20
49.3176105
40
0.1932432
50
271.1819413
51
1.3930197
0
ARC
8
DEFAULT_255_2_778
10
22.0340093
20
49.3176106
40
0.1932434
50
178.6070028
51
268.8179775
0
LINE
8
DEFAULT_255_2_778
10
21.8408229
20
49.3223083
11
21.8408229
21
49.3223083
0
ARC
8
DEFAULT_255_2_778
10
22.5002737
20
49.3269444
40
0.1933064
50
91.2007449
51
181.3742454
0
ARC
8
DEFAULT_255_2_778
10
22.4921721
20
49.3269444
40
0.1933064
50
358.6257546
51
88.7992551
0
ARC
8
DEFAULT_255_2_778
10
22.4922368
20
49.3176105
40
0.1932432
50
271.1819413
51
1.3930197
0
ARC
8
DEFAULT_255_2_778
10
22.5002093
20
49.3176106
40
0.1932434
50
178.6070028
51
268.8179775
0
LINE
8
DEFAULT_255_2_778
10
22.3070229
20
49.3223083
11
22.3070229
21
49.3223083
0
ARC
8
DEFAULT_255_2_778
10
22.9667737
20
49.3396444
40
0.1933064
50
91.2007449
51
181.3742454
0
ARC
8
DEFAULT_255_2_778
10
22.9586721
20
49.3396444
40
0.1933064
50
358.6257546
51
88.7992551
0
ARC
8
DEFAULT_255_2_778
10
22.9587368
20
49.3303105
40
0.1932432
50
271.1819413
51
1.3930197
0
ARC
8
DEFAULT_255_2_778
10
22.9667093
20
49.3303106
40
0.1932434
50
178.6070028
51
268.8179775
0
LINE
8
DEFAULT_255_2_778
10
22.7735229
20
49.3350083
11
22.7735229
21
49.3350083
0
LINE
8
DEFAULT_255_2_778
10
21.8953365
20
49.078624
11
21.8662365
21
49.083424
0
LINE
8
DEFAULT_255_2_778
10
21.8662365
20
49.083424
11
21.8056365
21
49.093224
0
LINE
8
DEFAULT_255_2_778
10
21.8056365
20
49.093224
11
21.7296365
21
49.151424
0
LINE
8
DEFAULT_255_2_778
10
21.7296365
20
49.151424
11
21.6725365
21
49.227124
0
LINE
8
DEFAULT_255_2_778
10
21.6725365
20
49.227124
11
21.6473365
21
49.320524
0
LINE
8
DEFAULT_255_2_778
10
21.6473365
20
49.320524
11
21.6725365
21
49.414124
0
LINE
8
DEFAULT_255_2_778
10
21.6725365
20
49.414124
11
21.7291365
21
49.490924
0
LINE
8
DEFAULT_255_2_778
10
21.7291365
20
49.490924
11
21.8050365
21
49.550424
0
LINE
8
DEFAULT_255_2_778
10
21.8050365
20
49.550424
11
21.8662365
21
49.560424
0
LINE
8
DEFAULT_255_2_778
10
21.8662365
20
49.560424
11
21.8955365
21
49.565224
0
LINE
8
DEFAULT_255_2_778
10
21.8955365
20
48.995624
11
21.8543365
21
49.001124
0
LINE
8
DEFAULT_255_2_778
10
21.8543365
20
49.001124
11
21.7704365
21
49.012524
0
LINE
8
DEFAULT_255_2_778
10
21.7704365
20
49.012524
11
21.6680365
21
49.087124
0
LINE
8
DEFAULT_255_2_778
10
21.6680365
20
49.087124
11
21.5947365
21
49.185824
0
LINE
8
DEFAULT_255_2_778
10
21.5947365
20
49.185824
11
21.5730365
21
49.301424
0
ARC
8
DEFAULT_255_2_778
10
8.4839378
20
50.3183433
40
0.4373747
50
56.3665942
51
72.7074496
0
ARC
8
DEFAULT_255_2_778
10
8.5212053
20
50.4319036
40
0.3178747
50
73.036784
51
89.7973226
0
ARC
8
DEFAULT_255_2_778
10
8.5285513
20
50.4095167
40
0.3403165
50
91.0475309
51
125.5485458
0
ARC
8
DEFAULT_255_2_778
10
8.6942904
20
50.1606582
40
0.6392287
50
124.6669492
51
139.114563
0
ARC
8
DEFAULT_255_2_778
10
8.9357319
20
49.9372476
40
0.9680575
50
138.4713305
51
142.1157612
0
ARC
8
DEFAULT_255_2_778
10
8.5582787
20
49.9679798
40
0.5212765
50
117.7453356
51
135.8758074
0
ARC
8
DEFAULT_255_2_778
10
8.4611378
20
50.1503273
40
0.3146729
50
90.4656379
51
117.5483702
0
ARC
8
DEFAULT_255_2_778
10
8.4550272
20
50.1350634
40
0.3299454
50
64.3679478
51
89.3829577
0
ARC
8
DEFAULT_255_2_778
10
8.4227062
20
50.0534901
40
0.4175182
50
64.8738747
51
65.2115951
0
LINE
8
DEFAULT_255_2_778
10
8.1716896
20
50.5317008
11
8.1716896
21
50.7077008
0
LINE
8
DEFAULT_255_2_778
10
8.1716896
20
50.7077008
11
7.8313896
21
50.7077008
0
LINE
8
DEFAULT_255_2_778
10
7.8313896
20
50.7077008
11
7.8313896
21
49.4890008
0
LINE
8
DEFAULT_255_2_778
10
7.8313896
20
49.4890008
11
8.1967896
21
49.4890008
0
LINE
8
DEFAULT_255_2_778
10
8.1967896
20
49.4890008
11
8.1840896
21
50.3309008
0
LINE
8
DEFAULT_255_2_778
10
8.5999896
20
50.4315008
11
8.7261896
21
50.6825008
0
ARC
8
DEFAULT_255_2_778
10
12.3459297
20
49.8764166
40
0.1058286
50
290.4109967
51
338.4144294
0
ARC
8
DEFAULT_255_2_778
10
12.161995
20
50.245521
40
0.5177505
50
282.5203845
51
295.2483499
0
ARC
8
DEFAULT_255_2_778
10
12.2164596
20
50.1121179
40
0.3756367
50
270.2518229
51
277.9224239
0
ARC
8
DEFAULT_255_2_778
10
12.2019255
20
49.8996058
40
0.163922
50
191.9135594
51
275.6664103
0
ARC
8
DEFAULT_255_2_778
10
12.266424
20
50.0271972
40
0.6680449
50
207.8643513
51
221.7718618
0
ARC
8
DEFAULT_255_2_778
10
12.0489477
20
49.8207613
40
0.3684417
50
220.3588923
51
270.0277924
0
ARC
8
DEFAULT_255_2_778
10
12.0434926
20
49.9528085
40
0.5005206
50
270.6449322
51
287.6494066
0
ARC
8
DEFAULT_255_2_778
10
11.9529907
20
50.2487608
40
0.8099892
50
287.4026496
51
297.6988649
0
ARC
8
DEFAULT_255_2_778
10
11.7449905
20
50.6519576
40
1.2636684
50
297.5514274
51
304.3018591
0
LINE
8
DEFAULT_255_2_778
10
12.0415344
20
49.8657664
11
12.0351344
21
50.7137664
0
LINE
8
DEFAULT_255_2_778
10
12.0351344
20
50.7137664
11
11.6758344
21
50.7137664
0
LINE
8
DEFAULT_255_2_778
10
11.6758344
20
50.7137664
11
11.6758344
21
49.7149664
0
LINE
8
DEFAULT_255_2_778
10
12.4571344
20
49.6080664
11
12.4698344
21
49.4950664
0
LINE
8
DEFAULT_255_2_778
10
12.4698344
20
49.4950664
11
12.8101344
21
49.4950664
0
LINE
8
DEFAULT_255_2_778
10
12.8101344
20
49.4950664
11
12.8101344
21
50.7264664
0
LINE
8
DEFAULT_255_2_778
10
12.8101344
20
50.7264664
11
12.4444344
21
50.7264664
0
LINE
8
DEFAULT_255_2_778
10
12.4444344
20
50.7264664
11
12.4444344
21
49.8342664
0
LINE
8
DEFAULT_255_2_778
10
15.1797344
20
49.4887664
11
15.1797344
21
50.7201664
0
LINE
8
DEFAULT_255_2_778
10
15.1797344
20
50.7201664
11
15.5453344
21
50.7201664
0
LINE
8
DEFAULT_255_2_778
10
15.5453344
20
50.7201664
11
15.5453344
21
49.4887664
0
LINE
8
DEFAULT_255_2_778
10
15.5453344
20
49.4887664
11
15.1797344
21
49.4887664
0
ARC
8
DEFAULT_255_2_778
10
15.3647435
20
51.112866
40
0.1978332
50
90.7257917
51
180.9507563
0
ARC
8
DEFAULT_255_2_778
10
15.3597161
20
51.1129493
40
0.1977501
50
359.0247012
51
89.2694187
0
ARC
8
DEFAULT_255_2_778
10
15.3597161
20
51.1062174
40
0.1977501
50
270.7305813
51
0.9752988
0
ARC
8
DEFAULT_255_2_778
10
15.3647435
20
51.1063007
40
0.1978332
50
179.0492437
51
269.2742083
0
LINE
8
DEFAULT_255_2_778
10
15.1669375
20
51.1095833
11
15.1669375
21
51.1095833
0
LINE
8
DEFAULT_255_2_778
10
16.8727729
20
49.4854854
11
16.8727729
21
50.7168854
0
LINE
8
DEFAULT_255_2_778
10
16.8727729
20
50.7168854
11
17.2384729
21
50.7168854
0
LINE
8
DEFAULT_255_2_778
10
17.2384729
20
50.7168854
11
17.2384729
21
49.4854854
0
LINE
8
DEFAULT_255_2_778
10
17.2384729
20
49.4854854
11
16.8727729
21
49.4854854
0
ARC
8
DEFAULT_255_2_778
10
17.0581435
20
51.109666
40
0.1978332
50
90.7257917
51
180.9507563
0
ARC
8
DEFAULT_255_2_778
10
17.0530509
20
51.109686
40
0.1978142
50
359.0433553
51
89.2507851
0
ARC
8
DEFAULT_255_2_778
10
17.053051
20
51.1030805
40
0.197814
50
270.7491796
51
0.9566796
0
ARC
8
DEFAULT_255_2_778
10
17.0581435
20
51.1031007
40
0.1978332
50
179.0492437
51
269.2742083
0
LINE
8
DEFAULT_255_2_778
10
16.8603375
20
51.1063833
11
16.8603375
21
51.1063833
0
ARC
8
DEFAULT_255_2_778
10
13.7517901
20
49.8984013
40
0.434232
50
284.0737984
51
307.1283935
0
ARC
8
DEFAULT_255_2_778
10
13.660277
20
50.2349778
40
0.7829896
50
272.5675489
51
284.5802087
0
ARC
8
DEFAULT_255_2_778
10
13.6343582
20
50.5938726
40
1.1427274
50
269.9523961
51
273.0596894
0
ARC
8
DEFAULT_255_2_778
10
13.6382461
20
50.9755502
40
1.5244123
50
264.3721605
51
269.8181894
0
ARC
8
DEFAULT_255_2_778
10
13.7027307
20
51.6473242
40
2.1992727
50
260.3040359
51
264.4165702
0
ARC
8
DEFAULT_255_2_778
10
13.7920328
20
52.1997479
40
2.75885
50
259.2299789
51
260.4081406
0
ARC
8
DEFAULT_255_2_778
10
13.5129832
20
50.0493106
40
0.6077178
50
188.8927198
51
247.0988028
0
ARC
8
DEFAULT_255_2_778
10
13.8555322
20
50.140454
40
0.9609548
50
185.1081288
51
191.1050073
0
ARC
8
DEFAULT_255_2_778
10
13.7233219
20
50.0679493
40
0.8250312
50
161.5072483
51
180.9066349
0
ARC
8
DEFAULT_255_2_778
10
13.474388
20
50.146695
40
0.5639907
50
120.4701872
51
161.0725957
0
ARC
8
DEFAULT_255_2_778
10
13.5600359
20
50.0799593
40
0.6661417
50
90.0499347
51
123.9108507
0
ARC
8
DEFAULT_255_2_778
10
13.5729457
20
49.9234303
40
0.8227812
50
89.9974966
51
90.9394619
0
ARC
8
DEFAULT_255_2_778
10
13.5669956
20
49.7623917
40
0.9838382
50
77.8335832
51
89.6513936
0
ARC
8
DEFAULT_255_2_778
10
13.4795112
20
49.3444877
40
1.4107957
50
69.8093959
51
77.9373312
0
ARC
8
DEFAULT_255_2_778
10
13.3759492
20
49.0427231
40
1.7297745
50
69.0266426
51
70.0397415
0
ARC
8
DEFAULT_255_2_778
10
13.5343166
20
49.0646487
40
1.4359408
50
73.9178594
51
79.2452957
0
ARC
8
DEFAULT_255_2_778
10
13.6318162
20
49.5849429
40
0.9065925
50
79.1629935
51
86.6049203
0
ARC
8
DEFAULT_255_2_778
10
13.6498447
20
49.8362653
40
0.654651
50
86.8774046
51
89.9568351
0
ARC
8
DEFAULT_255_2_778
10
13.6423726
20
50.0735348
40
0.4174572
50
88.9067133
51
108.0688095
0
ARC
8
DEFAULT_255_2_778
10
13.5851449
20
50.2472782
40
0.2345328
50
107.942404
51
152.2459688
0
ARC
8
DEFAULT_255_2_778
10
14.2992743
20
49.9170195
40
1.0210941
50
154.5072776
51
162.5682748
0
ARC
8
DEFAULT_255_2_778
10
13.9273295
20
50.0317637
40
0.6318603
50
162.3915767
51
174.8213024
0
ARC
8
DEFAULT_255_2_778
10
13.7621865
20
50.0505744
40
0.4657093
50
175.2922289
51
179.9490984
0
ARC
8
DEFAULT_255_2_778
10
13.6350307
20
50.0431851
40
0.338643
50
178.6796766
51
234.9381893
0
ARC
8
DEFAULT_255_2_778
10
13.632674
20
50.05485
40
0.3469445
50
236.3635337
51
264.9414885
0
ARC
8
DEFAULT_255_2_778
10
13.6587382
20
50.2303364
40
0.5241505
50
263.7947872
51
270.1188666
0
ARC
8
DEFAULT_255_2_778
10
13.6534653
20
50.4677235
40
0.7615633
50
270.4785196
51
281.0719661
0
ARC
8
DEFAULT_255_2_778
10
13.5691544
20
50.9215841
40
1.2231753
50
280.8649891
51
287.2606546
0
ARC
8
DEFAULT_255_2_778
10
14.6238917
20
51.7545098
40
2.2970478
50
276.5245429
51
279.5045514
0
ARC
8
DEFAULT_255_2_778
10
14.6892816
20
51.1768746
40
1.7157236
50
272.7759418
51
276.5469051
0
ARC
8
DEFAULT_255_2_778
10
14.7090708
20
50.7966172
40
1.3349546
50
270.0439674
51
272.7180028
0
ARC
8
DEFAULT_255_2_778
10
14.7004544
20
50.3284578
40
0.8668484
50
258.6359382
51
270.6372354
0
ARC
8
DEFAULT_255_2_778
10
14.6077963
20
49.8925325
40
0.4212409
50
235.5405817
51
259.3086539
0
ARC
8
DEFAULT_255_2_778
10
14.5467089
20
49.7852012
40
0.2983588
50
181.5929591
51
233.550276
0
ARC
8
DEFAULT_255_2_778
10
14.744928
20
49.8151621
40
0.4979343
50
179.9387066
51
184.4062155
0
ARC
8
DEFAULT_255_2_778
10
14.8384963
20
49.9112319
40
0.2332136
50
194.3846046
51
259.805052
0
ARC
8
DEFAULT_255_2_778
10
14.9431283
20
50.2764805
40
0.6124159
50
256.2164989
51
270.9014371
0
ARC
8
DEFAULT_255_2_778
10
14.9522592
20
50.6434208
40
0.9792806
50
270.0294815
51
272.249316
0
LINE
8
DEFAULT_255_2_778
10
15.5955939
20
50.7136948
11
15.9421939
21
50.7136948
0
LINE
8
DEFAULT_255_2_778
10
15.9421939
20
50.7136948
11
16.2130939
21
49.9723948
0
LINE
8
DEFAULT_255_2_778
10
16.2130939
20
49.9723948
11
16.4839939
21
50.7200948
0
LINE
8
DEFAULT_255_2_778
10
16.4839939
20
50.7200948
11
16.7927939
21
50.7200948
0
LINE
8
DEFAULT_255_2_778
10
16.7927939
20
50.7200948
11
16.2884939
21
49.4698948
0
LINE
8
DEFAULT_255_2_778
10
16.2884939
20
49.4698948
11
16.0677939
21
49.4698948
0
LINE
8
DEFAULT_255_2_778
10
16.0677939
20
49.4698948
11
15.5955939
21
50.7136948
0
LINE
8
DEFAULT_255_2_778
10
6.2181939
20
51.3420948
11
6.3001939
21
51.3420948
0
LINE
8
DEFAULT_255_2_778
10
6.3001939
20
51.3420948
11
6.3001939
21
49.3851948
0
LINE
8
DEFAULT_255_2_778
10
6.3001939
20
49.3851948
11
18.5069939
21
49.3820948
0
LINE
8
DEFAULT_255_2_778
10
18.5069939
20
49.3820948
11
18.5101939
21
49.3002948
0
LINE
8
DEFAULT_255_2_778
10
18.5101939
20
49.3002948
11
6.2181939
21
49.3002948
0
LINE
8
DEFAULT_255_2_778
10
6.2181939
20
49.3002948
11
6.2181939
21
51.3357948
0
LINE
8
DEFAULT_255_2_778
10
13.9381939
20
49.7532948
11
14.0138939
21
49.5521948
0
LINE
8
DEFAULT_255_2_778
10
13.9950939
20
50.6578948
11
13.9320939
21
50.4443948
0
LINE
8
DEFAULT_255_2_778
10
14.2469939
20
49.8156948
11
14.2469939
21
50.5064948
0
LINE
8
DEFAULT_255_2_778
10
14.2469939
20
50.5064948
11
14.0577939
21
50.5064948
0
LINE
8
DEFAULT_255_2_778
10
14.0577939
20
50.5064948
11
14.0577939
21
50.7200948
0
LINE
8
DEFAULT_255_2_778
10
14.0577939
20
50.7200948
11
14.2469939
21
50.7200948
0
LINE
8
DEFAULT_255_2_778
10
14.2469939
20
50.7200948
11
14.3855939
21
51.2224948
0
LINE
8
DEFAULT_255_2_778
10
14.3855939
20
51.2224948
11
14.5998939
21
51.2224948
0
LINE
8
DEFAULT_255_2_778
10
14.5998939
20
51.2224948
11
14.6125939
21
50.7200948
0
LINE
8
DEFAULT_255_2_778
10
14.6125939
20
50.7200948
11
14.9528939
21
50.7200948
0
LINE
8
DEFAULT_255_2_778
10
14.9528939
20
50.7200948
11
14.9528939
21
50.5064948
0
LINE
8
DEFAULT_255_2_778
10
14.9528939
20
50.5064948
11
14.6125939
21
50.5064948
0
LINE
8
DEFAULT_255_2_778
10
14.6125939
20
50.5064948
11
14.6125939
21
49.8532948
0
LINE
8
DEFAULT_255_2_778
10
14.9906939
20
49.6648948
11
15.0031939
21
49.4889948
0
ARC
8
DEFAULT_255_2_778
10
18.2773623
20
49.3482188
40
0.588729
50
314.1492215
51
331.9331811
0
ARC
8
DEFAULT_255_2_778
10
18.4149706
20
49.2079819
40
0.3922582
50
269.0327782
51
313.9945782
0
ARC
8
DEFAULT_255_2_778
10
18.4132762
20
49.4002141
40
0.5844552
50
255.6362987
51
269.5169802
0
ARC
8
DEFAULT_255_2_778
10
18.4884838
20
49.7036704
40
0.8970861
50
246.6814554
51
255.7910989
0
ARC
8
DEFAULT_255_2_778
10
18.6133117
20
50.0067814
40
1.2248623
50
243.4464445
51
246.9318311
0
ARC
8
DEFAULT_255_2_778
10
18.337299
20
49.4359468
40
0.3644339
50
238.6793577
51
269.7549067
0
ARC
8
DEFAULT_255_2_778
10
18.3337129
20
49.4703517
40
0.3988407
50
270.291204
51
286.0311052
0
ARC
8
DEFAULT_255_2_778
10
18.3184816
20
49.2926248
40
0.2408146
50
301.3744029
51
328.6018723
0
ARC
8
DEFAULT_255_2_778
10
17.8323748
20
49.6194545
40
0.8264122
50
326.8184964
51
337.3943856
0
ARC
8
DEFAULT_255_2_778
10
16.7747134
20
50.0775751
40
1.978979
50
336.9203071
51
342.1242923
0
ARC
8
DEFAULT_255_2_778
10
18.1004201
20
49.8815584
40
0.1954042
50
190.120766
51
263.958695
0
ARC
8
DEFAULT_255_2_778
10
18.1765701
20
50.1841775
40
0.5062622
50
258.9866291
51
270.5697296
0
ARC
8
DEFAULT_255_2_778
10
18.1794576
20
50.5016093
40
0.8236717
50
270.1493118
51
275.0745303
0
ARC
8
DEFAULT_255_2_778
10
18.1624298
20
50.7187074
40
1.0414275
50
274.9512067
51
276.4741818
0
ARC
8
DEFAULT_255_2_778
10
17.886645
20
51.9743897
40
2.5191229
50
276.512331
51
279.4178265
0
ARC
8
DEFAULT_255_2_778
10
17.9624852
20
51.3042793
40
1.844735
50
272.9000807
51
276.5325546
0
ARC
8
DEFAULT_255_2_778
10
17.9861545
20
50.862206
40
1.4020311
50
270.0526278
51
272.8480745
0
ARC
8
DEFAULT_255_2_778
10
17.9781162
20
50.3534763
40
0.8933496
50
259.5051122
51
270.5981508
0
ARC
8
DEFAULT_255_2_778
10
17.8879991
20
49.8925767
40
0.4237712
50
238.7045764
51
260.1348639
0
ARC
8
DEFAULT_255_2_778
10
17.8042044
20
49.7462066
40
0.2552092
50
181.2540346
51
237.7100784
0
LINE
8
DEFAULT_255_2_778
10
11.0900564
20
50.4443213
11
11.0900564
21
49.8160213
0
ARC
8
DEFAULT_255_2_778
10
10.4261476
20
51.0082238
40
1.3645958
50
292.82637
51
299.1123799
0
ARC
8
DEFAULT_255_2_778
10
10.6927129
20
50.3663896
40
0.6696238
50
282.4400197
51
293.1090634
0
ARC
8
DEFAULT_255_2_778
10
10.7657535
20
50.0415188
40
0.3366487
50
270.5781586
51
282.2114611
0
ARC
8
DEFAULT_255_2_778
10
10.7638219
20
49.8755025
40
0.1706983
50
241.3905381
51
271.7888651
0
ARC
8
DEFAULT_255_2_778
10
10.747728
20
49.8387111
40
0.1307392
50
222.8359183
51
239.8616768
0
ARC
8
DEFAULT_255_2_778
10
10.8384234
20
49.9630377
40
0.2833169
50
195.5790395
51
228.8136819
0
ARC
8
DEFAULT_255_2_778
10
11.2237911
20
50.0868199
40
0.6879504
50
182.8967157
51
196.8898295
0
ARC
8
DEFAULT_255_2_778
10
11.7306858
20
50.1289695
40
1.1964408
50
179.9092738
51
183.6859184
0
ARC
8
DEFAULT_255_2_778
10
12.0984338
20
50.1293685
40
1.564188
50
177.2644099
51
179.9452207
0
ARC
8
DEFAULT_255_2_778
10
10.9853029
20
50.1831643
40
0.4497586
50
177.2655023
51
177.3418803
0
ARC
8
DEFAULT_255_2_778
10
11.0005314
20
50.1398533
40
0.4689689
50
149.0265023
51
172.0616653
0
ARC
8
DEFAULT_255_2_778
10
10.8347129
20
50.230206
40
0.2804063
50
88.5402025
51
147.4185874
0
ARC
8
DEFAULT_255_2_778
10
10.765833
20
49.6802465
40
0.833748
50
72.0191589
51
84.7683475
0
ARC
8
DEFAULT_255_2_778
10
10.8835174
20
50.0591106
40
0.4370876
50
61.8010517
51
71.3613167
0
ARC
8
DEFAULT_255_2_778
10
10.4736514
20
50.7285849
40
1.2921636
50
287.0718407
51
298.4918193
0
ARC
8
DEFAULT_255_2_778
10
10.6329455
20
50.2050683
40
0.744952
50
270.6824619
51
287.1805816
0
ARC
8
DEFAULT_255_2_778
10
10.6417292
20
50.0388517
40
0.5786826
50
267.7347632
51
270.0088495
0
ARC
8
DEFAULT_255_2_778
10
10.6222828
20
49.8798284
40
0.4192211
50
203.9093897
51
269.5317059
0
ARC
8
DEFAULT_255_2_778
10
11.0897602
20
50.1391638
40
0.9528801
50
192.6009015
51
206.7737237
0
ARC
8
DEFAULT_255_2_778
10
11.4915698
20
50.2474942
40
1.3687639
50
192.6165694
51
193.3570279
0
ARC
8
DEFAULT_255_2_778
10
11.1913353
20
50.1418735
40
1.0533763
50
182.6397763
51
190.5768818
0
ARC
8
DEFAULT_255_2_778
10
11.0376686
20
50.1322963
40
0.899435
50
180.0132575
51
182.4811747
0
ARC
8
DEFAULT_255_2_778
10
10.8120158
20
50.1481787
40
0.6739744
50
136.7445348
51
181.3680168
0
ARC
8
DEFAULT_255_2_778
10
10.662935
20
50.2366022
40
0.5062158
50
89.2409074
51
132.4668673
0
ARC
8
DEFAULT_255_2_778
10
10.6695554
20
50.1266706
40
0.6161029
50
87.804633
51
89.9919934
0
ARC
8
DEFAULT_255_2_778
10
10.680803
20
49.5849251
40
1.1574622
50
70.3133819
51
89.3884771
0
ARC
8
DEFAULT_255_2_778
10
10.5904169
20
49.280622
40
1.4745303
50
70.1933816
51
70.9898699
0
ARC
8
DEFAULT_255_2_778
10
9.3624696
20
50.1107942
40
0.1950108
50
91.6788031
51
181.813939
0
ARC
8
DEFAULT_255_2_778
10
9.3510433
20
50.1107942
40
0.1950108
50
358.186061
51
88.3211969
0
ARC
8
DEFAULT_255_2_778
10
9.3510433
20
50.0984484
40
0.1950108
50
271.6788031
51
1.813939
0
ARC
8
DEFAULT_255_2_778
10
9.3624696
20
50.0984484
40
0.1950108
50
178.186061
51
268.3211969
0
ARC
8
DEFAULT_255_2_778
10
9.5083893
20
50.1113546
40
0.4667814
50
145.0334623
51
180.8265163
0
ARC
8
DEFAULT_255_2_778
10
9.3653444
20
50.2190342
40
0.2879151
50
91.7092739
51
146.2799614
0
ARC
8
DEFAULT_255_2_778
10
9.3415333
20
50.2021136
40
0.3050877
50
23.4934874
51
87.1398977
0
ARC
8
DEFAULT_255_2_778
10
9.1870608
20
50.1082144
40
0.484809
50
359.5753549
51
26.3944218
0
ARC
8
DEFAULT_255_2_778
10
9.2053251
20
50.0978715
40
0.4665802
50
325.0256173
51
0.8288991
0
ARC
8
DEFAULT_255_2_778
10
9.3481982
20
49.9903215
40
0.2879274
50
271.7032906
51
326.2656695
0
ARC
8
DEFAULT_255_2_778
10
9.3719326
20
50.0072077
40
0.3050641
50
203.5053918
51
267.1485008
0
ARC
8
DEFAULT_255_2_778
10
9.5262703
20
50.1010158
40
0.4846274
50
179.5737352
51
206.399488
0
ARC
8
DEFAULT_255_2_778
10
9.3457714
20
50.0857876
40
0.6699322
50
95.9543621
51
178.9279918
0
ARC
8
DEFAULT_255_2_778
10
9.3689297
20
50.0169797
40
0.7409416
50
89.9824665
51
97.1836307
0
ARC
8
DEFAULT_255_2_778
10
9.3734037
20
50.047249
40
0.710685
50
48.754652
51
90.3424168
0
ARC
8
DEFAULT_255_2_778
10
9.4191906
20
50.0967682
40
0.6432677
50
0.1383337
51
48.9131618
0
ARC
8
DEFAULT_255_2_778
10
9.3926363
20
50.110868
40
0.6699376
50
275.9481082
51
358.9268911
0
ARC
8
DEFAULT_255_2_778
10
9.3693839
20
50.1800136
40
0.7412923
50
269.9824166
51
277.18192
0
ARC
8
DEFAULT_255_2_778
10
9.3648797
20
50.1490078
40
0.7102994
50
228.4135848
51
270.3449845
0
ARC
8
DEFAULT_255_2_778
10
9.3190178
20
50.0998099
40
0.6430631
50
180.1326312
51
228.5603801
0
ARC
8
DEFAULT_255_2_778
10
6.8108339
20
50.7953423
40
0.4410946
50
358.399361
51
20.0218069
0
ARC
8
DEFAULT_255_2_778
10
7.0253177
20
50.8714374
40
0.2135292
50
20.5419455
51
86.7410997
0
ARC
8
DEFAULT_255_2_778
10
6.9405407
20
50.8315724
40
0.314934
50
287.9227005
51
351.1869993
0
ARC
8
DEFAULT_255_2_778
10
7.0384907
20
50.7801459
40
0.6187549
50
4.9300483
51
29.901288
0
ARC
8
DEFAULT_255_2_778
10
7.1431875
20
50.8212073
40
0.5077965
50
31.774244
51
73.6174038
0
ARC
8
DEFAULT_255_2_778
10
7.0079481
20
50.4399064
40
0.9120309
50
72.2224415
51
84.9672302
0
ARC
8
DEFAULT_255_2_778
10
6.9734901
20
51.2034382
40
0.9424937
50
276.9758239
51
292.3160184
0
ARC
8
DEFAULT_255_2_778
10
7.1528558
20
50.7958093
40
0.4974119
50
291.0316637
51
353.5367683
0
ARC
8
DEFAULT_255_2_778
10
6.8831249
20
50.8510383
40
0.7720348
50
351.7170585
51
358.6850323
0
LINE
8
DEFAULT_255_2_778
10
18.0657564
20
48.9111213
11
18.1478564
21
49.1246213
0
LINE
8
DEFAULT_255_2_778
10
18.6581564
20
49.4701213
11
18.2295564
21
50.5004213
0
LINE
8
DEFAULT_255_2_778
10
18.2295564
20
50.5004213
11
17.9080564
21
50.5004213
0
LINE
8
DEFAULT_255_2_778
10
17.9080564
20
50.5004213
11
17.9080564
21
49.8472213
0
LINE
8
DEFAULT_255_2_778
10
18.2798564
20
49.6839213
11
18.2988564
21
49.4892213
0
LINE
8
DEFAULT_255_2_778
10
17.5490564
20
49.7406213
11
17.5363564
21
50.5070213
0
LINE
8
DEFAULT_255_2_778
10
17.5363564
20
50.5070213
11
17.3471564
21
50.5070213
0
LINE
8
DEFAULT_255_2_778
10
17.3471564
20
50.5070213
11
17.3471564
21
50.7206213
0
LINE
8
DEFAULT_255_2_778
10
17.3471564
20
50.7206213
11
17.5487564
21
50.7206213
0
LINE
8
DEFAULT_255_2_778
10
17.5487564
20
50.7206213
11
17.6747564
21
51.2230213
0
LINE
8
DEFAULT_255_2_778
10
17.6747564
20
51.2230213
11
17.8890564
21
51.2230213
0
LINE
8
DEFAULT_255_2_778
10
17.8890564
20
51.2230213
11
17.9017564
21
50.7206213
0
LINE
8
DEFAULT_255_2_778
10
17.9017564
20
50.7206213
11
18.5319564
21
50.7206213
0
LINE
8
DEFAULT_255_2_778
10
18.5319564
20
50.7206213
11
18.8343564
21
49.8914213
0
LINE
8
DEFAULT_255_2_778
10
18.8343564
20
49.8914213
11
19.1368564
21
50.7206213
0
LINE
8
DEFAULT_255_2_778
10
19.1368564
20
50.7206213
11
19.4519564
21
50.7206213
0
LINE
8
DEFAULT_255_2_778
10
19.4519564
20
50.7206213
11
18.7965564
21
49.0746213
0
LINE
8
DEFAULT_255_2_778
10
11.0900564
20
50.4443213
11
11.0900564
21
50.4443213
0
LINE
8
DEFAULT_255_2_778
10
11.0900564
20
50.6677213
11
11.0900564
21
51.4201213
0
LINE
8
DEFAULT_255_2_778
10
11.0900564
20
51.4201213
11
11.4538564
21
51.4614213
0
LINE
8
DEFAULT_255_2_778
10
11.4538564
20
51.4614213
11
11.4538564
21
49.4937213
0
LINE
8
DEFAULT_255_2_778
10
11.4538564
20
49.4937213
11
11.0982564
21
49.4937213
0
LINE
8
DEFAULT_255_2_778
10
11.0982564
20
49.4937213
11
11.0900564
21
49.5929213
0
LINE
8
DEFAULT_255_2_778
10
11.0900564
20
50.6679213
11
11.0900564
21
50.6677213
0
LINE
8
DEFAULT_255_2_778
10
9.1675564
20
50.1046213
11
9.1675564
21
50.1046213
0
LINE
8
DEFAULT_255_2_778
10
9.0416564
20
50.1046213
11
9.0416564
21
50.1046213
0
LINE
8
DEFAULT_255_2_778
10
8.6759564
20
50.0983213
11
8.6759564
21
50.0983213
0
LINE
8
DEFAULT_255_2_778
10
7.0374564
20
51.0846213
11
6.7728564
21
51.0846213
0
LINE
8
DEFAULT_255_2_778
10
6.7728564
20
51.0846213
11
6.7728564
21
50.5319213
0
LINE
8
DEFAULT_255_2_778
10
6.7728564
20
50.5319213
11
7.0374564
21
50.5319213
0
LINE
8
DEFAULT_255_2_778
10
7.2517564
20
50.7833213
11
7.2517564
21
50.7830213
0
LINE
8
DEFAULT_255_2_778
10
7.0879564
20
51.3484213
11
6.3820564
21
51.3484213
0
LINE
8
DEFAULT_255_2_778
10
6.3820564
20
51.3484213
11
6.3820564
21
49.4889213
0
LINE
8
DEFAULT_255_2_778
10
6.3820564
20
49.4889213
11
6.7728564
21
49.4889213
0
LINE
8
DEFAULT_255_2_778
10
6.7728564
20
49.4889213
11
6.7728564
21
50.2679213
0
LINE
8
DEFAULT_255_2_778
10
6.7728564
20
50.2679213
11
7.0879564
21
50.2679213
0
LINE
8
DEFAULT_255_2_778
10
7.6549564
20
50.8333213
11
7.6549564
21
50.8333213
0
LINE
8
DEFAULT_255_1_234
10
4.4371265
20
45.2965276
11
4.4371265
21
44.9551788
0
LINE
8
DEFAULT_255_1_234
10
4.4371265
20
44.9551788
11
4.763215
21
44.9551788
0
LINE
8
DEFAULT_255_1_234
10
4.763215
20
44.9551788
11
4.763215
21
44.8146233
0
LINE
8
DEFAULT_255_1_234
10
4.763215
20
44.8146233
11
4.4371265
21
44.8146233
0
LINE
8
DEFAULT_255_1_234
10
4.4371265
20
44.8146233
11
4.4371265
21
44.4451634
0
LINE
8
DEFAULT_255_1_234
10
4.4371265
20
44.4451634
11
4.2877361
21
44.4451634
0
LINE
8
DEFAULT_255_1_234
10
4.2877361
20
44.4451634
11
4.2877361
21
44.8146233
0
LINE
8
DEFAULT_255_1_234
10
4.2877361
20
44.8146233
11
3.9616476
21
44.8146233
0
LINE
8
DEFAULT_255_1_234
10
3.9616476
20
44.8146233
11
3.9616476
21
44.9551788
0
LINE
8
DEFAULT_255_1_234
10
3.9616476
20
44.9551788
11
4.2877361
21
44.9551788
0
LINE
8
DEFAULT_255_1_234
10
4.2877361
20
44.9551788
11
4.2877361
21
45.2965276
0
LINE
8
DEFAULT_255_1_234
10
4.2877361
20
45.2965276
11
4.4371265
21
45.2965276
0
LINE
8
DEFAULT_255_1_234
10
4.9639341
20
4.6404
11
4.7101312
21
5.1134694
0
LINE
8
DEFAULT_255_1_234
10
4.7101312
20
5.1134694
11
4.4354458
21
5.1134694
0
LINE
8
DEFAULT_255_1_234
10
4.4354458
20
5.1134694
11
4.4354458
21
4.6404
0
LINE
8
DEFAULT_255_1_234
10
4.4354458
20
4.6404
11
4.2804332
21
4.6404
0
LINE
8
DEFAULT_255_1_234
10
4.2804332
20
4.6404
11
4.2804332
21
5.8098211
0
LINE
8
DEFAULT_255_1_234
10
4.2804332
20
5.8098211
11
4.667563
21
5.8098211
0
LINE
8
DEFAULT_255_1_234
10
4.8547025
20
5.1463995
11
5.1293879
21
4.6500381
0
LINE
8
DEFAULT_255_1_234
10
5.1293879
20
4.6500381
11
5.1293879
21
4.6404
0
LINE
8
DEFAULT_255_1_234
10
5.1293879
20
4.6404
11
4.9639341
21
4.6404
0
LINE
8
DEFAULT_255_1_234
10
4.4354458
20
5.6829196
11
4.4354458
21
5.2395677
0
LINE
8
DEFAULT_255_1_234
10
4.4354458
20
5.2395677
11
4.672382
21
5.2395677
0
LINE
8
DEFAULT_255_1_234
10
4.6715789
20
5.6829196
11
4.4354458
21
5.6829196
0
ARC
8
DEFAULT_255_1_234
10
4.6717269
20
5.1136761
40
0.6961575
50
80.653586
51
90.3427061
0
ARC
8
DEFAULT_255_1_234
10
4.7136744
20
5.3599348
40
0.4463577
50
65.6987447
51
80.8329603
0
ARC
8
DEFAULT_255_1_234
10
4.7614385
20
5.4694322
40
0.3269094
50
50.0017161
51
65.4305835
0
ARC
8
DEFAULT_255_1_234
10
4.7832849
20
5.4989482
40
0.2902647
50
11.628416
51
49.5603263
0
ARC
8
DEFAULT_255_1_234
10
4.6297185
20
5.4614299
40
0.4482792
50
359.5655735
51
12.3691
0
ARC
8
DEFAULT_255_1_234
10
4.7374045
20
5.4551644
40
0.3405924
50
341.9983148
51
0.4822259
0
ARC
8
DEFAULT_255_1_234
10
4.7768885
20
5.4444471
40
0.2997359
50
323.8609373
51
341.61416
0
ARC
8
DEFAULT_255_1_234
10
4.7467129
20
5.4677484
40
0.3378487
50
296.7018614
51
323.6876402
0
ARC
8
DEFAULT_255_1_234
10
4.7026024
20
5.5466235
40
0.4281516
50
290.8086567
51
297.2323311
0
ARC
8
DEFAULT_255_1_234
10
4.6749554
20
5.5989351
40
0.3593766
50
269.589728
51
281.8058135
0
ARC
8
DEFAULT_255_1_234
10
4.7000453
20
5.4841743
40
0.2419125
50
281.5501019
51
303.9357432
0
ARC
8
DEFAULT_255_1_234
10
4.7137641
20
5.4603936
40
0.2145323
50
304.4415616
51
311.2106213
0
ARC
8
DEFAULT_255_1_234
10
4.7269746
20
5.4464632
40
0.1953505
50
310.9875673
51
356.2715578
0
ARC
8
DEFAULT_255_1_234
10
4.6513395
20
5.4577422
40
0.2716331
50
354.9348262
51
0.0609027
0
ARC
8
DEFAULT_255_1_234
10
4.6326269
20
5.4604435
40
0.2903554
50
359.5239371
51
12.8808918
0
ARC
8
DEFAULT_255_1_234
10
4.7303824
20
5.4843728
40
0.1897315
50
12.4173452
51
43.1022135
0
ARC
8
DEFAULT_255_1_234
10
4.7365429
20
5.4880724
40
0.1827118
50
43.5751728
51
48.203944
0
ARC
8
DEFAULT_255_1_234
10
4.7195921
20
5.4659302
40
0.2105272
50
48.7809703
51
72.6969569
0
ARC
8
DEFAULT_255_1_234
10
4.6841546
20
5.358382
40
0.3237537
50
72.3702241
51
84.8791103
0
ARC
8
DEFAULT_255_1_234
10
4.6694022
20
5.2241769
40
0.4587478
50
84.5400526
51
89.7281406
0
LINE
8
DEFAULT_255_1_234
10
6.0699045
20
5.4716849
11
5.9148919
21
5.4716849
0
LINE
8
DEFAULT_255_1_234
10
5.2225561
20
4.9793394
11
5.3775687
21
4.9793394
0
ARC
8
DEFAULT_255_1_234
10
5.9807732
20
6.3663768
40
1.252368
50
248.9199003
51
254.1439814
0
ARC
8
DEFAULT_255_1_234
10
5.8127227
20
5.9337234
40
0.788226
50
241.633709
51
249.0064503
0
ARC
8
DEFAULT_255_1_234
10
5.6598621
20
5.6536317
40
0.4691427
50
230.498225
51
241.8087113
0
ARC
8
DEFAULT_255_1_234
10
5.5814196
20
5.5536906
40
0.3421437
50
227.4064532
51
229.9881192
0
ARC
8
DEFAULT_255_1_234
10
5.5326716
20
5.5061088
40
0.2741476
50
200.6781896
51
228.1763934
0
ARC
8
DEFAULT_255_1_234
10
5.5399027
20
5.5046077
40
0.2804109
50
179.5061581
51
199.8694617
0
ARC
8
DEFAULT_255_1_234
10
5.5389779
20
5.512021
40
0.2795204
50
132.4834203
51
181.0242172
0
ARC
8
DEFAULT_255_1_234
10
5.5985361
20
5.4557704
40
0.3612768
50
129.2532479
51
133.4242687
0
ARC
8
DEFAULT_255_1_234
10
5.6131811
20
5.4337965
40
0.3875675
50
101.98776
51
128.8742646
0
ARC
8
DEFAULT_255_1_234
10
5.6530421
20
5.2616741
40
0.5642249
50
89.5906553
51
102.3169264
0
ARC
8
DEFAULT_255_1_234
10
5.6600913
20
5.2935148
40
0.5323783
50
77.2360837
51
90.3248275
0
ARC
8
DEFAULT_255_1_234
10
5.6807993
20
5.39024
40
0.4334697
50
63.837784
51
77.0809408
0
ARC
8
DEFAULT_255_1_234
10
5.7085754
20
5.4419911
40
0.3747796
50
45.9864267
51
64.1607727
0
ARC
8
DEFAULT_255_1_234
10
5.7346636
20
5.4717866
40
0.3352302
50
32.2747395
51
45.6547121
0
ARC
8
DEFAULT_255_1_234
10
5.7413076
20
5.473688
40
0.328603
50
359.6507365
51
32.6130309
0
ARC
8
DEFAULT_255_1_234
10
5.6470172
20
5.474166
40
0.2678863
50
359.469343
51
14.9832209
0
ARC
8
DEFAULT_255_1_234
10
5.7175234
20
5.4930539
40
0.1948938
50
14.9781179
51
48.2004265
0
ARC
8
DEFAULT_255_1_234
10
5.7010878
20
5.4723983
40
0.2212521
50
48.5927837
51
74.1241538
0
ARC
8
DEFAULT_255_1_234
10
5.6677368
20
5.3623248
40
0.3362561
50
73.7888341
51
86.6652678
0
ARC
8
DEFAULT_255_1_234
10
5.6574933
20
5.2415881
40
0.4573953
50
86.2640471
51
90.0526343
0
ARC
8
DEFAULT_255_1_234
10
5.6546646
20
5.2811192
40
0.4178709
50
89.6697524
51
99.2309573
0
ARC
8
DEFAULT_255_1_234
10
5.6304097
20
5.4255964
40
0.2713749
50
99.069534
51
113.7658566
0
ARC
8
DEFAULT_255_1_234
10
5.6030288
20
5.4901677
40
0.2012469
50
114.0401004
51
127.9850673
0
ARC
8
DEFAULT_255_1_234
10
5.5789852
20
5.519773
40
0.1631167
50
127.7287463
51
176.7105154
0
ARC
8
DEFAULT_255_1_234
10
5.6468569
20
5.5096693
40
0.2315392
50
175.1779447
51
180.0581938
0
ARC
8
DEFAULT_255_1_234
10
5.5625416
20
5.5084428
40
0.1472271
50
179.6142195
51
228.1246017
0
ARC
8
DEFAULT_255_1_234
10
5.6067085
20
5.5493308
40
0.2072299
50
226.5779593
51
230.8800004
0
ARC
8
DEFAULT_255_1_234
10
5.6538163
20
5.6118636
40
0.2854818
50
231.4635071
51
241.9260842
0
ARC
8
DEFAULT_255_1_234
10
5.7735341
20
5.83218
40
0.53622
50
241.7178533
51
248.3259551
0
ARC
8
DEFAULT_255_1_234
10
5.9120713
20
6.1754064
40
0.9063478
50
248.2007737
51
252.4528373
0
ARC
8
DEFAULT_255_1_234
10
6.0324438
20
6.5475441
40
1.2974635
50
252.3391078
51
254.3469452
0
ARC
8
DEFAULT_255_1_234
10
5.2782141
20
3.8498148
40
1.5037162
50
71.0197183
51
74.4087047
0
ARC
8
DEFAULT_255_1_234
10
5.4476826
20
4.3390111
40
0.9859993
50
66.1847285
51
71.086374
0
ARC
8
DEFAULT_255_1_234
10
5.6033138
20
4.68942
40
0.6025855
50
59.3536294
51
66.2691831
0
ARC
8
DEFAULT_255_1_234
10
5.6921791
20
4.8397609
40
0.4279449
50
49.1020879
51
59.3293958
0
ARC
8
DEFAULT_255_1_234
10
5.7740531
20
4.9330834
40
0.3038015
50
32.7919921
51
49.2505539
0
ARC
8
DEFAULT_255_1_234
10
5.8061621
20
4.9559191
40
0.264448
50
31.1181161
51
32.4005348
0
ARC
8
DEFAULT_255_1_234
10
5.7973158
20
4.9523779
40
0.2738556
50
8.1116974
51
30.7958831
0
ARC
8
DEFAULT_255_1_234
10
5.7162826
20
4.9385753
40
0.3560327
50
359.8389159
51
8.4706516
0
ARC
8
DEFAULT_255_1_234
10
5.7788618
20
4.9337137
40
0.2934776
50
337.4731098
51
0.7537279
0
ARC
8
DEFAULT_255_1_234
10
5.7967313
20
4.9317387
40
0.2762607
50
307.5917067
51
336.4315538
0
ARC
8
DEFAULT_255_1_234
10
5.7507141
20
4.9830102
40
0.3449979
50
307.6551545
51
308.4529766
0
ARC
8
DEFAULT_255_1_234
10
5.727686
20
5.018525
40
0.3871988
50
284.3734338
51
307.1424381
0
ARC
8
DEFAULT_255_1_234
10
5.678169
20
5.2006932
40
0.5759636
50
272.4382747
51
284.646547
0
ARC
8
DEFAULT_255_1_234
10
5.6654898
20
5.3806893
40
0.7563528
50
269.9708387
51
272.8178037
0
ARC
8
DEFAULT_255_1_234
10
5.6611938
20
5.1768716
40
0.5525489
50
248.2707594
51
270.4055579
0
ARC
8
DEFAULT_255_1_234
10
5.6557679
20
5.1578192
40
0.5328452
50
246.1383403
51
248.0542782
0
ARC
8
DEFAULT_255_1_234
10
5.6139058
20
5.0698843
40
0.4355005
50
233.1670131
51
246.4950969
0
ARC
8
DEFAULT_255_1_234
10
5.5584963
20
4.9950812
40
0.3424126
50
215.3403242
51
233.0843104
0
ARC
8
DEFAULT_255_1_234
10
5.5312394
20
4.9752549
40
0.3087104
50
179.2419209
51
215.2648451
0
ARC
8
DEFAULT_255_1_234
10
5.6079988
20
4.9766666
40
0.2304457
50
179.335461
51
199.1045811
0
ARC
8
DEFAULT_255_1_234
10
5.5747665
20
4.9679766
40
0.1962176
50
199.8828939
51
232.7063202
0
ARC
8
DEFAULT_255_1_234
10
5.6219933
20
5.0273788
40
0.2720938
50
232.3738199
51
255.5136649
0
ARC
8
DEFAULT_255_1_234
10
5.65608
20
5.1517835
40
0.4010747
50
255.2446292
51
267.5320849
0
ARC
8
DEFAULT_255_1_234
10
5.6648423
20
5.2750702
40
0.5246356
50
267.1557994
51
270.0286766
0
ARC
8
DEFAULT_255_1_234
10
5.6676195
20
5.230695
40
0.4802668
50
269.7000017
51
278.1660162
0
ARC
8
DEFAULT_255_1_234
10
5.69322
20
5.0576515
40
0.3053425
50
278.0231263
51
290.625471
0
ARC
8
DEFAULT_255_1_234
10
5.7279887
20
4.9649025
40
0.206291
50
290.6619762
51
307.0370976
0
ARC
8
DEFAULT_255_1_234
10
5.7580276
20
4.9280504
40
0.1587906
50
306.3943566
51
355.3030547
0
ARC
8
DEFAULT_255_1_234
10
5.7068208
20
4.9357113
40
0.2104809
50
354.3660432
51
0.0698737
0
ARC
8
DEFAULT_255_1_234
10
5.7210553
20
4.9379617
40
0.1962563
50
359.417946
51
16.1971788
0
ARC
8
DEFAULT_255_1_234
10
5.7665863
20
4.9504418
40
0.149053
50
16.4723299
51
52.6262157
0
ARC
8
DEFAULT_255_1_234
10
5.6844917
20
4.8420433
40
0.2850296
50
52.7386432
51
62.4979148
0
ARC
8
DEFAULT_255_1_234
10
5.5459994
20
4.5814283
40
0.5801521
50
62.2515216
51
68.1220564
0
ARC
8
DEFAULT_255_1_234
10
5.3739905
20
4.1586872
40
1.0365451
50
68.0062803
51
71.8053402
0
ARC
8
DEFAULT_255_1_234
10
5.1944277
20
3.6201758
40
1.6042013
50
71.7183119
51
73.9258742
0
LINE
8
DEFAULT_255_1_234
10
6.9975703
20
4.7616792
11
6.9975703
21
4.6404
0
LINE
8
DEFAULT_255_1_234
10
6.9975703
20
4.6404
11
6.2313424
21
4.6404
0
LINE
8
DEFAULT_255_1_234
10
6.2313424
20
4.6404
11
6.2313424
21
4.7472221
0
LINE
8
DEFAULT_255_1_234
10
6.2313424
20
4.7472221
11
6.636142
21
5.1969995
0
LINE
8
DEFAULT_255_1_234
10
6.3574407
20
5.4652595
11
6.2088536
21
5.4652595
0
LINE
8
DEFAULT_255_1_234
10
6.723688
20
5.1014218
11
6.4104502
21
4.7616792
0
LINE
8
DEFAULT_255_1_234
10
6.4104502
20
4.7616792
11
6.9975703
21
4.7616792
0
ARC
8
DEFAULT_255_1_234
10
5.2871254
20
6.3899527
40
1.8008286
50
318.5132453
51
320.7828378
0
ARC
8
DEFAULT_255_1_234
10
5.8158228
20
5.9596426
40
1.1191493
50
320.7372736
51
323.9737074
0
ARC
8
DEFAULT_255_1_234
10
6.2078084
20
5.6756361
40
0.6350923
50
323.8961724
51
328.6421089
0
ARC
8
DEFAULT_255_1_234
10
6.412468
20
5.5494031
40
0.3946393
50
328.8299013
51
331.789948
0
ARC
8
DEFAULT_255_1_234
10
6.5121858
20
5.4979509
40
0.2824501
50
331.4255242
51
352.9364833
0
ARC
8
DEFAULT_255_1_234
10
6.5258359
20
5.4948976
40
0.2685315
50
353.2248685
51
0.0169286
0
ARC
8
DEFAULT_255_1_234
10
6.5468236
20
5.497195
40
0.2475536
50
359.4866256
51
15.9339782
0
ARC
8
DEFAULT_255_1_234
10
6.5975221
20
5.5108286
40
0.1950618
50
16.1714718
51
43.5284424
0
ARC
8
DEFAULT_255_1_234
10
6.605253
20
5.5185573
40
0.184134
50
43.4415429
51
83.1661404
0
ARC
8
DEFAULT_255_1_234
10
6.5918448
20
5.4448771
40
0.258926
50
82.160215
51
90.1505798
0
ARC
8
DEFAULT_255_1_234
10
6.5886875
20
5.3911865
40
0.3126255
50
89.5460705
51
102.5418777
0
ARC
8
DEFAULT_255_1_234
10
6.5643961
20
5.4942665
40
0.2067346
50
102.1739365
51
129.2061916
0
ARC
8
DEFAULT_255_1_234
10
6.5565033
20
5.5067094
40
0.1921118
50
129.7279328
51
135.7542026
0
ARC
8
DEFAULT_255_1_234
10
6.5686561
20
5.4970045
40
0.2075944
50
136.175737
51
166.3674722
0
ARC
8
DEFAULT_255_1_234
10
6.669348
20
5.4700182
40
0.3118201
50
165.9092917
51
178.8683903
0
ARC
8
DEFAULT_255_1_234
10
6.7558341
20
5.4653179
40
0.3983935
50
178.438168
51
180.0083905
0
ARC
8
DEFAULT_255_1_234
10
6.6156943
20
5.4692231
40
0.4068601
50
163.2878735
51
180.5581814
0
ARC
8
DEFAULT_255_1_234
10
6.5355205
20
5.491284
40
0.3237344
50
133.454115
51
162.9470031
0
ARC
8
DEFAULT_255_1_234
10
6.5533746
20
5.4723
40
0.349795
50
100.7869394
51
133.4384016
0
ARC
8
DEFAULT_255_1_234
10
6.5881518
20
5.3174319
40
0.5084616
50
89.6605301
51
101.3704185
0
ARC
8
DEFAULT_255_1_234
10
6.5947856
20
5.3235496
40
0.502348
50
78.2171172
51
90.4130393
0
ARC
8
DEFAULT_255_1_234
10
6.6302935
20
5.4859637
40
0.3361092
50
55.9268222
51
78.4888551
0
ARC
8
DEFAULT_255_1_234
10
6.6499375
20
5.5198324
40
0.2970617
50
47.9292255
51
55.4054003
0
ARC
8
DEFAULT_255_1_234
10
6.6600936
20
5.5301502
40
0.2825983
50
4.3347696
51
48.0560701
0
ARC
8
DEFAULT_255_1_234
10
6.5505329
20
5.5131601
40
0.393225
50
359.925209
51
5.5967654
0
ARC
8
DEFAULT_255_1_234
10
6.5934221
20
5.5187816
40
0.3503892
50
337.8914096
51
358.9967724
0
ARC
8
DEFAULT_255_1_234
10
6.3220633
20
5.6234706
40
0.6412172
50
326.9135351
51
338.3505194
0
ARC
8
DEFAULT_255_1_234
10
5.9234937
20
5.8789284
40
1.1146189
50
319.6472867
51
327.095818
0
ARC
8
DEFAULT_255_1_234
10
5.540194
20
6.1951
40
1.6114559
50
317.2586784
51
319.9046139
0
LINE
8
DEFAULT_255_1_234
10
7.3710461
20
5.1761169
11
7.3710461
21
5.2973962
0
LINE
8
DEFAULT_255_1_234
10
7.3710461
20
5.2973962
11
7.4826873
21
5.2973962
0
LINE
8
DEFAULT_255_1_234
10
7.2923351
20
5.5030087
11
7.1437479
21
5.5030087
0
LINE
8
DEFAULT_255_1_234
10
7.1333066
20
4.9488188
11
7.282697
21
4.9488188
0
LINE
8
DEFAULT_255_1_234
10
7.4826873
20
5.1761169
11
7.3710461
21
5.1761169
0
ARC
8
DEFAULT_255_1_234
10
7.4797739
20
5.6366713
40
0.3392876
50
270.4919872
51
281.8951556
0
ARC
8
DEFAULT_255_1_234
10
7.5039001
20
5.5264702
40
0.2264817
50
281.6691735
51
301.2943132
0
ARC
8
DEFAULT_255_1_234
10
7.5209211
20
5.4953304
40
0.1910381
50
301.7833094
51
311.7545298
0
ARC
8
DEFAULT_255_1_234
10
7.5300787
20
5.4851748
40
0.1773635
50
311.7323931
51
354.2802411
0
ARC
8
DEFAULT_255_1_234
10
7.4574412
20
5.4976722
40
0.2509385
50
353.0937916
51
0.1181479
0
ARC
8
DEFAULT_255_1_234
10
7.4113197
20
5.5024386
40
0.2970898
50
359.1805295
51
15.0453146
0
ARC
8
DEFAULT_255_1_234
10
7.5459034
20
5.5416992
40
0.1569564
50
13.9577229
51
77.6713066
0
ARC
8
DEFAULT_255_1_234
10
7.5072563
20
5.4031949
40
0.3006298
50
76.1116566
51
90.7026153
0
ARC
8
DEFAULT_255_1_234
10
7.5013401
20
5.4305545
40
0.2732568
50
89.5324876
51
103.531937
0
ARC
8
DEFAULT_255_1_234
10
7.4812845
20
5.5104884
40
0.1908508
50
103.2931773
51
133.5619022
0
ARC
8
DEFAULT_255_1_234
10
7.4768334
20
5.5164375
40
0.1834746
50
133.8349307
51
173.5344437
0
ARC
8
DEFAULT_255_1_234
10
7.5491377
20
5.5036213
40
0.2568033
50
172.5096846
51
180.1366907
0
ARC
8
DEFAULT_255_1_234
10
7.4540271
20
5.5070622
40
0.3103056
50
155.3484492
51
180.7484736
0
ARC
8
DEFAULT_255_1_234
10
7.449136
20
5.5041846
40
0.3070957
50
131.5744599
51
154.4798489
0
ARC
8
DEFAULT_255_1_234
10
7.4804507
20
5.472531
40
0.3515643
50
96.9875458
51
131.9690667
0
ARC
8
DEFAULT_255_1_234
10
7.5023987
20
5.3479636
40
0.4779224
50
89.8596053
51
97.7825159
0
ARC
8
DEFAULT_255_1_234
10
7.507205
20
5.3217616
40
0.5041361
50
78.3655447
51
90.4131539
0
ARC
8
DEFAULT_255_1_234
10
7.5429968
20
5.4876887
40
0.3344039
50
56.6229102
51
78.638727
0
ARC
8
DEFAULT_255_1_234
10
7.5644912
20
5.5252805
40
0.2912001
50
47.0253525
51
56.0854072
0
ARC
8
DEFAULT_255_1_234
10
7.5664692
20
5.5292223
40
0.2869704
50
10.9208013
51
46.7778124
0
ARC
8
DEFAULT_255_1_234
10
7.4300758
20
5.4976857
40
0.426899
50
359.6364486
51
11.6087304
0
ARC
8
DEFAULT_255_1_234
10
7.6135602
20
5.4961752
40
0.243409
50
332.3549906
51
359.7179418
0
ARC
8
DEFAULT_255_1_234
10
7.5485204
20
5.5270142
40
0.3153459
50
325.2333722
51
332.8745602
0
ARC
8
DEFAULT_255_1_234
10
7.5637827
20
5.5163828
40
0.2967456
50
292.9802137
51
325.2392345
0
ARC
8
DEFAULT_255_1_234
10
7.5363201
20
5.5697863
40
0.3566604
50
292.5402179
51
293.6924929
0
ARC
8
DEFAULT_255_1_234
10
7.5755797
20
4.9243091
40
0.3307468
50
57.6435486
51
72.8625112
0
ARC
8
DEFAULT_255_1_234
10
7.6110297
20
4.9817549
40
0.2632492
50
36.7248896
51
57.4697979
0
ARC
8
DEFAULT_255_1_234
10
7.609893
20
4.983022
40
0.2634081
50
8.0545065
51
36.356114
0
ARC
8
DEFAULT_255_1_234
10
7.5236115
20
4.9675174
40
0.3510261
50
359.8320645
51
8.5869982
0
ARC
8
DEFAULT_255_1_234
10
7.4860891
20
4.9627101
40
0.3885653
50
343.9829931
51
0.5571613
0
ARC
8
DEFAULT_255_1_234
10
7.5747088
20
4.9384438
40
0.2966924
50
311.6359546
51
343.7651759
0
ARC
8
DEFAULT_255_1_234
10
7.5368657
20
4.9811102
40
0.3537231
50
279.7829875
51
311.6255694
0
ARC
8
DEFAULT_255_1_234
10
7.5067434
20
5.124828
40
0.5004971
50
269.7286406
51
280.3856417
0
ARC
8
DEFAULT_255_1_234
10
7.5005506
20
5.1206996
40
0.4963778
50
256.6828919
51
270.4412052
0
ARC
8
DEFAULT_255_1_234
10
7.4666802
20
4.9822394
40
0.3538406
50
229.4223008
51
256.8556159
0
ARC
8
DEFAULT_255_1_234
10
7.4252195
20
4.9355736
40
0.2914296
50
181.818294
51
229.6455059
0
ARC
8
DEFAULT_255_1_234
10
7.5292151
20
4.9486496
40
0.3959084
50
179.9755256
51
183.2323064
0
ARC
8
DEFAULT_255_1_234
10
7.5119897
20
4.9466037
40
0.2293034
50
179.4465117
51
196.2869258
0
ARC
8
DEFAULT_255_1_234
10
7.4632305
20
4.9332651
40
0.1787621
50
196.5661473
51
227.705904
0
ARC
8
DEFAULT_255_1_234
10
7.47964
20
4.9516155
40
0.2033784
50
227.7652068
51
257.8762805
0
ARC
8
DEFAULT_255_1_234
10
7.502137
20
5.0459156
40
0.3003081
50
257.4584385
51
270.426602
0
ARC
8
DEFAULT_255_1_234
10
7.5066936
20
5.0748996
40
0.329292
50
269.5962073
51
280.8789248
0
ARC
8
DEFAULT_255_1_234
10
7.5296465
20
4.9602685
40
0.2123908
50
280.6346389
51
299.8595945
0
ARC
8
DEFAULT_255_1_234
10
7.5487372
20
4.9240212
40
0.171457
50
300.3576302
51
314.5517981
0
ARC
8
DEFAULT_255_1_234
10
7.5404432
20
4.9300919
40
0.1816095
50
315.0728369
51
345.0431014
0
ARC
8
DEFAULT_255_1_234
10
7.4481246
20
4.9569841
40
0.2777492
50
344.5986631
51
357.9269593
0
ARC
8
DEFAULT_255_1_234
10
7.3585572
20
4.9631276
40
0.3674917
50
357.4748886
51
0.0231117
0
ARC
8
DEFAULT_255_1_234
10
7.4608682
20
4.9655679
40
0.2651907
50
359.5047933
51
13.4239635
0
ARC
8
DEFAULT_255_1_234
10
7.5475325
20
4.9877478
40
0.1757509
50
12.9498199
51
48.7551375
0
ARC
8
DEFAULT_255_1_234
10
7.5293059
20
4.96284
40
0.2065134
50
49.5088623
51
72.1836453
0
ARC
8
DEFAULT_255_1_234
10
7.4935212
20
4.8566291
40
0.3185836
50
71.9010081
51
84.3554254
0
ARC
8
DEFAULT_255_1_234
10
7.4773844
20
4.7205326
40
0.4556151
50
84.0193428
51
89.333121
0
LINE
8
DEFAULT_255_1_234
10
8.8448701
20
4.7616792
11
8.8448701
21
4.6404
0
LINE
8
DEFAULT_255_1_234
10
8.8448701
20
4.6404
11
8.0786422
21
4.6404
0
LINE
8
DEFAULT_255_1_234
10
8.0786422
20
4.6404
11
8.0786422
21
4.7472221
0
LINE
8
DEFAULT_255_1_234
10
8.0786422
20
4.7472221
11
8.4834418
21
5.1969995
0
LINE
8
DEFAULT_255_1_234
10
8.2047405
20
5.4652595
11
8.0561534
21
5.4652595
0
LINE
8
DEFAULT_255_1_234
10
8.5709878
20
5.1014218
11
8.25775
21
4.7616792
0
LINE
8
DEFAULT_255_1_234
10
8.25775
20
4.7616792
11
8.8448701
21
4.7616792
0
ARC
8
DEFAULT_255_1_234
10
7.1344252
20
6.3899527
40
1.8008286
50
318.5132453
51
320.7828378
0
ARC
8
DEFAULT_255_1_234
10
7.6631226
20
5.9596426
40
1.1191493
50
320.7372736
51
323.9737074
0
ARC
8
DEFAULT_255_1_234
10
8.0551083
20
5.6756361
40
0.6350923
50
323.8961724
51
328.6421089
0
ARC
8
DEFAULT_255_1_234
10
8.2597678
20
5.5494031
40
0.3946393
50
328.8299013
51
331.789948
0
ARC
8
DEFAULT_255_1_234
10
8.3594857
20
5.4979509
40
0.2824501
50
331.4255242
51
352.9364833
0
ARC
8
DEFAULT_255_1_234
10
8.3731357
20
5.4948976
40
0.2685315
50
353.2248685
51
0.0169286
0
ARC
8
DEFAULT_255_1_234
10
8.3941234
20
5.497195
40
0.2475536
50
359.4866256
51
15.9339782
0
ARC
8
DEFAULT_255_1_234
10
8.4448219
20
5.5108286
40
0.1950618
50
16.1714718
51
43.5284424
0
ARC
8
DEFAULT_255_1_234
10
8.4525528
20
5.5185573
40
0.184134
50
43.4415429
51
83.1661404
0
ARC
8
DEFAULT_255_1_234
10
8.4391446
20
5.4448771
40
0.258926
50
82.160215
51
90.1505798
0
ARC
8
DEFAULT_255_1_234
10
8.4359873
20
5.3911865
40
0.3126255
50
89.5460705
51
102.5418777
0
ARC
8
DEFAULT_255_1_234
10
8.411696
20
5.4942665
40
0.2067346
50
102.1739365
51
129.2061916
0
ARC
8
DEFAULT_255_1_234
10
8.4038031
20
5.5067094
40
0.1921118
50
129.7279328
51
135.7542026
0
ARC
8
DEFAULT_255_1_234
10
8.4159559
20
5.4970045
40
0.2075944
50
136.175737
51
166.3674722
0
ARC
8
DEFAULT_255_1_234
10
8.5166478
20
5.4700182
40
0.3118201
50
165.9092917
51
178.8683903
0
ARC
8
DEFAULT_255_1_234
10
8.6031339
20
5.4653179
40
0.3983935
50
178.438168
51
180.0083905
0
ARC
8
DEFAULT_255_1_234
10
8.4629942
20
5.4692231
40
0.4068601
50
163.2878735
51
180.5581814
0
ARC
8
DEFAULT_255_1_234
10
8.3828203
20
5.491284
40
0.3237344
50
133.454115
51
162.9470031
0
ARC
8
DEFAULT_255_1_234
10
8.4006744
20
5.4723
40
0.349795
50
100.7869394
51
133.4384016
0
ARC
8
DEFAULT_255_1_234
10
8.4354516
20
5.3174319
40
0.5084616
50
89.6605301
51
101.3704185
0
ARC
8
DEFAULT_255_1_234
10
8.4420855
20
5.3235496
40
0.502348
50
78.2171172
51
90.4130393
0
ARC
8
DEFAULT_255_1_234
10
8.4775933
20
5.4859637
40
0.3361092
50
55.9268222
51
78.4888551
0
ARC
8
DEFAULT_255_1_234
10
8.4972373
20
5.5198324
40
0.2970617
50
47.9292255
51
55.4054003
0
ARC
8
DEFAULT_255_1_234
10
8.5073934
20
5.5301502
40
0.2825983
50
4.3347696
51
48.0560701
0
ARC
8
DEFAULT_255_1_234
10
8.3978327
20
5.5131601
40
0.393225
50
359.925209
51
5.5967654
0
ARC
8
DEFAULT_255_1_234
10
8.4407219
20
5.5187816
40
0.3503892
50
337.8914096
51
358.9967724
0
ARC
8
DEFAULT_255_1_234
10
8.1693631
20
5.6234706
40
0.6412172
50
326.9135351
51
338.3505194
0
ARC
8
DEFAULT_255_1_234
10
7.7707935
20
5.8789284
40
1.1146189
50
319.6472867
51
327.095818
0
ARC
8
DEFAULT_255_1_234
10
7.3874938
20
6.1951
40
1.6114559
50
317.2586784
51
319.9046139
0
LINE
8
DEFAULT_255_1_234
10
4.890977
20
13.7473211
11
5.0459896
21
13.7473211
0
LINE
8
DEFAULT_255_1_234
10
5.0459896
20
13.7473211
11
5.0459896
21
12.952179
0
LINE
8
DEFAULT_255_1_234
10
4.6620725
20
12.5634429
11
4.6211106
21
12.5618365
0
LINE
8
DEFAULT_255_1_234
10
4.1994443
20
12.9505727
11
4.1994443
21
13.7473211
0
LINE
8
DEFAULT_255_1_234
10
4.1994443
20
13.7473211
11
4.3520474
21
13.7473211
0
LINE
8
DEFAULT_255_1_234
10
4.3520474
20
13.7473211
11
4.3520474
21
12.9553917
0
LINE
8
DEFAULT_255_1_234
10
4.890977
20
12.9545885
11
4.890977
21
13.7473211
0
ARC
8
DEFAULT_255_1_234
10
4.6106794
20
12.9501928
40
0.4353147
50
343.0898354
51
0.2614217
0
ARC
8
DEFAULT_255_1_234
10
4.6935195
20
12.9270837
40
0.3493402
50
315.3345598
51
342.7641223
0
ARC
8
DEFAULT_255_1_234
10
4.6711644
20
12.9502682
40
0.3815385
50
284.6606969
51
315.2182466
0
ARC
8
DEFAULT_255_1_234
10
4.6256357
20
13.1048755
40
0.5426573
50
273.8500273
51
285.1797701
0
ARC
8
DEFAULT_255_1_234
10
4.6168408
20
13.1390475
40
0.5772268
50
257.6317484
51
270.4238298
0
ARC
8
DEFAULT_255_1_234
10
4.5743606
20
12.9569198
40
0.3902347
50
230.6087562
51
257.9964012
0
ARC
8
DEFAULT_255_1_234
10
4.5611608
20
12.9362802
40
0.3659186
50
227.7440991
51
230.1551448
0
ARC
8
DEFAULT_255_1_234
10
4.5477439
20
12.9201471
40
0.3449568
50
189.2524587
51
227.5916061
0
ARC
8
DEFAULT_255_1_234
10
4.6999126
20
12.9529013
40
0.5004737
50
180.2665968
51
190.1525252
0
ARC
8
DEFAULT_255_1_234
10
4.7221146
20
12.9525918
40
0.3700778
50
179.5665184
51
191.9952995
0
ARC
8
DEFAULT_255_1_234
10
4.5993252
20
12.9252043
40
0.2442808
50
191.6974072
51
215.1404042
0
ARC
8
DEFAULT_255_1_234
10
4.5755167
20
12.9110108
40
0.2166522
50
215.6950207
51
224.8513522
0
ARC
8
DEFAULT_255_1_234
10
4.581091
20
12.9189697
40
0.2262237
50
225.2846858
51
255.0111758
0
ARC
8
DEFAULT_255_1_234
10
4.613487
20
13.0303455
40
0.3421979
50
254.5944985
51
267.9129803
0
ARC
8
DEFAULT_255_1_234
10
4.6209351
20
13.1387903
40
0.4508556
50
267.4689655
51
270.0223026
0
ARC
8
DEFAULT_255_1_234
10
4.6239496
20
13.0798849
40
0.3919604
50
269.5849941
51
281.1843768
0
ARC
8
DEFAULT_255_1_234
10
4.6518261
20
12.9446059
40
0.2538457
50
280.9344262
51
300.9743589
0
ARC
8
DEFAULT_255_1_234
10
4.6730866
20
12.9054688
40
0.2093566
50
301.4980046
51
315.1466847
0
ARC
8
DEFAULT_255_1_234
10
4.6586405
20
12.9173236
40
0.2279656
50
315.5952539
51
345.6678731
0
ARC
8
DEFAULT_255_1_234
10
4.5466921
20
12.9485009
40
0.3441564
50
345.2524969
51
358.6304371
0
ARC
8
DEFAULT_255_1_234
10
4.4449275
20
12.9544916
40
0.4460494
50
358.1735671
51
0.0124524
0
LINE
8
DEFAULT_255_1_234
10
6.0652171
20
13.4091849
11
5.9102046
21
13.4091849
0
LINE
8
DEFAULT_255_1_234
10
5.2178688
20
12.9168394
11
5.3728813
21
12.9168394
0
ARC
8
DEFAULT_255_1_234
10
5.9760859
20
14.3038768
40
1.252368
50
248.9199003
51
254.1439814
0
ARC
8
DEFAULT_255_1_234
10
5.8080354
20
13.8712234
40
0.788226
50
241.633709
51
249.0064503
0
ARC
8
DEFAULT_255_1_234
10
5.6551748
20
13.5911317
40
0.4691427
50
230.498225
51
241.8087113
0
ARC
8
DEFAULT_255_1_234
10
5.5767322
20
13.4911906
40
0.3421437
50
227.4064532
51
229.9881192
0
ARC
8
DEFAULT_255_1_234
10
5.5279843
20
13.4436088
40
0.2741476
50
200.6781896
51
228.1763934
0
ARC
8
DEFAULT_255_1_234
10
5.5352154
20
13.4421077
40
0.2804109
50
179.5061581
51
199.8694617
0
ARC
8
DEFAULT_255_1_234
10
5.5342905
20
13.449521
40
0.2795204
50
132.4834203
51
181.0242172
0
ARC
8
DEFAULT_255_1_234
10
5.5938488
20
13.3932704
40
0.3612768
50
129.2532479
51
133.4242687
0
ARC
8
DEFAULT_255_1_234
10
5.6084937
20
13.3712965
40
0.3875675
50
101.98776
51
128.8742646
0
ARC
8
DEFAULT_255_1_234
10
5.6483548
20
13.1991741
40
0.5642249
50
89.5906553
51
102.3169264
0
ARC
8
DEFAULT_255_1_234
10
5.655404
20
13.2310148
40
0.5323783
50
77.2360837
51
90.3248275
0
ARC
8
DEFAULT_255_1_234
10
5.6761119
20
13.32774
40
0.4334697
50
63.837784
51
77.0809408
0
ARC
8
DEFAULT_255_1_234
10
5.7038881
20
13.3794911
40
0.3747796
50
45.9864267
51
64.1607727
0
ARC
8
DEFAULT_255_1_234
10
5.7299762
20
13.4092866
40
0.3352302
50
32.2747395
51
45.6547121
0
ARC
8
DEFAULT_255_1_234
10
5.7366203
20
13.411188
40
0.328603
50
359.6507365
51
32.6130309
0
ARC
8
DEFAULT_255_1_234
10
5.6423298
20
13.411666
40
0.2678863
50
359.469343
51
14.9832209
0
ARC
8
DEFAULT_255_1_234
10
5.7128361
20
13.4305539
40
0.1948938
50
14.9781179
51
48.2004265
0
ARC
8
DEFAULT_255_1_234
10
5.6964005
20
13.4098983
40
0.2212521
50
48.5927837
51
74.1241538
0
ARC
8
DEFAULT_255_1_234
10
5.6630494
20
13.2998248
40
0.3362561
50
73.7888341
51
86.6652678
0
ARC
8
DEFAULT_255_1_234
10
5.652806
20
13.1790881
40
0.4573953
50
86.2640471
51
90.0526343
0
ARC
8
DEFAULT_255_1_234
10
5.6499772
20
13.2186192
40
0.4178709
50
89.6697524
51
99.2309573
0
ARC
8
DEFAULT_255_1_234
10
5.6257223
20
13.3630964
40
0.2713749
50
99.069534
51
113.7658566
0
ARC
8
DEFAULT_255_1_234
10
5.5983414
20
13.4276677
40
0.2012469
50
114.0401004
51
127.9850673
0
ARC
8
DEFAULT_255_1_234
10
5.5742978
20
13.457273
40
0.1631167
50
127.7287463
51
176.7105154
0
ARC
8
DEFAULT_255_1_234
10
5.6421696
20
13.4471693
40
0.2315392
50
175.1779447
51
180.0581938
0
ARC
8
DEFAULT_255_1_234
10
5.5578542
20
13.4459428
40
0.1472271
50
179.6142195
51
228.1246017
0
ARC
8
DEFAULT_255_1_234
10
5.6020211
20
13.4868308
40
0.2072299
50
226.5779593
51
230.8800004
0
ARC
8
DEFAULT_255_1_234
10
5.649129
20
13.5493636
40
0.2854818
50
231.4635071
51
241.9260842
0
ARC
8
DEFAULT_255_1_234
10
5.7688468
20
13.76968
40
0.53622
50
241.7178533
51
248.3259551
0
ARC
8
DEFAULT_255_1_234
10
5.907384
20
14.1129064
40
0.9063478
50
248.2007737
51
252.4528373
0
ARC
8
DEFAULT_255_1_234
10
6.0277565
20
14.4850441
40
1.2974635
50
252.3391078
51
254.3469452
0
ARC
8
DEFAULT_255_1_234
10
5.2735267
20
11.7873148
40
1.5037162
50
71.0197183
51
74.4087047
0
ARC
8
DEFAULT_255_1_234
10
5.4429952
20
12.2765111
40
0.9859993
50
66.1847285
51
71.086374
0
ARC
8
DEFAULT_255_1_234
10
5.5986265
20
12.62692
40
0.6025855
50
59.3536294
51
66.2691831
0
ARC
8
DEFAULT_255_1_234
10
5.6874917
20
12.7772609
40
0.4279449
50
49.1020879
51
59.3293958
0
ARC
8
DEFAULT_255_1_234
10
5.7693657
20
12.8705834
40
0.3038015
50
32.7919921
51
49.2505539
0
ARC
8
DEFAULT_255_1_234
10
5.8014747
20
12.8934191
40
0.264448
50
31.1181161
51
32.4005348
0
ARC
8
DEFAULT_255_1_234
10
5.7926285
20
12.8898779
40
0.2738556
50
8.1116974
51
30.7958831
0
ARC
8
DEFAULT_255_1_234
10
5.7115953
20
12.8760753
40
0.3560327
50
359.8389159
51
8.4706516
0
ARC
8
DEFAULT_255_1_234
10
5.7741744
20
12.8712137
40
0.2934776
50
337.4731098
51
0.7537279
0
ARC
8
DEFAULT_255_1_234
10
5.7920439
20
12.8692387
40
0.2762607
50
307.5917067
51
336.4315538
0
ARC
8
DEFAULT_255_1_234
10
5.7460267
20
12.9205102
40
0.3449979
50
307.6551545
51
308.4529766
0
ARC
8
DEFAULT_255_1_234
10
5.7229986
20
12.956025
40
0.3871988
50
284.3734338
51
307.1424381
0
ARC
8
DEFAULT_255_1_234
10
5.6734816
20
13.1381932
40
0.5759636
50
272.4382747
51
284.646547
0
ARC
8
DEFAULT_255_1_234
10
5.6608025
20
13.3181893
40
0.7563528
50
269.9708387
51
272.8178037
0
ARC
8
DEFAULT_255_1_234
10
5.6565064
20
13.1143716
40
0.5525489
50
248.2707594
51
270.4055579
0
ARC
8
DEFAULT_255_1_234
10
5.6510806
20
13.0953192
40
0.5328452
50
246.1383403
51
248.0542782
0
ARC
8
DEFAULT_255_1_234
10
5.6092185
20
13.0073843
40
0.4355005
50
233.1670131
51
246.4950969
0
ARC
8
DEFAULT_255_1_234
10
5.5538089
20
12.9325812
40
0.3424126
50
215.3403242
51
233.0843104
0
ARC
8
DEFAULT_255_1_234
10
5.5265521
20
12.9127549
40
0.3087104
50
179.2419209
51
215.2648451
0
ARC
8
DEFAULT_255_1_234
10
5.6033115
20
12.9141666
40
0.2304457
50
179.335461
51
199.1045811
0
ARC
8
DEFAULT_255_1_234
10
5.5700791
20
12.9054766
40
0.1962176
50
199.8828939
51
232.7063202
0
ARC
8
DEFAULT_255_1_234
10
5.6173059
20
12.9648788
40
0.2720938
50
232.3738199
51
255.5136649
0
ARC
8
DEFAULT_255_1_234
10
5.6513926
20
13.0892835
40
0.4010747
50
255.2446292
51
267.5320849
0
ARC
8
DEFAULT_255_1_234
10
5.6601549
20
13.2125702
40
0.5246356
50
267.1557994
51
270.0286766
0
ARC
8
DEFAULT_255_1_234
10
5.6629322
20
13.168195
40
0.4802668
50
269.7000017
51
278.1660162
0
ARC
8
DEFAULT_255_1_234
10
5.6885327
20
12.9951515
40
0.3053425
50
278.0231263
51
290.625471
0
ARC
8
DEFAULT_255_1_234
10
5.7233014
20
12.9024025
40
0.206291
50
290.6619762
51
307.0370976
0
ARC
8
DEFAULT_255_1_234
10
5.7533403
20
12.8655504
40
0.1587906
50
306.3943566
51
355.3030547
0
ARC
8
DEFAULT_255_1_234
10
5.7021334
20
12.8732113
40
0.2104809
50
354.3660432
51
0.0698737
0
ARC
8
DEFAULT_255_1_234
10
5.716368
20
12.8754617
40
0.1962563
50
359.417946
51
16.1971788
0
ARC
8
DEFAULT_255_1_234
10
5.761899
20
12.8879418
40
0.149053
50
16.4723299
51
52.6262157
0
ARC
8
DEFAULT_255_1_234
10
5.6798044
20
12.7795433
40
0.2850296
50
52.7386432
51
62.4979148
0
ARC
8
DEFAULT_255_1_234
10
5.5413121
20
12.5189283
40
0.5801521
50
62.2515216
51
68.1220564
0
ARC
8
DEFAULT_255_1_234
10
5.3693031
20
12.0961872
40
1.0365451
50
68.0062803
51
71.8053402
0
ARC
8
DEFAULT_255_1_234
10
5.1897403
20
11.5576758
40
1.6042013
50
71.7183119
51
73.9258742
0
LINE
8
DEFAULT_255_1_234
10
6.6708102
20
12.5779
11
6.2652074
21
12.5779
0
LINE
8
DEFAULT_255_1_234
10
6.2652074
20
12.5779
11
6.2652074
21
13.7473211
0
LINE
8
DEFAULT_255_1_234
10
6.2652074
20
13.7473211
11
6.6475182
21
13.7473211
0
LINE
8
DEFAULT_255_1_234
10
6.6764324
20
13.1248614
11
6.4194168
21
13.1248614
0
LINE
8
DEFAULT_255_1_234
10
6.4194168
20
13.1248614
11
6.4194168
21
12.7039983
0
LINE
8
DEFAULT_255_1_234
10
6.4194168
20
12.7039983
11
6.6740229
21
12.7039983
0
LINE
8
DEFAULT_255_1_234
10
6.4194168
20
13.6204196
11
6.4194168
21
13.2485501
0
LINE
8
DEFAULT_255_1_234
10
6.4194168
20
13.2485501
11
6.6523372
21
13.2485501
0
LINE
8
DEFAULT_255_1_234
10
6.6475182
20
13.6204196
11
6.4194168
21
13.6204196
0
ARC
8
DEFAULT_255_1_234
10
6.651289
20
13.0105901
40
0.7367406
50
82.1257326
51
90.2932599
0
ARC
8
DEFAULT_255_1_234
10
6.6901845
20
13.2824013
40
0.4621653
50
69.9044149
51
82.2857423
0
ARC
8
DEFAULT_255_1_234
10
6.7472523
20
13.4366637
40
0.2976871
50
51.1838526
51
70.0181538
0
ARC
8
DEFAULT_255_1_234
10
6.7727489
20
13.473724
40
0.2528517
50
12.1017251
51
50.4214761
0
ARC
8
DEFAULT_255_1_234
10
6.6343363
20
13.4389676
40
0.3955061
50
359.5251267
51
12.8211707
0
ARC
8
DEFAULT_255_1_234
10
6.792329
20
13.4320344
40
0.2375281
50
323.4908128
51
0.8817314
0
ARC
8
DEFAULT_255_1_234
10
6.7504976
20
13.464355
40
0.2903817
50
298.6825083
51
323.2756573
0
ARC
8
DEFAULT_255_1_234
10
6.7143339
20
13.5244649
40
0.3604842
50
293.1999386
51
299.1396394
0
ARC
8
DEFAULT_255_1_234
10
6.7816312
20
12.9159126
40
0.2871098
50
54.0011765
51
74.9167975
0
ARC
8
DEFAULT_255_1_234
10
6.7932671
20
12.9356332
40
0.2643248
50
36.3580696
51
53.5291921
0
ARC
8
DEFAULT_255_1_234
10
6.7805914
20
12.9265998
40
0.2798884
50
4.8189881
51
36.3089977
0
ARC
8
DEFAULT_255_1_234
10
6.7026749
20
12.915627
40
0.358478
50
359.9370252
51
5.5204067
0
ARC
8
DEFAULT_255_1_234
10
6.670227
20
12.9115667
40
0.3909429
50
344.7478609
51
0.5373281
0
ARC
8
DEFAULT_255_1_234
10
6.7693242
20
12.8848544
40
0.2883093
50
311.1786488
51
344.6886812
0
ARC
8
DEFAULT_255_1_234
10
6.7401289
20
12.9211987
40
0.3348923
50
286.0418249
51
310.8441291
0
ARC
8
DEFAULT_255_1_234
10
6.6894121
20
13.0858807
40
0.5071869
50
274.1042341
51
286.4071509
0
ARC
8
DEFAULT_255_1_234
10
6.6717376
20
13.2742229
40
0.6963234
50
269.9236873
51
274.445647
0
ARC
8
DEFAULT_255_1_234
10
6.6763377
20
13.0402537
40
0.3362634
50
269.6055768
51
281.3740047
0
ARC
8
DEFAULT_255_1_234
10
6.6994015
20
12.9309353
40
0.224546
50
281.1055983
51
302.5132223
0
ARC
8
DEFAULT_255_1_234
10
6.7140915
20
12.9045823
40
0.1944357
50
303.0368945
51
311.8811219
0
ARC
8
DEFAULT_255_1_234
10
6.7212321
20
12.896089
40
0.1833454
50
311.9916004
51
351.7143462
0
ARC
8
DEFAULT_255_1_234
10
6.6395551
20
12.912593
40
0.2665871
50
350.7339597
51
0.2221581
0
ARC
8
DEFAULT_255_1_234
10
6.6287997
20
12.9182467
40
0.2773789
50
359.0456241
51
17.2296242
0
ARC
8
DEFAULT_255_1_234
10
6.7327114
20
12.9491163
40
0.1689915
50
17.6685481
51
78.9940892
0
ARC
8
DEFAULT_255_1_234
10
6.6810278
20
12.7636224
40
0.3612658
50
76.5635957
51
90.6980921
0
LINE
8
DEFAULT_255_1_234
10
6.6766263
20
13.1248613
11
6.6764324
21
13.1248614
0
ARC
8
DEFAULT_255_1_234
10
6.6545939
20
13.5771036
40
0.3285612
50
269.6064736
51
281.4533503
0
ARC
8
DEFAULT_255_1_234
10
6.6768758
20
13.4719688
40
0.2210975
50
281.2041486
51
302.5148063
0
ARC
8
DEFAULT_255_1_234
10
6.6905608
20
13.4473241
40
0.1929674
50
303.021671
51
309.8369575
0
ARC
8
DEFAULT_255_1_234
10
6.708907
20
13.4267488
40
0.1654181
50
309.5228395
51
356.9509836
0
ARC
8
DEFAULT_255_1_234
10
6.6425652
20
13.4362932
40
0.2322512
50
355.4701227
51
0.0492546
0
ARC
8
DEFAULT_255_1_234
10
6.6146743
20
13.4385094
40
0.2601498
50
359.5558597
51
11.2096359
0
ARC
8
DEFAULT_255_1_234
10
6.7104033
20
13.458323
40
0.1623975
50
10.9182341
51
31.3230275
0
ARC
8
DEFAULT_255_1_234
10
6.7389767
20
13.4742214
40
0.1297302
50
31.8852677
51
52.1412565
0
ARC
8
DEFAULT_255_1_234
10
6.7115499
20
13.435475
40
0.1771663
50
52.8285564
51
71.9850297
0
ARC
8
DEFAULT_255_1_234
10
6.6739676
20
13.3248664
40
0.2939794
50
71.6863486
51
82.8455995
0
ARC
8
DEFAULT_255_1_234
10
6.6500212
20
13.1439149
40
0.476506
50
82.6984714
51
90.1729175
0
ARC
8
DEFAULT_255_1_234
10
6.6477847
20
13.2662623
40
0.3541573
50
89.8708275
51
90.0431131
0
LINE
8
DEFAULT_255_1_234
10
4.890977
20
21.6848211
11
5.0459896
21
21.6848211
0
LINE
8
DEFAULT_255_1_234
10
5.0459896
20
21.6848211
11
5.0459896
21
20.889679
0
LINE
8
DEFAULT_255_1_234
10
4.6620725
20
20.5009429
11
4.6211106
21
20.4993365
0
LINE
8
DEFAULT_255_1_234
10
4.1994443
20
20.8880727
11
4.1994443
21
21.6848211
0
LINE
8
DEFAULT_255_1_234
10
4.1994443
20
21.6848211
11
4.3520474
21
21.6848211
0
LINE
8
DEFAULT_255_1_234
10
4.3520474
20
21.6848211
11
4.3520474
21
20.8928917
0
LINE
8
DEFAULT_255_1_234
10
4.890977
20
20.8920885
11
4.890977
21
21.6848211
0
ARC
8
DEFAULT_255_1_234
10
4.6106794
20
20.8876928
40
0.4353147
50
343.0898354
51
0.2614217
0
ARC
8
DEFAULT_255_1_234
10
4.6935195
20
20.8645837
40
0.3493402
50
315.3345598
51
342.7641223
0
ARC
8
DEFAULT_255_1_234
10
4.6711644
20
20.8877682
40
0.3815385
50
284.6606969
51
315.2182466
0
ARC
8
DEFAULT_255_1_234
10
4.6256357
20
21.0423755
40
0.5426573
50
273.8500273
51
285.1797701
0
ARC
8
DEFAULT_255_1_234
10
4.6168408
20
21.0765475
40
0.5772268
50
257.6317484
51
270.4238298
0
ARC
8
DEFAULT_255_1_234
10
4.5743606
20
20.8944198
40
0.3902347
50
230.6087562
51
257.9964012
0
ARC
8
DEFAULT_255_1_234
10
4.5611608
20
20.8737802
40
0.3659186
50
227.7440991
51
230.1551448
0
ARC
8
DEFAULT_255_1_234
10
4.5477439
20
20.8576471
40
0.3449568
50
189.2524587
51
227.5916061
0
ARC
8
DEFAULT_255_1_234
10
4.6999126
20
20.8904013
40
0.5004737
50
180.2665968
51
190.1525252
0
ARC
8
DEFAULT_255_1_234
10
4.7221146
20
20.8900918
40
0.3700778
50
179.5665184
51
191.9952995
0
ARC
8
DEFAULT_255_1_234
10
4.5993252
20
20.8627043
40
0.2442808
50
191.6974072
51
215.1404042
0
ARC
8
DEFAULT_255_1_234
10
4.5755167
20
20.8485108
40
0.2166522
50
215.6950207
51
224.8513522
0
ARC
8
DEFAULT_255_1_234
10
4.581091
20
20.8564697
40
0.2262237
50
225.2846858
51
255.0111758
0
ARC
8
DEFAULT_255_1_234
10
4.613487
20
20.9678455
40
0.3421979
50
254.5944985
51
267.9129803
0
ARC
8
DEFAULT_255_1_234
10
4.6209351
20
21.0762903
40
0.4508556
50
267.4689655
51
270.0223026
0
ARC
8
DEFAULT_255_1_234
10
4.6239496
20
21.0173849
40
0.3919604
50
269.5849941
51
281.1843768
0
ARC
8
DEFAULT_255_1_234
10
4.6518261
20
20.8821059
40
0.2538457
50
280.9344262
51
300.9743589
0
ARC
8
DEFAULT_255_1_234
10
4.6730866
20
20.8429688
40
0.2093566
50
301.4980046
51
315.1466847
0
ARC
8
DEFAULT_255_1_234
10
4.6586405
20
20.8548236
40
0.2279656
50
315.5952539
51
345.6678731
0
ARC
8
DEFAULT_255_1_234
10
4.5466921
20
20.8860009
40
0.3441564
50
345.2524969
51
358.6304371
0
ARC
8
DEFAULT_255_1_234
10
4.4449275
20
20.8919916
40
0.4460494
50
358.1735671
51
0.0124524
0
LINE
8
DEFAULT_255_1_234
10
6.0652171
20
21.3466849
11
5.9102046
21
21.3466849
0
LINE
8
DEFAULT_255_1_234
10
5.2178688
20
20.8543394
11
5.3728813
21
20.8543394
0
ARC
8
DEFAULT_255_1_234
10
5.9760859
20
22.2413768
40
1.252368
50
248.9199003
51
254.1439814
0
ARC
8
DEFAULT_255_1_234
10
5.8080354
20
21.8087234
40
0.788226
50
241.633709
51
249.0064503
0
ARC
8
DEFAULT_255_1_234
10
5.6551748
20
21.5286317
40
0.4691427
50
230.498225
51
241.8087113
0
ARC
8
DEFAULT_255_1_234
10
5.5767322
20
21.4286906
40
0.3421437
50
227.4064532
51
229.9881192
0
ARC
8
DEFAULT_255_1_234
10
5.5279843
20
21.3811088
40
0.2741476
50
200.6781896
51
228.1763934
0
ARC
8
DEFAULT_255_1_234
10
5.5352154
20
21.3796077
40
0.2804109
50
179.5061581
51
199.8694617
0
ARC
8
DEFAULT_255_1_234
10
5.5342905
20
21.387021
40
0.2795204
50
132.4834203
51
181.0242172
0
ARC
8
DEFAULT_255_1_234
10
5.5938488
20
21.3307704
40
0.3612768
50
129.2532479
51
133.4242687
0
ARC
8
DEFAULT_255_1_234
10
5.6084937
20
21.3087965
40
0.3875675
50
101.98776
51
128.8742646
0
ARC
8
DEFAULT_255_1_234
10
5.6483548
20
21.1366741
40
0.5642249
50
89.5906553
51
102.3169264
0
ARC
8
DEFAULT_255_1_234
10
5.655404
20
21.1685148
40
0.5323783
50
77.2360837
51
90.3248275
0
ARC
8
DEFAULT_255_1_234
10
5.6761119
20
21.26524
40
0.4334697
50
63.837784
51
77.0809408
0
ARC
8
DEFAULT_255_1_234
10
5.7038881
20
21.3169911
40
0.3747796
50
45.9864267
51
64.1607727
0
ARC
8
DEFAULT_255_1_234
10
5.7299762
20
21.3467866
40
0.3352302
50
32.2747395
51
45.6547121
0
ARC
8
DEFAULT_255_1_234
10
5.7366203
20
21.348688
40
0.328603
50
359.6507365
51
32.6130309
0
ARC
8
DEFAULT_255_1_234
10
5.6423298
20
21.349166
40
0.2678863
50
359.469343
51
14.9832209
0
ARC
8
DEFAULT_255_1_234
10
5.7128361
20
21.3680539
40
0.1948938
50
14.9781179
51
48.2004265
0
ARC
8
DEFAULT_255_1_234
10
5.6964005
20
21.3473983
40
0.2212521
50
48.5927837
51
74.1241538
0
ARC
8
DEFAULT_255_1_234
10
5.6630494
20
21.2373248
40
0.3362561
50
73.7888341
51
86.6652678
0
ARC
8
DEFAULT_255_1_234
10
5.652806
20
21.1165881
40
0.4573953
50
86.2640471
51
90.0526343
0
ARC
8
DEFAULT_255_1_234
10
5.6499772
20
21.1561192
40
0.4178709
50
89.6697524
51
99.2309573
0
ARC
8
DEFAULT_255_1_234
10
5.6257223
20
21.3005964
40
0.2713749
50
99.069534
51
113.7658566
0
ARC
8
DEFAULT_255_1_234
10
5.5983414
20
21.3651677
40
0.2012469
50
114.0401004
51
127.9850673
0
ARC
8
DEFAULT_255_1_234
10
5.5742978
20
21.394773
40
0.1631167
50
127.7287463
51
176.7105154
0
ARC
8
DEFAULT_255_1_234
10
5.6421696
20
21.3846693
40
0.2315392
50
175.1779447
51
180.0581938
0
ARC
8
DEFAULT_255_1_234
10
5.5578542
20
21.3834428
40
0.1472271
50
179.6142195
51
228.1246017
0
ARC
8
DEFAULT_255_1_234
10
5.6020211
20
21.4243308
40
0.2072299
50
226.5779593
51
230.8800004
0
ARC
8
DEFAULT_255_1_234
10
5.649129
20
21.4868636
40
0.2854818
50
231.4635071
51
241.9260842
0
ARC
8
DEFAULT_255_1_234
10
5.7688468
20
21.70718
40
0.53622
50
241.7178533
51
248.3259551
0
ARC
8
DEFAULT_255_1_234
10
5.907384
20
22.0504064
40
0.9063478
50
248.2007737
51
252.4528373
0
ARC
8
DEFAULT_255_1_234
10
6.0277565
20
22.4225441
40
1.2974635
50
252.3391078
51
254.3469452
0
ARC
8
DEFAULT_255_1_234
10
5.2735267
20
19.7248148
40
1.5037162
50
71.0197183
51
74.4087047
0
ARC
8
DEFAULT_255_1_234
10
5.4429952
20
20.2140111
40
0.9859993
50
66.1847285
51
71.086374
0
ARC
8
DEFAULT_255_1_234
10
5.5986265
20
20.56442
40
0.6025855
50
59.3536294
51
66.2691831
0
ARC
8
DEFAULT_255_1_234
10
5.6874917
20
20.7147609
40
0.4279449
50
49.1020879
51
59.3293958
0
ARC
8
DEFAULT_255_1_234
10
5.7693657
20
20.8080834
40
0.3038015
50
32.7919921
51
49.2505539
0
ARC
8
DEFAULT_255_1_234
10
5.8014747
20
20.8309191
40
0.264448
50
31.1181161
51
32.4005348
0
ARC
8
DEFAULT_255_1_234
10
5.7926285
20
20.8273779
40
0.2738556
50
8.1116974
51
30.7958831
0
ARC
8
DEFAULT_255_1_234
10
5.7115953
20
20.8135753
40
0.3560327
50
359.8389159
51
8.4706516
0
ARC
8
DEFAULT_255_1_234
10
5.7741744
20
20.8087137
40
0.2934776
50
337.4731098
51
0.7537279
0
ARC
8
DEFAULT_255_1_234
10
5.7920439
20
20.8067387
40
0.2762607
50
307.5917067
51
336.4315538
0
ARC
8
DEFAULT_255_1_234
10
5.7460267
20
20.8580102
40
0.3449979
50
307.6551545
51
308.4529766
0
ARC
8
DEFAULT_255_1_234
10
5.7229986
20
20.893525
40
0.3871988
50
284.3734338
51
307.1424381
0
ARC
8
DEFAULT_255_1_234
10
5.6734816
20
21.0756932
40
0.5759636
50
272.4382747
51
284.646547
0
ARC
8
DEFAULT_255_1_234
10
5.6608025
20
21.2556893
40
0.7563528
50
269.9708387
51
272.8178037
0
ARC
8
DEFAULT_255_1_234
10
5.6565064
20
21.0518716
40
0.5525489
50
248.2707594
51
270.4055579
0
ARC
8
DEFAULT_255_1_234
10
5.6510806
20
21.0328192
40
0.5328452
50
246.1383403
51
248.0542782
0
ARC
8
DEFAULT_255_1_234
10
5.6092185
20
20.9448843
40
0.4355005
50
233.1670131
51
246.4950969
0
ARC
8
DEFAULT_255_1_234
10
5.5538089
20
20.8700812
40
0.3424126
50
215.3403242
51
233.0843104
0
ARC
8
DEFAULT_255_1_234
10
5.5265521
20
20.8502549
40
0.3087104
50
179.2419209
51
215.2648451
0
ARC
8
DEFAULT_255_1_234
10
5.6033115
20
20.8516666
40
0.2304457
50
179.335461
51
199.1045811
0
ARC
8
DEFAULT_255_1_234
10
5.5700791
20
20.8429766
40
0.1962176
50
199.8828939
51
232.7063202
0
ARC
8
DEFAULT_255_1_234
10
5.6173059
20
20.9023788
40
0.2720938
50
232.3738199
51
255.5136649
0
ARC
8
DEFAULT_255_1_234
10
5.6513926
20
21.0267835
40
0.4010747
50
255.2446292
51
267.5320849
0
ARC
8
DEFAULT_255_1_234
10
5.6601549
20
21.1500702
40
0.5246356
50
267.1557994
51
270.0286766
0
ARC
8
DEFAULT_255_1_234
10
5.6629322
20
21.105695
40
0.4802668
50
269.7000017
51
278.1660162
0
ARC
8
DEFAULT_255_1_234
10
5.6885327
20
20.9326515
40
0.3053425
50
278.0231263
51
290.625471
0
ARC
8
DEFAULT_255_1_234
10
5.7233014
20
20.8399025
40
0.206291
50
290.6619762
51
307.0370976
0
ARC
8
DEFAULT_255_1_234
10
5.7533403
20
20.8030504
40
0.1587906
50
306.3943566
51
355.3030547
0
ARC
8
DEFAULT_255_1_234
10
5.7021334
20
20.8107113
40
0.2104809
50
354.3660432
51
0.0698737
0
ARC
8
DEFAULT_255_1_234
10
5.716368
20
20.8129617
40
0.1962563
50
359.417946
51
16.1971788
0
ARC
8
DEFAULT_255_1_234
10
5.761899
20
20.8254418
40
0.149053
50
16.4723299
51
52.6262157
0
ARC
8
DEFAULT_255_1_234
10
5.6798044
20
20.7170433
40
0.2850296
50
52.7386432
51
62.4979148
0
ARC
8
DEFAULT_255_1_234
10
5.5413121
20
20.4564283
40
0.5801521
50
62.2515216
51
68.1220564
0
ARC
8
DEFAULT_255_1_234
10
5.3693031
20
20.0336872
40
1.0365451
50
68.0062803
51
71.8053402
0
ARC
8
DEFAULT_255_1_234
10
5.1897403
20
19.4951758
40
1.6042013
50
71.7183119
51
73.9258742
0
LINE
8
DEFAULT_255_1_234
10
6.6708102
20
20.5154
11
6.2652074
21
20.5154
0
LINE
8
DEFAULT_255_1_234
10
6.2652074
20
20.5154
11
6.2652074
21
21.6848211
0
LINE
8
DEFAULT_255_1_234
10
6.2652074
20
21.6848211
11
6.6475182
21
21.6848211
0
LINE
8
DEFAULT_255_1_234
10
6.6764324
20
21.0623614
11
6.4194168
21
21.0623614
0
LINE
8
DEFAULT_255_1_234
10
6.4194168
20
21.0623614
11
6.4194168
21
20.6414983
0
LINE
8
DEFAULT_255_1_234
10
6.4194168
20
20.6414983
11
6.6740229
21
20.6414983
0
LINE
8
DEFAULT_255_1_234
10
6.4194168
20
21.5579196
11
6.4194168
21
21.1860501
0
LINE
8
DEFAULT_255_1_234
10
6.4194168
20
21.1860501
11
6.6523372
21
21.1860501
0
LINE
8
DEFAULT_255_1_234
10
6.6475182
20
21.5579196
11
6.4194168
21
21.5579196
0
ARC
8
DEFAULT_255_1_234
10
6.651289
20
20.9480901
40
0.7367406
50
82.1257326
51
90.2932599
0
ARC
8
DEFAULT_255_1_234
10
6.6901845
20
21.2199013
40
0.4621653
50
69.9044149
51
82.2857423
0
ARC
8
DEFAULT_255_1_234
10
6.7472523
20
21.3741637
40
0.2976871
50
51.1838526
51
70.0181538
0
ARC
8
DEFAULT_255_1_234
10
6.7727489
20
21.411224
40
0.2528517
50
12.1017251
51
50.4214761
0
ARC
8
DEFAULT_255_1_234
10
6.6343363
20
21.3764676
40
0.3955061
50
359.5251267
51
12.8211707
0
ARC
8
DEFAULT_255_1_234
10
6.792329
20
21.3695344
40
0.2375281
50
323.4908128
51
0.8817314
0
ARC
8
DEFAULT_255_1_234
10
6.7504976
20
21.401855
40
0.2903817
50
298.6825083
51
323.2756573
0
ARC
8
DEFAULT_255_1_234
10
6.7143339
20
21.4619649
40
0.3604842
50
293.1999386
51
299.1396394
0
ARC
8
DEFAULT_255_1_234
10
6.7816312
20
20.8534126
40
0.2871098
50
54.0011765
51
74.9167975
0
ARC
8
DEFAULT_255_1_234
10
6.7932671
20
20.8731332
40
0.2643248
50
36.3580696
51
53.5291921
0
ARC
8
DEFAULT_255_1_234
10
6.7805914
20
20.8640998
40
0.2798884
50
4.8189881
51
36.3089977
0
ARC
8
DEFAULT_255_1_234
10
6.7026749
20
20.853127
40
0.358478
50
359.9370252
51
5.5204067
0
ARC
8
DEFAULT_255_1_234
10
6.670227
20
20.8490667
40
0.3909429
50
344.7478609
51
0.5373281
0
ARC
8
DEFAULT_255_1_234
10
6.7693242
20
20.8223544
40
0.2883093
50
311.1786488
51
344.6886812
0
ARC
8
DEFAULT_255_1_234
10
6.7401289
20
20.8586987
40
0.3348923
50
286.0418249
51
310.8441291
0
ARC
8
DEFAULT_255_1_234
10
6.6894121
20
21.0233807
40
0.5071869
50
274.1042341
51
286.4071509
0
ARC
8
DEFAULT_255_1_234
10
6.6717376
20
21.2117229
40
0.6963234
50
269.9236873
51
274.445647
0
ARC
8
DEFAULT_255_1_234
10
6.6763377
20
20.9777537
40
0.3362634
50
269.6055768
51
281.3740047
0
ARC
8
DEFAULT_255_1_234
10
6.6994015
20
20.8684353
40
0.224546
50
281.1055983
51
302.5132223
0
ARC
8
DEFAULT_255_1_234
10
6.7140915
20
20.8420823
40
0.1944357
50
303.0368945
51
311.8811219
0
ARC
8
DEFAULT_255_1_234
10
6.7212321
20
20.833589
40
0.1833454
50
311.9916004
51
351.7143462
0
ARC
8
DEFAULT_255_1_234
10
6.6395551
20
20.850093
40
0.2665871
50
350.7339597
51
0.2221581
0
ARC
8
DEFAULT_255_1_234
10
6.6287997
20
20.8557467
40
0.2773789
50
359.0456241
51
17.2296242
0
ARC
8
DEFAULT_255_1_234
10
6.7327114
20
20.8866163
40
0.1689915
50
17.6685481
51
78.9940892
0
ARC
8
DEFAULT_255_1_234
10
6.6810278
20
20.7011224
40
0.3612658
50
76.5635957
51
90.6980921
0
LINE
8
DEFAULT_255_1_234
10
6.6766263
20
21.0623613
11
6.6764324
21
21.0623614
0
ARC
8
DEFAULT_255_1_234
10
6.6545939
20
21.5146036
40
0.3285612
50
269.6064736
51
281.4533503
0
ARC
8
DEFAULT_255_1_234
10
6.6768758
20
21.4094688
40
0.2210975
50
281.2041486
51
302.5148063
0
ARC
8
DEFAULT_255_1_234
10
6.6905608
20
21.3848241
40
0.1929674
50
303.021671
51
309.8369575
0
ARC
8
DEFAULT_255_1_234
10
6.708907
20
21.3642488
40
0.1654181
50
309.5228395
51
356.9509836
0
ARC
8
DEFAULT_255_1_234
10
6.6425652
20
21.3737932
40
0.2322512
50
355.4701227
51
0.0492546
0
ARC
8
DEFAULT_255_1_234
10
6.6146743
20
21.3760094
40
0.2601498
50
359.5558597
51
11.2096359
0
ARC
8
DEFAULT_255_1_234
10
6.7104033
20
21.395823
40
0.1623975
50
10.9182341
51
31.3230275
0
ARC
8
DEFAULT_255_1_234
10
6.7389767
20
21.4117214
40
0.1297302
50
31.8852677
51
52.1412565
0
ARC
8
DEFAULT_255_1_234
10
6.7115499
20
21.372975
40
0.1771663
50
52.8285564
51
71.9850297
0
ARC
8
DEFAULT_255_1_234
10
6.6739676
20
21.2623664
40
0.2939794
50
71.6863486
51
82.8455995
0
ARC
8
DEFAULT_255_1_234
10
6.6500212
20
21.0814149
40
0.476506
50
82.6984714
51
90.1729175
0
ARC
8
DEFAULT_255_1_234
10
6.6477847
20
21.2037623
40
0.3541573
50
89.8708275
51
90.0431131
0
LINE
8
DEFAULT_255_1_234
10
4.8298484
20
29.1195343
11
4.8298484
21
28.993436
0
LINE
8
DEFAULT_255_1_234
10
4.8298484
20
28.993436
11
4.3230458
21
28.993436
0
LINE
8
DEFAULT_255_1_234
10
4.3230458
20
28.993436
11
4.3230458
21
28.5789983
0
LINE
8
DEFAULT_255_1_234
10
4.3230458
20
28.5789983
11
4.9117722
21
28.5789983
0
LINE
8
DEFAULT_255_1_234
10
4.9117722
20
28.5789983
11
4.9117722
21
28.4529
0
LINE
8
DEFAULT_255_1_234
10
4.9117722
20
28.4529
11
4.1688364
21
28.4529
0
LINE
8
DEFAULT_255_1_234
10
4.1688364
20
28.4529
11
4.1688364
21
29.6223211
0
LINE
8
DEFAULT_255_1_234
10
4.1688364
20
29.6223211
11
4.9037404
21
29.6223211
0
LINE
8
DEFAULT_255_1_234
10
4.9037404
20
29.6223211
11
4.9037404
21
29.4954196
0
LINE
8
DEFAULT_255_1_234
10
4.9037404
20
29.4954196
11
4.3230458
21
29.4954196
0
LINE
8
DEFAULT_255_1_234
10
4.3230458
20
29.4954196
11
4.3230458
21
29.1195343
0
LINE
8
DEFAULT_255_1_234
10
4.3230458
20
29.1195343
11
4.8298484
21
29.1195343
0
LINE
8
DEFAULT_255_1_234
10
5.9277871
20
29.6223211
11
5.9277871
21
29.4954196
0
LINE
8
DEFAULT_255_1_234
10
5.9277871
20
29.4954196
11
5.5519017
21
29.4954196
0
LINE
8
DEFAULT_255_1_234
10
5.5519017
20
29.4954196
11
5.5519017
21
28.4529
0
LINE
8
DEFAULT_255_1_234
10
5.5519017
20
28.4529
11
5.3984955
21
28.4529
0
LINE
8
DEFAULT_255_1_234
10
5.3984955
20
28.4529
11
5.3984955
21
29.4954196
0
LINE
8
DEFAULT_255_1_234
10
5.3984955
20
29.4954196
11
5.0234133
21
29.4954196
0
LINE
8
DEFAULT_255_1_234
10
5.0234133
20
29.4954196
11
5.0234133
21
29.6223211
0
LINE
8
DEFAULT_255_1_234
10
5.0234133
20
29.6223211
11
5.9277871
21
29.6223211
0
LINE
8
DEFAULT_255_1_234
10
7.0000241
20
29.6223211
11
7.0000241
21
28.4529
0
LINE
8
DEFAULT_255_1_234
10
7.0000241
20
28.4529
11
6.8450116
21
28.4529
0
LINE
8
DEFAULT_255_1_234
10
6.8450116
20
28.4529
11
6.8450116
21
28.993436
0
LINE
8
DEFAULT_255_1_234
10
6.8450116
20
28.993436
11
6.255482
21
28.993436
0
LINE
8
DEFAULT_255_1_234
10
6.255482
20
28.993436
11
6.255482
21
28.4529
0
LINE
8
DEFAULT_255_1_234
10
6.255482
20
28.4529
11
6.1012726
21
28.4529
0
LINE
8
DEFAULT_255_1_234
10
6.1012726
20
28.4529
11
6.1012726
21
29.6223211
0
LINE
8
DEFAULT_255_1_234
10
6.1012726
20
29.6223211
11
6.255482
21
29.6223211
0
LINE
8
DEFAULT_255_1_234
10
6.255482
20
29.6223211
11
6.255482
21
29.1195343
0
LINE
8
DEFAULT_255_1_234
10
6.255482
20
29.1195343
11
6.8450116
21
29.1195343
0
LINE
8
DEFAULT_255_1_234
10
6.8450116
20
29.1195343
11
6.8450116
21
29.6223211
0
LINE
8
DEFAULT_255_1_234
10
6.8450116
20
29.6223211
11
7.0000241
21
29.6223211
0
LINE
8
DEFAULT_255_1_234
10
4.8298484
20
37.0570343
11
4.8298484
21
36.930936
0
LINE
8
DEFAULT_255_1_234
10
4.8298484
20
36.930936
11
4.3230458
21
36.930936
0
LINE
8
DEFAULT_255_1_234
10
4.3230458
20
36.930936
11
4.3230458
21
36.5164983
0
LINE
8
DEFAULT_255_1_234
10
4.3230458
20
36.5164983
11
4.9117722
21
36.5164983
0
LINE
8
DEFAULT_255_1_234
10
4.9117722
20
36.5164983
11
4.9117722
21
36.3904
0
LINE
8
DEFAULT_255_1_234
10
4.9117722
20
36.3904
11
4.1688364
21
36.3904
0
LINE
8
DEFAULT_255_1_234
10
4.1688364
20
36.3904
11
4.1688364
21
37.5598211
0
LINE
8
DEFAULT_255_1_234
10
4.1688364
20
37.5598211
11
4.9037404
21
37.5598211
0
LINE
8
DEFAULT_255_1_234
10
4.9037404
20
37.5598211
11
4.9037404
21
37.4329196
0
LINE
8
DEFAULT_255_1_234
10
4.9037404
20
37.4329196
11
4.3230458
21
37.4329196
0
LINE
8
DEFAULT_255_1_234
10
4.3230458
20
37.4329196
11
4.3230458
21
37.0570343
0
LINE
8
DEFAULT_255_1_234
10
4.3230458
20
37.0570343
11
4.8298484
21
37.0570343
0
LINE
8
DEFAULT_255_1_234
10
5.9277871
20
37.5598211
11
5.9277871
21
37.4329196
0
LINE
8
DEFAULT_255_1_234
10
5.9277871
20
37.4329196
11
5.5519017
21
37.4329196
0
LINE
8
DEFAULT_255_1_234
10
5.5519017
20
37.4329196
11
5.5519017
21
36.3904
0
LINE
8
DEFAULT_255_1_234
10
5.5519017
20
36.3904
11
5.3984955
21
36.3904
0
LINE
8
DEFAULT_255_1_234
10
5.3984955
20
36.3904
11
5.3984955
21
37.4329196
0
LINE
8
DEFAULT_255_1_234
10
5.3984955
20
37.4329196
11
5.0234133
21
37.4329196
0
LINE
8
DEFAULT_255_1_234
10
5.0234133
20
37.4329196
11
5.0234133
21
37.5598211
0
LINE
8
DEFAULT_255_1_234
10
5.0234133
20
37.5598211
11
5.9277871
21
37.5598211
0
LINE
8
DEFAULT_255_1_234
10
7.0000241
20
37.5598211
11
7.0000241
21
36.3904
0
LINE
8
DEFAULT_255_1_234
10
7.0000241
20
36.3904
11
6.8450116
21
36.3904
0
LINE
8
DEFAULT_255_1_234
10
6.8450116
20
36.3904
11
6.8450116
21
36.930936
0
LINE
8
DEFAULT_255_1_234
10
6.8450116
20
36.930936
11
6.255482
21
36.930936
0
LINE
8
DEFAULT_255_1_234
10
6.255482
20
36.930936
11
6.255482
21
36.3904
0
LINE
8
DEFAULT_255_1_234
10
6.255482
20
36.3904
11
6.1012726
21
36.3904
0
LINE
8
DEFAULT_255_1_234
10
6.1012726
20
36.3904
11
6.1012726
21
37.5598211
0
LINE
8
DEFAULT_255_1_234
10
6.1012726
20
37.5598211
11
6.255482
21
37.5598211
0
LINE
8
DEFAULT_255_1_234
10
6.255482
20
37.5598211
11
6.255482
21
37.0570343
0
LINE
8
DEFAULT_255_1_234
10
6.255482
20
37.0570343
11
6.8450116
21
37.0570343
0
LINE
8
DEFAULT_255_1_234
10
6.8450116
20
37.0570343
11
6.8450116
21
37.5598211
0
LINE
8
DEFAULT_255_1_234
10
6.8450116
20
37.5598211
11
7.0000241
21
37.5598211
0
LINE
8
DEFAULT_255_1_234
10
24.2464663
20
44.8853026
11
24.2464663
21
44.7640234
0
LINE
8
DEFAULT_255_1_234
10
24.2464663
20
44.7640234
11
23.8545174
21
44.7640234
0
LINE
8
DEFAULT_255_1_234
10
23.8545174
20
44.7640234
11
23.8545174
21
44.8853026
0
LINE
8
DEFAULT_255_1_234
10
23.8545174
20
44.8853026
11
24.2464663
21
44.8853026
0
LINE
8
DEFAULT_255_1_234
10
24.2795482
20
36.972701
11
24.2795482
21
36.5438062
0
LINE
8
DEFAULT_255_1_234
10
23.3783872
20
36.9188884
11
23.3783872
21
37.0208915
0
LINE
8
DEFAULT_255_1_234
10
24.2795482
20
37.2168659
11
24.1253389
21
37.2168659
0
LINE
8
DEFAULT_255_1_234
10
23.5333998
20
37.0249073
11
23.5333998
21
36.9293296
0
LINE
8
DEFAULT_255_1_234
10
24.126142
20
36.5847681
11
24.126142
21
36.8474059
0
LINE
8
DEFAULT_255_1_234
10
24.126142
20
36.8474059
11
23.8554725
21
36.8474059
0
LINE
8
DEFAULT_255_1_234
10
23.8554725
20
36.8474059
11
23.8554725
21
36.972701
0
LINE
8
DEFAULT_255_1_234
10
23.8554725
20
36.972701
11
24.2795482
21
36.972701
0
ARC
8
DEFAULT_255_1_234
10
23.9963989
20
36.7431396
40
0.3462765
50
295.8437914
51
324.8549609
0
ARC
8
DEFAULT_255_1_234
10
23.9547956
20
36.8184567
40
0.4322211
50
291.5695085
51
296.4549398
0
ARC
8
DEFAULT_255_1_234
10
23.9037207
20
36.9549275
40
0.5779178
50
278.6622409
51
291.3045483
0
ARC
8
DEFAULT_255_1_234
10
23.8697699
20
37.1697408
40
0.7953952
50
270.020006
51
278.7494541
0
ARC
8
DEFAULT_255_1_234
10
23.8659623
20
37.3014036
40
0.927067
50
269.9969998
51
270.2524872
0
ARC
8
DEFAULT_255_1_234
10
23.8621336
20
36.8930589
40
0.5187361
50
253.5786322
51
270.4175299
0
ARC
8
DEFAULT_255_1_234
10
23.8447992
20
36.8259236
40
0.4494451
50
238.8203306
51
253.2788235
0
ARC
8
DEFAULT_255_1_234
10
23.8428365
20
36.8208231
40
0.4440665
50
206.7883783
51
238.6962764
0
ARC
8
DEFAULT_255_1_234
10
23.9202275
20
36.8672405
40
0.5341121
50
206.1129412
51
207.4916643
0
ARC
8
DEFAULT_255_1_234
10
23.979919
20
36.8926488
40
0.5989041
50
188.6921119
51
205.7821245
0
ARC
8
DEFAULT_255_1_234
10
24.1655552
20
36.924223
40
0.7871862
50
180.3882829
51
188.9219216
0
ARC
8
DEFAULT_255_1_234
10
24.2883366
20
37.0265464
40
0.909967
50
170.2024264
51
180.3560651
0
ARC
8
DEFAULT_255_1_234
10
23.9719884
20
37.0831237
40
0.5886083
50
154.2857445
51
170.3893044
0
ARC
8
DEFAULT_255_1_234
10
23.8438087
20
37.141795
40
0.4476743
50
139.8401567
51
153.9332699
0
ARC
8
DEFAULT_255_1_234
10
23.8078823
20
37.1705577
40
0.4016697
50
98.4190291
51
139.6707122
0
ARC
8
DEFAULT_255_1_234
10
23.8458341
20
36.9860328
40
0.5898566
50
89.7659205
51
99.4415478
0
ARC
8
DEFAULT_255_1_234
10
23.852359
20
36.9925844
40
0.5833147
50
78.0551672
51
90.4042112
0
ARC
8
DEFAULT_255_1_234
10
23.89281
20
37.1744644
40
0.3970055
50
54.6380464
51
78.3339173
0
ARC
8
DEFAULT_255_1_234
10
23.9118156
20
37.2064795
40
0.3599102
50
50.031736
51
54.1558201
0
ARC
8
DEFAULT_255_1_234
10
23.9010944
20
37.1968766
40
0.3741624
50
18.1092409
51
49.7180913
0
ARC
8
DEFAULT_255_1_234
10
23.7554144
20
37.1435089
40
0.5292424
50
7.9672797
51
18.6984571
0
ARC
8
DEFAULT_255_1_234
10
23.7704622
20
37.1558504
40
0.3600838
50
9.7557294
51
27.3215714
0
ARC
8
DEFAULT_255_1_234
10
23.8832094
20
37.2121912
40
0.2340608
50
27.7361077
51
84.5257964
0
ARC
8
DEFAULT_255_1_234
10
23.8504481
20
37.047864
40
0.4011215
50
82.106034
51
90.2001166
0
ARC
8
DEFAULT_255_1_234
10
23.8454698
20
37.0986215
40
0.3503799
50
89.4150119
51
105.5823402
0
ARC
8
DEFAULT_255_1_234
10
23.8197696
20
37.1921867
40
0.2533503
50
105.6678618
51
144.2648758
0
ARC
8
DEFAULT_255_1_234
10
23.9090951
20
37.1286289
40
0.3629787
50
144.3561283
51
162.8564086
0
ARC
8
DEFAULT_255_1_234
10
24.117486
20
37.0617017
40
0.5818441
50
162.6076014
51
173.6780284
0
ARC
8
DEFAULT_255_1_234
10
24.4236004
20
37.024489
40
0.8902007
50
173.4670142
51
179.9730753
0
ARC
8
DEFAULT_255_1_234
10
24.2327675
20
36.925126
40
0.6993804
50
179.6556203
51
190.0080463
0
ARC
8
DEFAULT_255_1_234
10
24.0011504
20
36.8826375
40
0.4639066
50
189.8116607
51
206.6796816
0
ARC
8
DEFAULT_255_1_234
10
23.9166656
20
36.8432503
40
0.3707421
50
207.1031645
51
217.7074368
0
ARC
8
DEFAULT_255_1_234
10
23.8532345
20
36.7880559
40
0.2868417
50
216.7345547
51
265.6812148
0
ARC
8
DEFAULT_255_1_234
10
23.8663136
20
36.8784855
40
0.3780509
50
264.7366618
51
270.0611241
0
ARC
8
DEFAULT_255_1_234
10
23.8686399
20
37.1625111
40
0.662079
50
269.8335834
51
276.0539546
0
ARC
8
DEFAULT_255_1_234
10
23.8893404
20
36.972356
40
0.4708016
50
275.9894168
51
284.4615085
0
ARC
8
DEFAULT_255_1_234
10
23.9091411
20
36.8890663
40
0.3852094
50
284.7034461
51
286.4953897
0
ARC
8
DEFAULT_255_1_234
10
23.9498424
20
36.7579965
40
0.2479842
50
286.0770838
51
304.2625829
0
ARC
8
DEFAULT_255_1_234
10
23.9631838
20
36.7361594
40
0.2224291
50
304.5891602
51
317.1073298
0
ENDSEC
0
EOF