0
SECTION
2
HEADER
9
$MEASUREMENT
70
1
0
ENDSEC
0
SECTION
2
TABLES
0
TABLE
2
LTYPE
0
LTYPE
72
65
70
64
2
CONTINUOUS
3
______
73
0
40
0
0
ENDTAB
0
TABLE
2
LAYER
0
LAYER
2
DEFAULT_255_2_778
70
0
62
255
6
CONTINUOUS
0
ENDTAB
0
ENDSEC
0
SECTION
2
ENTITIES
0
ARC
8
DEFAULT_255_2_778
10
9.7049054
20
9.5615104
40
0.2001443
50
269.9966044
51
329.9761037
0
ARC
8
DEFAULT_255_2_778
10
9.7049403
20
9.5613391
40
0.2000282
50
330.0135819
51
0.007719
0
ARC
8
DEFAULT_255_2_778
10
9.7049403
20
9.561393
40
0.2000282
50
359.992281
51
29.9864181
0
ARC
8
DEFAULT_255_2_778
10
6.4717055
20
15.161122
40
0.2001439
50
30.0238481
51
90.0034347
0
ARC
8
DEFAULT_255_2_778
10
6.4716816
20
15.1611218
40
0.2001443
50
89.9965796
51
149.9761127
0
ARC
8
DEFAULT_255_2_778
10
3.2384467
20
9.561393
40
0.2000282
50
150.0135819
51
180.007719
0
ARC
8
DEFAULT_255_2_778
10
3.2384467
20
9.5613391
40
0.2000282
50
179.992281
51
209.9864181
0
ARC
8
DEFAULT_255_2_778
10
3.2384815
20
9.5615101
40
0.2001439
50
210.0238481
51
270.0034347
0
ARC
8
DEFAULT_255_2_778
10
6.9692085
20
12.3565857
40
0.0186499
50
89.7536302
51
121.034389
0
ARC
8
DEFAULT_255_2_778
10
6.9692739
20
12.3532662
40
0.0219691
50
89.1881411
51
89.961319
0
ARC
8
DEFAULT_255_2_778
10
6.9692345
20
12.3550124
40
0.0202237
50
54.4474566
51
89.0063516
0
ARC
8
DEFAULT_255_2_778
10
6.9697387
20
12.3552008
40
0.0197795
50
0.1367352
51
55.3184535
0
ARC
8
DEFAULT_255_2_778
10
6.9694971
20
12.3552578
40
0.0200211
50
349.6654075
51
359.9720517
0
ARC
8
DEFAULT_255_2_778
10
6.8696661
20
10.7417712
40
0.0198197
50
90.9093613
51
127.1623609
0
ARC
8
DEFAULT_255_2_778
10
6.8696527
20
10.7410251
40
0.0205655
50
90.039975
51
90.8390295
0
ARC
8
DEFAULT_255_2_778
10
6.8696208
20
10.7418834
40
0.0197071
50
46.8709301
51
89.9489176
0
ARC
8
DEFAULT_255_2_778
10
6.8694835
20
10.7414588
40
0.0201119
50
0.161892
51
47.4126322
0
ARC
8
DEFAULT_255_2_778
10
6.8656579
20
10.7415502
40
0.0239373
50
359.5860177
51
359.9172008
0
ARC
8
DEFAULT_255_2_778
10
6.8699152
20
10.7415128
40
0.01968
50
327.9382765
51
359.6051859
0
ARC
8
DEFAULT_255_2_778
10
6.4716431
20
10.094418
40
0.0198095
50
270.0961047
51
328.8337438
0
ARC
8
DEFAULT_255_2_778
10
6.4716784
20
10.0944263
40
0.0198178
50
260.7519653
51
269.99398
0
ARC
8
DEFAULT_255_2_778
10
6.4720658
20
10.0952735
40
0.0207177
50
195.4162836
51
260.0709692
0
ARC
8
DEFAULT_255_2_778
10
6.2712059
20
10.8981024
40
0.0205642
50
191.5074648
51
194.4639801
0
ARC
8
DEFAULT_255_2_778
10
6.2705928
20
10.8979847
40
0.0199399
50
180.023366
51
191.527358
0
ARC
8
DEFAULT_255_2_778
10
6.2708121
20
10.8978417
40
0.0201595
50
115.3101036
51
179.6167046
0
ARC
8
DEFAULT_255_2_778
10
6.2708222
20
10.8982931
40
0.0197568
50
96.3778166
51
115.8963813
0
ARC
8
DEFAULT_255_2_778
10
6.2707446
20
10.8987326
40
0.0193114
50
90.0022029
51
96.2937981
0
ARC
8
DEFAULT_255_2_778
10
6.2705472
20
10.8976701
40
0.0203748
50
37.120283
51
89.4471669
0
ARC
8
DEFAULT_255_2_778
10
5.8065399
20
11.520441
40
0.0199874
50
271.8095748
51
300.1984593
0
ARC
8
DEFAULT_255_2_778
10
5.8065505
20
11.5205126
40
0.0200588
50
270.0001986
51
271.7729163
0
ARC
8
DEFAULT_255_2_778
10
5.8065837
20
11.5207161
40
0.0202624
50
234.7642947
51
269.9061409
0
ARC
8
DEFAULT_255_2_778
10
5.8067433
20
11.5205445
40
0.0202156
50
180.1031034
51
234.1143279
0
ARC
8
DEFAULT_255_2_778
10
5.8060323
20
11.5205123
40
0.0195046
50
175.8636338
51
180.0124009
0
ARC
8
DEFAULT_255_2_778
10
5.8058071
20
11.5205328
40
0.0192785
50
168.834196
51
175.8760703
0
ARC
8
DEFAULT_255_2_778
10
6.220981
20
13.5481975
40
0.0197697
50
89.3841043
51
168.7153764
0
ARC
8
DEFAULT_255_2_778
10
6.7110797
20
13.5484261
40
0.0195409
50
35.4732053
51
90.5458986
0
ARC
8
DEFAULT_255_2_778
10
6.7101949
20
13.5478176
40
0.0206145
50
0.328252
51
35.4235048
0
ARC
8
DEFAULT_255_2_778
10
6.7110624
20
13.5479352
40
0.0197468
50
354.1283558
51
0.0015127
0
ARC
8
DEFAULT_255_2_778
10
6.7105954
20
13.5479921
40
0.0202172
50
342.6584106
51
354.1031169
0
LINE
8
DEFAULT_255_2_778
10
28.9945935
20
125.9457661
11
6.1946935
21
125.9457661
0
LINE
8
DEFAULT_255_2_778
10
6.1946935
20
125.9457661
11
6.1946935
21
127.4456661
0
LINE
8
DEFAULT_255_2_778
10
6.1946935
20
127.4456661
11
28.9945935
21
127.4456661
0
LINE
8
DEFAULT_255_2_778
10
28.9945935
20
127.4456661
11
28.9945935
21
125.9457661
0
LINE
8
DEFAULT_255_2_778
10
9.3585935
20
9.7613661
11
3.5850935
21
9.7613661
0
LINE
8
DEFAULT_255_2_778
10
3.5850935
20
9.7613661
11
6.4719935
21
14.7611661
0
LINE
8
DEFAULT_255_2_778
10
6.4719935
20
14.7611661
11
9.3585935
21
9.7613661
0
LINE
8
DEFAULT_255_2_778
10
9.8781935
20
9.6613661
11
6.6449935
21
15.2612661
0
LINE
8
DEFAULT_255_2_778
10
6.2983935
20
15.2612661
11
3.0651935
21
9.6613661
0
LINE
8
DEFAULT_255_2_778
10
3.2384935
20
9.3613661
11
9.7048935
21
9.3613661
0
LINE
8
DEFAULT_255_2_778
10
6.9891935
20
12.3516661
11
6.6849935
21
10.6278661
0
LINE
8
DEFAULT_255_2_778
10
6.6849935
20
10.6278661
11
6.8576935
21
10.7575661
0
LINE
8
DEFAULT_255_2_778
10
6.8865935
20
10.7310661
11
6.4885935
21
10.0841661
0
LINE
8
DEFAULT_255_2_778
10
6.4520935
20
10.0897661
11
6.2512935
21
10.8929661
0
LINE
8
DEFAULT_255_2_778
10
6.2867935
20
10.9099661
11
6.4182935
21
10.7345661
0
LINE
8
DEFAULT_255_2_778
10
6.4182935
20
10.7345661
11
6.5248935
21
11.9076661
0
LINE
8
DEFAULT_255_2_778
10
6.5248935
20
11.9076661
11
5.8165935
21
11.5031661
0
LINE
8
DEFAULT_255_2_778
10
5.7868935
20
11.5242661
11
6.2015935
21
13.5520661
0
LINE
8
DEFAULT_255_2_778
10
6.2211935
20
13.5679661
11
6.7108935
21
13.5679661
0
LINE
8
DEFAULT_255_2_778
10
6.7298935
20
13.5419661
11
6.2419935
21
11.9627661
0
LINE
8
DEFAULT_255_2_778
10
6.2419935
20
11.9627661
11
6.9595935
21
12.3725661
0
ARC
8
DEFAULT_255_2_778
10
27.3446688
20
101.8315729
40
0.5000757
50
89.9972237
51
179.991324
0
ARC
8
DEFAULT_255_2_778
10
27.34469
20
99.8316455
40
0.5000969
50
179.9996485
51
270.0003515
0
ARC
8
DEFAULT_255_2_778
10
29.3445961
20
99.8316455
40
0.5000969
50
269.9996485
51
0.0003515
0
ARC
8
DEFAULT_255_2_778
10
29.3450032
20
101.8316704
40
0.4996898
50
359.9974993
51
45.0233811
0
ARC
8
DEFAULT_255_2_778
10
29.3446909
20
101.8319012
40
0.4997474
50
44.9793514
51
90.0112208
0
ARC
8
DEFAULT_255_2_778
10
29.3533025
20
99.8464624
40
0.5032906
50
317.0512853
51
0.0212023
0
ARC
8
DEFAULT_255_2_778
10
29.3521561
20
101.846504
40
0.504437
50
0.0164253
51
44.9765177
0
ARC
8
DEFAULT_255_2_778
10
29.3524106
20
101.8464615
40
0.504287
50
45.0003673
51
89.9792665
0
ARC
8
DEFAULT_255_2_778
10
27.3526507
20
101.8465335
40
0.5042151
50
90.0065535
51
164.4918038
0
LINE
8
DEFAULT_255_2_778
10
6.151793
20
125.3456486
11
6.218493
21
125.2718486
0
LINE
8
DEFAULT_255_2_778
10
6.218493
20
125.2718486
11
6.218493
21
108.0194486
0
LINE
8
DEFAULT_255_2_778
10
6.218493
20
108.0194486
11
28.970793
21
108.0194486
0
LINE
8
DEFAULT_255_2_778
10
28.970793
20
108.0194486
11
28.944593
21
108.0456486
0
LINE
8
DEFAULT_255_2_778
10
28.944593
20
108.0456486
11
6.244693
21
108.0456486
0
LINE
8
DEFAULT_255_2_778
10
6.244693
20
108.0456486
11
6.151793
21
107.9455486
0
LINE
8
DEFAULT_255_2_778
10
29.037693
20
125.3456486
11
28.944893
21
125.2456486
0
LINE
8
DEFAULT_255_2_778
10
28.944893
20
125.2456486
11
6.244693
21
125.2456486
0
LINE
8
DEFAULT_255_2_778
10
6.244693
20
125.2456486
11
6.218493
21
125.2718486
0
LINE
8
DEFAULT_255_2_778
10
6.218493
20
125.2718486
11
28.970793
21
125.2718486
0
LINE
8
DEFAULT_255_2_778
10
28.970793
20
125.2718486
11
28.970793
21
108.0194486
0
LINE
8
DEFAULT_255_2_778
10
28.970793
20
108.0194486
11
29.037493
21
107.9455486
0
LINE
8
DEFAULT_255_2_778
10
29.037493
20
107.9455486
11
29.037493
21
125.3456486
0
LINE
8
DEFAULT_255_2_778
10
29.037493
20
125.3456486
11
6.151793
21
125.3456486
0
LINE
8
DEFAULT_255_2_778
10
6.151793
20
125.3456486
11
6.151793
21
107.9455486
0
LINE
8
DEFAULT_255_2_778
10
6.151793
20
107.9455486
11
29.037693
21
107.9455486
0
LINE
8
DEFAULT_255_2_778
10
28.944593
20
108.0456486
11
28.944593
21
125.2456486
0
LINE
8
DEFAULT_255_2_778
10
6.244693
20
125.2456486
11
6.244693
21
108.0456486
0
LINE
8
DEFAULT_255_2_778
10
26.844593
20
101.8316486
11
26.844593
21
99.8316486
0
LINE
8
DEFAULT_255_2_778
10
27.344693
20
99.3315486
11
29.344593
21
99.3315486
0
LINE
8
DEFAULT_255_2_778
10
29.844693
20
99.8316486
11
29.844693
21
101.8316486
0
LINE
8
DEFAULT_255_2_778
10
29.344593
20
102.3316486
11
27.344693
21
102.3316486
0
LINE
8
DEFAULT_255_2_778
10
29.856593
20
99.8466486
11
29.856593
21
101.8466486
0
LINE
8
DEFAULT_255_2_778
10
29.352593
20
102.3507486
11
27.352593
21
102.3507486
0
ARC
8
DEFAULT_255_2_778
10
12.5949038
20
1.2785374
40
1.4999274
50
233.1250824
51
254.9623524
0
ARC
8
DEFAULT_255_2_778
10
20.5937111
20
1.2803111
40
1.5019282
50
291.056736
51
306.8638965
0
ARC
8
DEFAULT_255_2_778
10
12.5934612
20
1.2694741
40
1.4908005
50
254.9255238
51
270.0492315
0
ARC
8
DEFAULT_255_2_778
10
20.5962146
20
1.2665082
40
1.4878349
50
269.9394452
51
285.0896232
0
ARC
8
DEFAULT_255_2_778
10
20.5923624
20
1.2812457
40
1.5033651
50
306.8775534
51
312.8276088
0
ARC
8
DEFAULT_255_2_778
10
12.5967219
20
1.2812457
40
1.5033651
50
227.1723912
51
233.1224466
0
ARC
8
DEFAULT_255_2_778
10
20.5954402
20
134.364998
40
1.4959764
50
74.9518263
51
90.0305639
0
ARC
8
DEFAULT_255_2_778
10
12.5937994
20
134.3676096
40
1.4933649
50
89.9638284
51
105.0614144
0
ARC
8
DEFAULT_255_2_778
10
12.5949026
20
134.3611128
40
1.4999252
50
105.0376214
51
126.8749238
0
ARC
8
DEFAULT_255_2_778
10
20.5937091
20
134.3593329
40
1.5019329
50
53.1361405
51
68.9432515
0
ARC
8
DEFAULT_255_2_778
10
12.5993214
20
134.3556477
40
1.5069488
50
126.8846297
51
132.8205227
0
ARC
8
DEFAULT_255_2_778
10
20.5898166
20
134.3540873
40
1.5084648
50
47.2045425
51
53.1373849
0
ARC
8
DEFAULT_255_2_778
10
33.0550163
20
5.2835917
40
1.5052185
50
270.0656952
51
306.6700641
0
ARC
8
DEFAULT_255_2_778
10
33.0612912
20
5.2743677
40
1.4940729
50
306.6883038
51
325.0922443
0
ARC
8
DEFAULT_255_2_778
10
33.0723522
20
5.2707245
40
1.482921
50
324.9631144
51
343.5049127
0
ARC
8
DEFAULT_255_2_778
10
22.9883865
20
8.2791845
40
11.7424557
50
342.9614812
51
359.9945824
0
ARC
8
DEFAULT_255_2_778
10
22.9988639
20
127.3614338
40
11.7319783
50
359.9977554
51
17.0461815
0
ARC
8
DEFAULT_255_2_778
10
33.0121701
20
130.3665978
40
1.4880091
50
16.6027915
51
35.0559283
0
ARC
8
DEFAULT_255_2_778
10
33.0072026
20
130.3656301
40
1.4926327
50
34.9768091
51
53.3763371
0
ARC
8
DEFAULT_255_2_778
10
32.9995201
20
130.356154
40
1.5048211
50
53.3568168
51
89.9344335
0
ARC
8
DEFAULT_255_2_778
10
2.1868865
20
130.3675557
40
1.4934189
50
89.9518259
51
108.3453475
0
ARC
8
DEFAULT_255_2_778
10
2.1863381
20
130.3638157
40
1.4967972
50
108.2803635
51
126.6318681
0
ARC
8
DEFAULT_255_2_778
10
2.1933532
20
130.3573712
40
1.5061556
50
126.6997412
51
163.2446564
0
ARC
8
DEFAULT_255_2_778
10
31.2184537
20
12.5993626
40
0.5000116
50
90.0013268
51
180.0101312
0
ARC
8
DEFAULT_255_2_778
10
6.5950532
20
3.4783388
40
0.299689
50
359.9494094
51
45.0062795
0
ARC
8
DEFAULT_255_2_778
10
6.5948334
20
3.4779661
40
0.3001081
50
45.0269039
51
90.0174139
0
ARC
8
DEFAULT_255_2_778
10
26.5949516
20
3.4779647
40
0.3001094
50
90.0208901
51
179.9791099
0
ARC
8
DEFAULT_255_2_778
10
26.5949519
20
132.1606836
40
0.3001098
50
179.9827087
51
224.9729515
0
ARC
8
DEFAULT_255_2_778
10
26.5947509
20
132.1608822
40
0.3001081
50
225.0269039
51
270.0174139
0
ARC
8
DEFAULT_255_2_778
10
6.5948334
20
132.1608822
40
0.3001081
50
269.9825861
51
314.9730961
0
ARC
8
DEFAULT_255_2_778
10
6.5950532
20
132.1605095
40
0.299689
50
314.9937205
51
0.0505906
0
ARC
8
DEFAULT_255_2_778
10
12.5946892
20
1.2787861
40
1.5005621
50
212.2585884
51
227.1946363
0
ARC
8
DEFAULT_255_2_778
10
12.5899549
20
1.2777615
40
1.495346
50
183.8263015
51
195.5068988
0
ARC
8
DEFAULT_255_2_778
10
20.5948331
20
1.2776521
40
1.4996367
50
312.8309362
51
332.1884501
0
ARC
8
DEFAULT_255_2_778
10
12.5625804
20
1.2682783
40
1.4664338
50
195.4358183
51
199.5331019
0
ARC
8
DEFAULT_255_2_778
10
20.5965015
20
1.2775375
40
1.4981077
50
332.1625529
51
344.5312918
0
ARC
8
DEFAULT_255_2_778
10
20.5957287
20
1.2766802
40
1.4982672
50
285.0013205
51
291.0156684
0
ARC
8
DEFAULT_255_2_778
10
20.5925815
20
1.2778584
40
1.5022606
50
344.5624238
51
0.0044142
0
ARC
8
DEFAULT_255_2_778
10
12.5941204
20
1.2772734
40
1.4991674
50
199.4540629
51
207.8046471
0
ARC
8
DEFAULT_255_2_778
10
12.6188272
20
1.2899171
40
1.5269194
50
207.7918615
51
212.1283624
0
ARC
8
DEFAULT_255_2_778
10
12.5899538
20
134.3612868
40
1.4953449
50
164.4930904
51
176.1736965
0
ARC
8
DEFAULT_255_2_778
10
20.5974426
20
134.3629689
40
1.4967097
50
32.2291484
51
47.2013952
0
ARC
8
DEFAULT_255_2_778
10
20.5923749
20
134.360085
40
1.5024652
50
3.8540765
51
15.4791362
0
ARC
8
DEFAULT_255_2_778
10
12.5270168
20
134.3819748
40
1.4291713
50
160.413546
51
164.6177048
0
ARC
8
DEFAULT_255_2_778
10
20.5946908
20
134.3621536
40
1.4988399
50
68.9502342
51
74.9634667
0
ARC
8
DEFAULT_255_2_778
10
12.5953905
20
134.3615687
40
1.5004338
50
152.2076332
51
160.5546656
0
ARC
8
DEFAULT_255_2_778
10
12.5941649
20
134.3611862
40
1.4995281
50
132.8146546
51
152.172868
0
ARC
8
DEFAULT_255_2_778
10
20.5756693
20
134.3597918
40
1.5188736
50
0.0559197
51
3.8348091
0
ARC
8
DEFAULT_255_2_778
10
20.6468308
20
134.3926847
40
1.4391907
50
27.6861995
51
32.2837268
0
ARC
8
DEFAULT_255_2_778
10
12.8984043
20
134.3464357
40
1.8041081
50
176.3567983
51
177.9467386
0
ARC
8
DEFAULT_255_2_778
10
12.5149866
20
134.3601565
40
1.4204449
50
177.9457214
51
179.9629867
0
ARC
8
DEFAULT_255_2_778
10
20.6434144
20
134.3760032
40
1.4490296
50
15.4111688
51
19.5576859
0
ARC
8
DEFAULT_255_2_778
10
20.5940115
20
134.3607805
40
1.5009626
50
19.4701185
51
27.8157391
0
ARC
8
DEFAULT_255_2_778
10
2.1303407
20
5.2648832
40
1.4863102
50
251.5737487
51
270.0733006
0
ARC
8
DEFAULT_255_2_778
10
2.1312842
20
5.2763754
40
1.4975139
50
233.3147911
51
251.6784823
0
ARC
8
DEFAULT_255_2_778
10
2.136698
20
5.2817526
40
1.5050609
50
196.6635729
51
233.2718091
0
ARC
8
DEFAULT_255_2_778
10
0.249
20
18.7921079
40
0.0357827
50
337.4301166
51
2.7205005
0
ARC
8
DEFAULT_255_2_778
10
-0.7806973
20
18.877563
40
1.0687268
50
355.5050887
51
357.7408182
0
ARC
8
DEFAULT_255_2_778
10
-5.4123671
20
19.0733715
40
5.7045303
50
357.6094824
51
358.620573
0
ARC
8
DEFAULT_255_2_778
10
-18.803333
20
19.415822
40
19.0998697
50
358.5606141
51
359.0300149
0
ARC
8
DEFAULT_255_2_778
10
-43.8311373
20
19.8522239
40
44.131477
50
359.0135875
51
359.2836674
0
ARC
8
DEFAULT_255_2_778
10
-78.2900339
20
20.2938873
40
78.5932031
50
359.2757777
51
359.4354767
0
ARC
8
DEFAULT_255_2_778
10
-125.0408426
20
20.7532971
40
125.3462691
50
359.4360394
51
359.5891743
0
ARC
8
DEFAULT_255_2_778
10
-187.8390614
20
21.2081993
40
188.1461354
50
359.587769
51
359.7147267
0
ARC
8
DEFAULT_255_2_778
10
-245.2020944
20
21.5032269
40
245.5099265
50
359.7125291
51
359.7929809
0
ARC
8
DEFAULT_255_2_778
10
-298.5331945
20
21.6925551
40
298.8413624
50
359.7936264
51
359.9010634
0
ARC
8
DEFAULT_255_2_778
10
-343.6312944
20
21.7743865
40
343.9395366
50
359.9004041
51
0.000681
0
ARC
8
DEFAULT_255_2_778
10
0.3391933
20
116.8811995
40
0.0765706
50
177.9532107
51
195.3158521
0
ARC
8
DEFAULT_255_2_778
10
2.8793379
20
117.0175372
40
2.620075
50
181.3532499
51
182.9228953
0
ARC
8
DEFAULT_255_2_778
10
12.4461471
20
117.2749228
40
12.1903348
50
180.9408855
51
181.500737
0
ARC
8
DEFAULT_255_2_778
10
30.4611802
20
117.5867954
40
30.2080644
50
180.7074218
51
180.9712501
0
ARC
8
DEFAULT_255_2_778
10
59.7747643
20
117.9497355
40
59.5238952
50
180.489786
51
180.7083761
0
ARC
8
DEFAULT_255_2_778
10
104.5953024
20
118.3394394
40
104.3461271
50
180.3306855
51
180.4933834
0
ARC
8
DEFAULT_255_2_778
10
158.105521
20
118.6522547
40
157.8572597
50
180.1919824
51
180.3321282
0
ARC
8
DEFAULT_255_2_778
10
203.2627863
20
118.8109731
40
203.0148035
50
180.0934479
51
180.1940732
0
ARC
8
DEFAULT_255_2_778
10
230.9985973
20
118.8584754
40
230.7506551
50
179.9993796
51
180.0940105
0
ARC
8
DEFAULT_255_2_778
10
22.9975821
20
8.2786141
40
11.99706
50
343.3934244
51
359.9988541
0
ARC
8
DEFAULT_255_2_778
10
12.1981235
20
127.3605277
40
11.9501813
50
163.3138347
51
179.9978597
0
ARC
8
DEFAULT_255_2_778
10
12.196501
20
127.3607376
40
11.7379588
50
162.9581937
51
179.9973809
0
ARC
8
DEFAULT_255_2_778
10
22.99463
20
127.3606884
40
11.9468121
50
0.0013704
51
16.6902044
0
ARC
8
DEFAULT_255_2_778
10
2.4064709
20
5.2680724
40
1.4896993
50
251.7293936
51
270.0681264
0
ARC
8
DEFAULT_255_2_778
10
2.4052019
20
5.2725316
40
1.4935382
50
233.5300989
51
251.8292498
0
ARC
8
DEFAULT_255_2_778
10
2.4125957
20
5.281112
40
1.5048334
50
197.0942676
51
233.4978985
0
ARC
8
DEFAULT_255_2_778
10
12.1974645
20
8.2789101
40
11.7386223
50
180.002616
51
197.0413209
0
ARC
8
DEFAULT_255_2_778
10
12.1917027
20
8.2782642
40
11.9969605
50
179.9994751
51
196.6049738
0
ARC
8
DEFAULT_255_2_778
10
34.0813813
20
12.2785437
40
0.4999392
50
179.9965138
51
233.1335874
0
ARC
8
DEFAULT_255_2_778
10
32.9042875
20
11.7982436
40
0.1458868
50
352.2513929
51
1.0746288
0
ARC
8
DEFAULT_255_2_778
10
28.2424514
20
11.9229217
40
4.8092435
50
358.5470661
51
359.3764325
0
ARC
8
DEFAULT_255_2_778
10
13.0266283
20
12.1127843
40
20.0262464
50
359.3070348
51
359.6627704
0
ARC
8
DEFAULT_255_2_778
10
-9.8166312
20
12.2558266
40
42.869953
50
359.6512892
51
359.9268113
0
ARC
8
DEFAULT_255_2_778
10
-20.5740677
20
12.2781501
40
53.6274097
50
359.917642
51
0.000453
0
ARC
8
DEFAULT_255_2_778
10
33.1939416
20
12.7591093
40
0.1461152
50
172.30499
51
181.1176092
0
ARC
8
DEFAULT_255_2_778
10
37.9036675
20
12.6369104
40
4.8572799
50
178.5920344
51
179.4134787
0
ARC
8
DEFAULT_255_2_778
10
53.7381811
20
12.4496838
40
20.6928958
50
179.3439082
51
179.6882749
0
ARC
8
DEFAULT_255_2_778
10
78.9332883
20
12.3036041
40
45.8884257
50
179.6770364
51
179.9344721
0
ARC
8
DEFAULT_255_2_778
10
92.2940618
20
12.2788046
40
59.2492196
50
179.9252669
51
180.0002229
0
ARC
8
DEFAULT_255_2_778
10
12.1920376
20
127.3610574
40
11.7292955
50
162.9468557
51
180.0004069
0
ARC
8
DEFAULT_255_2_778
10
22.9631868
20
8.2847565
40
11.7638796
50
342.9650749
51
347.6979139
0
ARC
8
DEFAULT_255_2_778
10
32.6987966
20
131.7110875
40
0.0281414
50
163.3001793
51
181.0492598
0
ARC
8
DEFAULT_255_2_778
10
32.7996112
20
131.7060869
40
0.1290293
50
178.0078886
51
180.0965556
0
ARC
8
DEFAULT_255_2_778
10
33.3842373
20
131.7223632
40
0.7138459
50
181.3239616
51
185.917925
0
ARC
8
DEFAULT_255_2_778
10
36.9334445
20
132.04986
40
4.2780928
50
185.3797258
51
186.6395484
0
ARC
8
DEFAULT_255_2_778
10
47.0296477
20
133.2072298
40
14.440412
50
186.5691462
51
187.0896021
0
ARC
8
DEFAULT_255_2_778
10
12.156498
20
127.3623447
40
11.500356
50
175.0784757
51
180.0043369
0
ARC
8
DEFAULT_255_2_778
10
12.1931489
20
127.3611041
40
11.7084068
50
163.0385635
51
180.0006361
0
ARC
8
DEFAULT_255_2_778
10
2.407807
20
130.3639639
40
1.4943324
50
144.718845
51
163.0036206
0
ARC
8
DEFAULT_255_2_778
10
2.4082232
20
130.3652181
40
1.4939484
50
126.4783673
51
144.7673295
0
ARC
8
DEFAULT_255_2_778
10
2.4141406
20
130.3564917
40
1.5044832
50
90.0532569
51
126.4619927
0
ARC
8
DEFAULT_255_2_778
10
2.477149
20
131.708174
40
0.0423469
50
356.2626071
51
15.056037
0
ARC
8
DEFAULT_255_2_778
10
1.9146755
20
131.717253
40
0.6048461
50
354.457572
51
358.8784163
0
ARC
8
DEFAULT_255_2_778
10
0.3500878
20
131.8454292
40
2.1746263
50
354.4834198
51
355.0776774
0
ARC
8
DEFAULT_255_2_778
10
-3.138736
20
132.2021012
40
5.6816135
50
353.3764107
51
354.2855008
0
ARC
8
DEFAULT_255_2_778
10
-13.7499104
20
133.4219323
40
16.3626694
50
352.9927664
51
353.419371
0
ARC
8
DEFAULT_255_2_778
10
12.1692411
20
127.3620703
40
10.0136991
50
175.0864211
51
180.0079882
0
ARC
8
DEFAULT_255_2_778
10
32.77832
20
130.3688216
40
1.4921533
50
71.7445913
51
90.0567458
0
ARC
8
DEFAULT_255_2_778
10
32.7787377
20
130.3644075
40
1.4962154
50
53.5466065
51
71.8127338
0
ARC
8
DEFAULT_255_2_778
10
32.7717548
20
130.3575304
40
1.5058969
50
17.1178886
51
53.4883739
0
ARC
8
DEFAULT_255_2_778
10
2.478955
20
5.3412124
40
1.4943777
50
196.7846061
51
212.8785618
0
ARC
8
DEFAULT_255_2_778
10
2.4861648
20
5.3454475
40
1.5027318
50
212.8649413
51
228.8866417
0
ARC
8
DEFAULT_255_2_778
10
2.4904992
20
5.3536377
40
1.5117539
50
228.9669868
51
244.896991
0
ARC
8
DEFAULT_255_2_778
10
2.4847457
20
5.3466368
40
1.5029751
50
244.9823821
51
261.046836
0
ARC
8
DEFAULT_255_2_778
10
2.4390207
20
130.3318298
40
1.511932
50
126.6673919
51
162.8851175
0
ARC
8
DEFAULT_255_2_778
10
2.4329923
20
130.3272791
40
1.5120012
50
90.1648445
51
126.3811751
0
ARC
8
DEFAULT_255_2_778
10
32.7569028
20
130.326979
40
1.5123001
50
53.6417914
51
89.8545413
0
ARC
8
DEFAULT_255_2_778
10
32.7489343
20
130.3310375
40
1.5137813
50
17.1326281
51
53.3078306
0
ARC
8
DEFAULT_255_2_778
10
22.9976059
20
127.3614797
40
11.7072361
50
359.9989939
51
16.9622858
0
ARC
8
DEFAULT_255_2_778
10
22.9935341
20
127.3611273
40
11.733008
50
0.0007173
51
17.048759
0
ARC
8
DEFAULT_255_2_778
10
12.1943702
20
8.2784127
40
11.6443281
50
180.0001896
51
196.8172576
0
ARC
8
DEFAULT_255_2_778
10
-2.7643836
20
4.5392584
40
5.0866486
50
354.2682578
51
355.9948336
0
ARC
8
DEFAULT_255_2_778
10
0.8002943
20
4.1756988
40
1.5034947
50
350.7254717
51
354.4867685
0
ARC
8
DEFAULT_255_2_778
10
2.0983917
20
3.9554239
40
0.1870452
50
336.7242035
51
353.2342552
0
ARC
8
DEFAULT_255_2_778
10
2.2552747
20
3.8896945
40
0.0170335
50
315.5875447
51
331.2881483
0
ARC
8
DEFAULT_255_2_778
10
2.4964531
20
5.3604903
40
1.5002977
50
196.7673852
51
261.2198367
0
ARC
8
DEFAULT_255_2_778
10
1.0376575
20
4.9367777
40
0.0240724
50
337.7793933
51
4.9488164
0
ARC
8
DEFAULT_255_2_778
10
0.7011848
20
4.9242124
40
0.3607526
50
2.3261093
51
10.206076
0
ARC
8
DEFAULT_255_2_778
10
-0.3676654
20
4.7620164
40
1.4417366
50
9.0233413
51
10.096976
0
ARC
8
DEFAULT_255_2_778
10
-2.0755127
20
4.4468305
40
3.1784088
50
10.2933518
51
11.9813934
0
ARC
8
DEFAULT_255_2_778
10
-15.3263224
20
1.6644213
40
16.7181871
50
11.8820249
51
12.3139291
0
ARC
8
DEFAULT_255_2_778
10
14.604306
20
8.4166498
40
13.9616844
50
188.0923237
51
190.0356498
0
ARC
8
DEFAULT_255_2_778
10
13.6429664
20
8.2791493
40
12.9905616
50
185.7983423
51
188.0887734
0
ARC
8
DEFAULT_255_2_778
10
13.2823319
20
8.2403189
40
12.6278496
50
185.4344516
51
185.7883707
0
ARC
8
DEFAULT_255_2_778
10
13.1699279
20
8.2320624
40
12.5151689
50
179.9983595
51
185.4455583
0
ARC
8
DEFAULT_255_2_778
10
13.180388
20
8.2324204
40
12.525629
50
179.7911665
51
179.9999987
0
ARC
8
DEFAULT_255_2_778
10
1.8137861
20
10.6207785
40
2.6136975
50
243.6782376
51
269.9986489
0
ARC
8
DEFAULT_255_2_778
10
1.8137222
20
10.6190725
40
2.6119915
50
270.0000494
51
273.0519249
0
ARC
8
DEFAULT_255_2_778
10
1.8137312
20
10.6187462
40
2.6116652
50
273.0521094
51
277.4915962
0
ARC
8
DEFAULT_255_2_778
10
24.3422516
20
7.9599533
40
22.188118
50
179.8207361
51
179.9998325
0
ARC
8
DEFAULT_255_2_778
10
24.5078393
20
7.9611474
40
22.3537057
50
180.0028943
51
182.0357529
0
ARC
8
DEFAULT_255_2_778
10
24.5033656
20
7.9597511
40
22.3491852
50
182.0325828
51
183.9849694
0
ARC
8
DEFAULT_255_2_778
10
25.1588799
20
8.0003339
40
23.0059355
50
183.9723423
51
184.0937432
0
ARC
8
DEFAULT_255_2_778
10
25.4074813
20
8.0130217
40
23.2548089
50
184.0811978
51
185.8780219
0
ARC
8
DEFAULT_255_2_778
10
22.9907282
20
8.2784866
40
11.6223139
50
347.783207
51
359.9979665
0
ARC
8
DEFAULT_255_2_778
10
34.6630169
20
5.7995475
40
0.3137829
50
176.4321947
51
179.7350491
0
ARC
8
DEFAULT_255_2_778
10
34.3745559
20
5.7944579
40
0.0261497
50
165.5151755
51
218.1567561
0
ARC
8
DEFAULT_255_2_778
10
34.35434
20
5.7804311
40
0.002157
50
260.7590409
51
270.0567188
0
ARC
8
DEFAULT_255_2_778
10
23.0114866
20
8.2740842
40
11.6927257
50
342.9088325
51
347.6754033
0
ARC
8
DEFAULT_255_2_778
10
32.772368
20
5.2817413
40
1.5052294
50
306.5013931
51
342.8853022
0
ARC
8
DEFAULT_255_2_778
10
32.7787377
20
5.2752408
40
1.4962155
50
288.1872662
51
306.4533935
0
ARC
8
DEFAULT_255_2_778
10
32.7780023
20
5.2708235
40
1.4922498
50
269.9554571
51
288.2670322
0
ARC
8
DEFAULT_255_2_778
10
32.743007
20
3.8757291
40
0.0516023
50
175.8812516
51
197.3113528
0
ARC
8
DEFAULT_255_2_778
10
32.7588969
20
3.8796096
40
0.0673592
50
179.9505392
51
180.1481106
0
ARC
8
DEFAULT_255_2_778
10
33.2812047
20
3.8689137
40
0.589765
50
173.8211774
51
178.9551921
0
ARC
8
DEFAULT_255_2_778
10
34.376144
20
3.7686128
40
1.6892365
50
173.5978176
51
174.4361981
0
ARC
8
DEFAULT_255_2_778
10
40.8577655
20
2.9808868
40
8.2184928
50
171.4766191
51
173.1790403
0
ARC
8
DEFAULT_255_2_778
10
10.2379522
20
7.9799875
40
22.7979906
50
356.0556603
51
357.9894236
0
ARC
8
DEFAULT_255_2_778
10
9.7665725
20
7.9870157
40
23.2693284
50
358.01285
51
358.0439689
0
ARC
8
DEFAULT_255_2_778
10
10.8256537
20
7.9639457
40
22.2100807
50
358.0101937
51
0.002875
0
ARC
8
DEFAULT_255_2_778
10
10.6531332
20
7.9651297
40
22.3826013
50
359.999822
51
0.1644554
0
ARC
8
DEFAULT_255_2_778
10
33.3762965
20
10.6207306
40
2.6136514
50
262.5109581
51
266.7832188
0
ARC
8
DEFAULT_255_2_778
10
33.376244
20
10.6198406
40
2.6127598
50
266.7832727
51
269.9999165
0
ARC
8
DEFAULT_255_2_778
10
33.3762077
20
10.62031
40
2.6132289
50
270.0007125
51
296.3241643
0
ARC
8
DEFAULT_255_2_778
10
22.0654247
20
8.2326871
40
12.4697
50
359.99975
51
0.208545
0
ARC
8
DEFAULT_255_2_778
10
21.984121
20
8.2337617
40
12.5510039
50
354.5622439
51
359.9948458
0
ARC
8
DEFAULT_255_2_778
10
21.4590694
20
8.2887536
40
13.078905
50
352.0648142
51
354.5403915
0
ARC
8
DEFAULT_255_2_778
10
20.7788266
20
8.3886099
40
13.7664207
50
349.9411579
51
352.0440427
0
ARC
8
DEFAULT_255_2_778
10
34.835149
20
4.8778046
40
0.7101836
50
168.9457378
51
174.0194409
0
ARC
8
DEFAULT_255_2_778
10
34.2781798
20
4.9378993
40
0.1499945
50
174.6827466
51
179.5202211
0
ARC
8
DEFAULT_255_2_778
10
34.1527824
20
4.9370329
40
0.0246831
50
175.067306
51
202.2812079
0
ARC
8
DEFAULT_255_2_778
10
32.6935505
20
5.3605523
40
1.5002015
50
273.5534258
51
343.2290324
0
ARC
8
DEFAULT_255_2_778
10
32.6936413
20
5.3698574
40
1.5094831
50
270.0152139
51
273.5280929
0
ARC
8
DEFAULT_255_2_778
10
32.7509457
20
5.2894984
40
1.5111295
50
270.1515284
51
306.3088333
0
ARC
8
DEFAULT_255_2_778
10
32.7432745
20
5.2863103
40
1.5131246
50
306.6143952
51
342.7249456
0
ARC
8
DEFAULT_255_2_778
10
13.8444492
20
127.2161532
40
13.1948992
50
171.4895034
51
175.076233
0
ARC
8
DEFAULT_255_2_778
10
14.5267683
20
127.107362
40
13.8858067
50
169.5465535
51
171.4622026
0
ARC
8
DEFAULT_255_2_778
10
14.9192061
20
127.0382647
40
14.2842683
50
168.9812927
51
169.559598
0
ARC
8
DEFAULT_255_2_778
10
14.5428726
20
127.1117359
40
13.9008301
50
168.4517991
51
168.9820688
0
ARC
8
DEFAULT_255_2_778
10
0.5884778
20
130.6827589
40
0.4943805
50
348.331869
51
354.2044981
0
ARC
8
DEFAULT_255_2_778
10
1.0057517
20
130.6383187
40
0.0747809
50
355.7964503
51
359.7082611
0
ARC
8
DEFAULT_255_2_778
10
1.0662923
20
130.6391251
40
0.0142888
50
355.2344309
51
21.9844117
0
ARC
8
DEFAULT_255_2_778
10
2.5169711
20
130.2198992
40
1.4988214
50
121.1011876
51
163.5443843
0
ARC
8
DEFAULT_255_2_778
10
2.5173558
20
130.2216671
40
1.497507
50
89.992869
51
121.1487298
0
ARC
8
DEFAULT_255_2_778
10
32.6710771
20
130.2199389
40
1.4992353
50
47.5932213
51
89.9936912
0
ARC
8
DEFAULT_255_2_778
10
32.6731942
20
130.2204367
40
1.4974406
50
16.449778
51
47.6401903
0
ARC
8
DEFAULT_255_2_778
10
34.121636
20
130.6391781
40
0.0133861
50
156.6940988
51
185.355256
0
ARC
8
DEFAULT_255_2_778
10
34.3758314
20
130.6514918
40
0.2678667
50
182.9023369
51
190.8910953
0
ARC
8
DEFAULT_255_2_778
10
35.408687
20
130.8184266
40
1.3140306
50
189.5295623
51
190.3753873
0
ARC
8
DEFAULT_255_2_778
10
39.4349906
20
131.6444445
40
5.4239669
50
191.2985456
51
192.9766198
0
ARC
8
DEFAULT_255_2_778
10
21.3161211
20
127.2130499
40
13.2235743
50
4.9265594
51
8.4971767
0
ARC
8
DEFAULT_255_2_778
10
23.0568784
20
127.3642438
40
9.9768646
50
0.0028631
51
4.9226947
0
ARC
8
DEFAULT_255_2_778
10
17.999199
20
127.3656094
40
15.0345437
50
359.9834787
51
359.9966957
0
ARC
8
DEFAULT_255_2_778
10
22.9928031
20
127.3614946
40
11.540339
50
359.9989054
51
4.9071721
0
LINE
8
DEFAULT_255_2_778
10
26.2948422
20
3.4785741
11
26.2948422
21
2.5784741
0
LINE
8
DEFAULT_255_2_778
10
26.2948422
20
2.5784741
11
22.0948422
21
2.5784741
0
LINE
8
DEFAULT_255_2_778
10
26.2948422
20
3.2544741
11
22.0948422
21
3.2544741
0
LINE
8
DEFAULT_255_2_778
10
22.0948422
20
3.3483741
11
26.2948422
21
3.3483741
0
LINE
8
DEFAULT_255_2_778
10
11.0947422
20
2.5786741
11
6.8947422
21
2.5786741
0
LINE
8
DEFAULT_255_2_778
10
6.8947422
20
2.5786741
11
6.8947422
21
3.4787741
0
LINE
8
DEFAULT_255_2_778
10
11.0947422
20
3.2546741
11
6.8947422
21
3.2546741
0
LINE
8
DEFAULT_255_2_778
10
6.8947422
20
3.3486741
11
11.0947422
21
3.3486741
0
LINE
8
DEFAULT_255_2_778
10
22.0948422
20
133.0611741
11
26.2948422
21
133.0611741
0
LINE
8
DEFAULT_255_2_778
10
26.2948422
20
133.0611741
11
26.2948422
21
132.1610741
0
LINE
8
DEFAULT_255_2_778
10
26.2948422
20
132.2911741
11
22.0948422
21
132.2911741
0
LINE
8
DEFAULT_255_2_778
10
22.0948422
20
132.3851741
11
26.2948422
21
132.3851741
0
LINE
8
DEFAULT_255_2_778
10
6.8947422
20
132.1610741
11
6.8947422
21
133.0611741
0
LINE
8
DEFAULT_255_2_778
10
6.8947422
20
133.0611741
11
11.0947422
21
133.0611741
0
LINE
8
DEFAULT_255_2_778
10
11.0947422
20
132.2914741
11
6.8947422
21
132.2914741
0
LINE
8
DEFAULT_255_2_778
10
6.8947422
20
132.3853741
11
11.0947422
21
132.3853741
0
LINE
8
DEFAULT_255_2_778
10
22.0948422
20
1.5785741
11
22.0948422
21
1.8785741
0
LINE
8
DEFAULT_255_2_778
10
22.0948422
20
2.2786741
11
22.0948422
21
3.7785741
0
LINE
8
DEFAULT_255_2_778
10
18.3083422
20
3.7785741
11
18.3083422
21
3.3560741
0
LINE
8
DEFAULT_255_2_778
10
18.3083422
20
3.3560741
11
18.2702422
21
3.0895741
0
LINE
8
DEFAULT_255_2_778
10
18.2702422
20
3.0895741
11
18.2477422
21
3.0218741
0
LINE
8
DEFAULT_255_2_778
10
18.2477422
20
3.0218741
11
18.1842422
21
2.8951741
0
LINE
8
DEFAULT_255_2_778
10
18.1842422
20
2.8951741
11
18.0221422
21
2.7329741
0
LINE
8
DEFAULT_255_2_778
10
18.0221422
20
2.7329741
11
17.9080422
21
2.6644741
0
LINE
8
DEFAULT_255_2_778
10
17.9080422
20
2.6644741
11
17.7757422
21
2.6424741
0
LINE
8
DEFAULT_255_2_778
10
17.7757422
20
2.6424741
11
17.5448422
21
2.6424741
0
LINE
8
DEFAULT_255_2_778
10
17.5448422
20
2.6424741
11
17.4125422
21
2.6644741
0
LINE
8
DEFAULT_255_2_778
10
17.4125422
20
2.6644741
11
17.2984422
21
2.7329741
0
LINE
8
DEFAULT_255_2_778
10
17.2984422
20
2.7329741
11
17.1362422
21
2.8951741
0
LINE
8
DEFAULT_255_2_778
10
17.1362422
20
2.8951741
11
17.0727422
21
3.0218741
0
LINE
8
DEFAULT_255_2_778
10
17.0727422
20
3.0218741
11
17.0502422
21
3.0895741
0
LINE
8
DEFAULT_255_2_778
10
17.0502422
20
3.0895741
11
17.0121422
21
3.3560741
0
LINE
8
DEFAULT_255_2_778
10
17.0121422
20
3.3560741
11
17.0121422
21
3.7785741
0
LINE
8
DEFAULT_255_2_778
10
18.1271422
20
3.7785741
11
18.1284422
21
3.3687741
0
LINE
8
DEFAULT_255_2_778
10
18.1284422
20
3.3687741
11
18.0946422
21
3.1311741
0
LINE
8
DEFAULT_255_2_778
10
18.0946422
20
3.1311741
11
18.0811422
21
3.0909741
0
LINE
8
DEFAULT_255_2_778
10
18.0811422
20
3.0909741
11
18.0363422
21
3.0017741
0
LINE
8
DEFAULT_255_2_778
10
18.0363422
20
3.0017741
11
17.9104422
21
2.8758741
0
LINE
8
DEFAULT_255_2_778
10
17.9104422
20
2.8758741
11
17.8445422
21
2.8363741
0
LINE
8
DEFAULT_255_2_778
10
17.8445422
20
2.8363741
11
17.7607422
21
2.8223741
0
LINE
8
DEFAULT_255_2_778
10
17.7607422
20
2.8223741
11
17.5596422
21
2.8223741
0
LINE
8
DEFAULT_255_2_778
10
17.5596422
20
2.8223741
11
17.4757422
21
2.8363741
0
LINE
8
DEFAULT_255_2_778
10
17.4757422
20
2.8363741
11
17.4098422
21
2.8758741
0
LINE
8
DEFAULT_255_2_778
10
17.4098422
20
2.8758741
11
17.2839422
21
3.0017741
0
LINE
8
DEFAULT_255_2_778
10
17.2839422
20
3.0017741
11
17.2392422
21
3.0909741
0
LINE
8
DEFAULT_255_2_778
10
17.2392422
20
3.0909741
11
17.2257422
21
3.1311741
0
LINE
8
DEFAULT_255_2_778
10
17.2257422
20
3.1311741
11
17.1918422
21
3.3687741
0
LINE
8
DEFAULT_255_2_778
10
17.1918422
20
3.3687741
11
17.1931422
21
3.7785741
0
LINE
8
DEFAULT_255_2_778
10
13.9163422
20
3.7785741
11
14.5841422
21
2.6286741
0
LINE
8
DEFAULT_255_2_778
10
14.5841422
20
2.6286741
11
14.8338422
21
2.6286741
0
LINE
8
DEFAULT_255_2_778
10
14.8338422
20
2.6286741
11
14.8338422
21
3.7785741
0
LINE
8
DEFAULT_255_2_778
10
13.4966422
20
3.7785741
11
13.4966422
21
2.6286741
0
LINE
8
DEFAULT_255_2_778
10
13.4966422
20
2.6286741
11
13.6916422
21
2.6286741
0
LINE
8
DEFAULT_255_2_778
10
13.6916422
20
2.6286741
11
13.6916422
21
3.7785741
0
LINE
8
DEFAULT_255_2_778
10
12.6423422
20
3.7785741
11
12.6423422
21
3.2253741
0
LINE
8
DEFAULT_255_2_778
10
12.6423422
20
3.2253741
11
12.6092422
21
3.0763741
0
LINE
8
DEFAULT_255_2_778
10
12.6092422
20
3.0763741
11
12.5621422
21
2.9821741
0
LINE
8
DEFAULT_255_2_778
10
12.5621422
20
2.9821741
11
12.5018422
21
2.9067741
0
LINE
8
DEFAULT_255_2_778
10
12.5018422
20
2.9067741
11
12.4126422
21
2.8475741
0
LINE
8
DEFAULT_255_2_778
10
12.4126422
20
2.8475741
11
12.3071422
21
2.8173741
0
LINE
8
DEFAULT_255_2_778
10
12.3071422
20
2.8173741
11
12.0708422
21
2.8173741
0
LINE
8
DEFAULT_255_2_778
10
12.0708422
20
2.8173741
11
11.9806422
21
2.8475741
0
LINE
8
DEFAULT_255_2_778
10
11.9806422
20
2.8475741
11
11.8718422
21
2.9096741
0
LINE
8
DEFAULT_255_2_778
10
11.8718422
20
2.9096741
11
11.8136422
21
2.9824741
0
LINE
8
DEFAULT_255_2_778
10
11.8136422
20
2.9824741
11
11.7665422
21
3.0766741
0
LINE
8
DEFAULT_255_2_778
10
11.7665422
20
3.0766741
11
11.7334422
21
3.2255741
0
LINE
8
DEFAULT_255_2_778
10
11.7334422
20
3.2255741
11
11.7334422
21
3.7788741
0
LINE
8
DEFAULT_255_2_778
10
11.5443422
20
3.7788741
11
11.5443422
21
3.2046741
0
LINE
8
DEFAULT_255_2_778
10
11.5443422
20
3.2046741
11
11.5869422
21
3.0128741
0
LINE
8
DEFAULT_255_2_778
10
11.5869422
20
3.0128741
11
11.6533422
21
2.8797741
0
LINE
8
DEFAULT_255_2_778
10
11.6533422
20
2.8797741
11
11.7464422
21
2.7631741
0
LINE
8
DEFAULT_255_2_778
10
11.7464422
20
2.7631741
11
11.9028422
21
2.6736741
0
LINE
8
DEFAULT_255_2_778
10
11.9028422
20
2.6736741
11
12.0398422
21
2.6278741
0
LINE
8
DEFAULT_255_2_778
10
12.0398422
20
2.6278741
11
12.3335422
21
2.6278741
0
LINE
8
DEFAULT_255_2_778
10
12.3335422
20
2.6278741
11
12.4931422
21
2.6734741
0
LINE
8
DEFAULT_255_2_778
10
12.4931422
20
2.6734741
11
12.6312422
21
2.7654741
0
LINE
8
DEFAULT_255_2_778
10
12.6312422
20
2.7654741
11
12.7225422
21
2.8795741
0
LINE
8
DEFAULT_255_2_778
10
12.7225422
20
2.8795741
11
12.7889422
21
3.0126741
0
LINE
8
DEFAULT_255_2_778
10
12.7889422
20
3.0126741
11
12.8315422
21
3.2044741
0
LINE
8
DEFAULT_255_2_778
10
12.8315422
20
3.2044741
11
12.8315422
21
3.7785741
0
LINE
8
DEFAULT_255_2_778
10
11.6948422
20
0.0786741
11
21.4947422
21
0.0786741
0
LINE
8
DEFAULT_255_2_778
10
21.1333422
20
-0.1213259
11
12.0562422
21
-0.1213259
0
LINE
8
DEFAULT_255_2_778
10
15.5553422
20
1.9286741
11
17.6339422
21
1.9286741
0
LINE
8
DEFAULT_255_2_778
10
17.6339422
20
1.9286741
11
16.5946422
21
0.1286741
0
LINE
8
DEFAULT_255_2_778
10
16.5946422
20
0.1286741
11
15.5553422
21
1.9286741
0
LINE
8
DEFAULT_255_2_778
10
12.5947422
20
-0.2213259
11
20.5946422
21
-0.2213259
0
LINE
8
DEFAULT_255_2_778
10
20.9835422
20
-0.1700259
11
12.2057422
21
-0.1700259
0
LINE
8
DEFAULT_255_2_778
10
18.5287422
20
2.2786741
11
14.6605422
21
2.2786741
0
LINE
8
DEFAULT_255_2_778
10
16.6235422
20
0.1786741
11
21.6143422
21
0.1786741
0
LINE
8
DEFAULT_255_2_778
10
11.5747422
20
0.1786741
11
16.5655422
21
0.1786741
0
LINE
8
DEFAULT_255_2_778
10
11.0945422
20
1.2787741
11
15.2376422
21
1.2787741
0
LINE
8
DEFAULT_255_2_778
10
15.2376422
20
1.2787741
11
15.2953422
21
1.1787741
0
LINE
8
DEFAULT_255_2_778
10
15.2953422
20
1.1787741
11
11.0982422
21
1.1787741
0
LINE
8
DEFAULT_255_2_778
10
11.0982422
20
1.1787741
11
11.0947422
21
1.2787741
0
LINE
8
DEFAULT_255_2_778
10
11.0947422
20
1.2787741
11
11.0947422
21
1.2787741
0
LINE
8
DEFAULT_255_2_778
10
11.0947422
20
1.2787741
11
11.0947422
21
1.5788741
0
LINE
8
DEFAULT_255_2_778
10
11.0947422
20
1.5788741
11
15.0648422
21
1.5788741
0
LINE
8
DEFAULT_255_2_778
10
15.0648422
20
1.5788741
11
15.1225422
21
1.4788741
0
LINE
8
DEFAULT_255_2_778
10
15.1225422
20
1.4788741
11
11.0947422
21
1.4788741
0
LINE
8
DEFAULT_255_2_778
10
15.1225422
20
1.4788741
11
15.2378422
21
1.2787741
0
LINE
8
DEFAULT_255_2_778
10
17.9514422
20
1.2787741
11
18.0668422
21
1.4788741
0
LINE
8
DEFAULT_255_2_778
10
22.0948422
20
134.0609741
11
22.0948422
21
133.7609741
0
LINE
8
DEFAULT_255_2_778
10
22.0948422
20
133.3609741
11
22.0948422
21
131.8609741
0
LINE
8
DEFAULT_255_2_778
10
11.0947422
20
134.0609741
11
11.0947422
21
133.7609741
0
LINE
8
DEFAULT_255_2_778
10
11.0947422
20
133.3609741
11
11.0947422
21
131.8609741
0
LINE
8
DEFAULT_255_2_778
10
14.8812422
20
131.8609741
11
14.8812422
21
132.2835741
0
LINE
8
DEFAULT_255_2_778
10
14.8812422
20
132.2835741
11
14.9193422
21
132.5499741
0
LINE
8
DEFAULT_255_2_778
10
14.9193422
20
132.5499741
11
14.9418422
21
132.6176741
0
LINE
8
DEFAULT_255_2_778
10
14.9418422
20
132.6176741
11
15.0053422
21
132.7444741
0
LINE
8
DEFAULT_255_2_778
10
15.0053422
20
132.7444741
11
15.1675422
21
132.9066741
0
LINE
8
DEFAULT_255_2_778
10
15.1675422
20
132.9066741
11
15.2815422
21
132.9751741
0
LINE
8
DEFAULT_255_2_778
10
15.2815422
20
132.9751741
11
15.4138422
21
132.9971741
0
LINE
8
DEFAULT_255_2_778
10
15.4138422
20
132.9971741
11
15.6448422
21
132.9971741
0
LINE
8
DEFAULT_255_2_778
10
15.6448422
20
132.9971741
11
15.7771422
21
132.9751741
0
LINE
8
DEFAULT_255_2_778
10
15.7771422
20
132.9751741
11
15.8911422
21
132.9066741
0
LINE
8
DEFAULT_255_2_778
10
15.8911422
20
132.9066741
11
16.0533422
21
132.7444741
0
LINE
8
DEFAULT_255_2_778
10
16.0533422
20
132.7444741
11
16.1168422
21
132.6176741
0
LINE
8
DEFAULT_255_2_778
10
16.1168422
20
132.6176741
11
16.1393422
21
132.5499741
0
LINE
8
DEFAULT_255_2_778
10
16.1393422
20
132.5499741
11
16.1774422
21
132.2835741
0
LINE
8
DEFAULT_255_2_778
10
16.1774422
20
132.2835741
11
16.1774422
21
131.8609741
0
LINE
8
DEFAULT_255_2_778
10
15.0624422
20
131.8609741
11
15.0611422
21
132.2708741
0
LINE
8
DEFAULT_255_2_778
10
15.0611422
20
132.2708741
11
15.0950422
21
132.5084741
0
LINE
8
DEFAULT_255_2_778
10
15.0950422
20
132.5084741
11
15.1085422
21
132.5486741
0
LINE
8
DEFAULT_255_2_778
10
15.1085422
20
132.5486741
11
15.1532422
21
132.6377741
0
LINE
8
DEFAULT_255_2_778
10
15.1532422
20
132.6377741
11
15.2791422
21
132.7637741
0
LINE
8
DEFAULT_255_2_778
10
15.2791422
20
132.7637741
11
15.3450422
21
132.8031741
0
LINE
8
DEFAULT_255_2_778
10
15.3450422
20
132.8031741
11
15.4289422
21
132.8171741
0
LINE
8
DEFAULT_255_2_778
10
15.4289422
20
132.8171741
11
15.6300422
21
132.8171741
0
LINE
8
DEFAULT_255_2_778
10
15.6300422
20
132.8171741
11
15.7138422
21
132.8031741
0
LINE
8
DEFAULT_255_2_778
10
15.7138422
20
132.8031741
11
15.7797422
21
132.7637741
0
LINE
8
DEFAULT_255_2_778
10
15.7797422
20
132.7637741
11
15.9057422
21
132.6377741
0
LINE
8
DEFAULT_255_2_778
10
15.9057422
20
132.6377741
11
15.9504422
21
132.5486741
0
LINE
8
DEFAULT_255_2_778
10
15.9504422
20
132.5486741
11
15.9639422
21
132.5084741
0
LINE
8
DEFAULT_255_2_778
10
15.9639422
20
132.5084741
11
15.9977422
21
132.2708741
0
LINE
8
DEFAULT_255_2_778
10
15.9977422
20
132.2708741
11
15.9964422
21
131.8609741
0
LINE
8
DEFAULT_255_2_778
10
20.5478422
20
131.8609741
11
20.5478422
21
132.4142741
0
LINE
8
DEFAULT_255_2_778
10
20.5478422
20
132.4142741
11
20.5808422
21
132.5631741
0
LINE
8
DEFAULT_255_2_778
10
20.5808422
20
132.5631741
11
20.6279422
21
132.6573741
0
LINE
8
DEFAULT_255_2_778
10
20.6279422
20
132.6573741
11
20.6883422
21
132.7327741
0
LINE
8
DEFAULT_255_2_778
10
20.6883422
20
132.7327741
11
20.7774422
21
132.7920741
0
LINE
8
DEFAULT_255_2_778
10
20.7774422
20
132.7920741
11
20.8830422
21
132.8222741
0
LINE
8
DEFAULT_255_2_778
10
20.8830422
20
132.8222741
11
21.1193422
21
132.8222741
0
LINE
8
DEFAULT_255_2_778
10
21.1193422
20
132.8222741
11
21.2095422
21
132.7920741
0
LINE
8
DEFAULT_255_2_778
10
21.2095422
20
132.7920741
11
21.3182422
21
132.7298741
0
LINE
8
DEFAULT_255_2_778
10
21.3182422
20
132.7298741
11
21.3764422
21
132.6571741
0
LINE
8
DEFAULT_255_2_778
10
21.3764422
20
132.6571741
11
21.4235422
21
132.5629741
0
LINE
8
DEFAULT_255_2_778
10
21.4235422
20
132.5629741
11
21.4566422
21
132.4139741
0
LINE
8
DEFAULT_255_2_778
10
21.4566422
20
132.4139741
11
21.4566422
21
131.8607741
0
LINE
8
DEFAULT_255_2_778
10
21.6458422
20
131.8607741
11
21.6458422
21
132.4348741
0
LINE
8
DEFAULT_255_2_778
10
21.6458422
20
132.4348741
11
21.6032422
21
132.6266741
0
LINE
8
DEFAULT_255_2_778
10
21.6032422
20
132.6266741
11
21.5368422
21
132.7597741
0
LINE
8
DEFAULT_255_2_778
10
21.5368422
20
132.7597741
11
21.4437422
21
132.8764741
0
LINE
8
DEFAULT_255_2_778
10
21.4437422
20
132.8764741
11
21.2873422
21
132.9658741
0
LINE
8
DEFAULT_255_2_778
10
21.2873422
20
132.9658741
11
21.1502422
21
133.0116741
0
LINE
8
DEFAULT_255_2_778
10
21.1502422
20
133.0116741
11
20.8565422
21
133.0116741
0
LINE
8
DEFAULT_255_2_778
10
20.8565422
20
133.0116741
11
20.6970422
21
132.9661741
0
LINE
8
DEFAULT_255_2_778
10
20.6970422
20
132.9661741
11
20.5589422
21
132.8740741
0
LINE
8
DEFAULT_255_2_778
10
20.5589422
20
132.8740741
11
20.4676422
21
132.7600741
0
LINE
8
DEFAULT_255_2_778
10
20.4676422
20
132.7600741
11
20.4012422
21
132.6269741
0
LINE
8
DEFAULT_255_2_778
10
20.4012422
20
132.6269741
11
20.3586422
21
132.4351741
0
LINE
8
DEFAULT_255_2_778
10
20.3586422
20
132.4351741
11
20.3586422
21
131.8609741
0
LINE
8
DEFAULT_255_2_778
10
19.2735422
20
131.8609741
11
18.6057422
21
133.0108741
0
LINE
8
DEFAULT_255_2_778
10
18.6057422
20
133.0108741
11
18.3560422
21
133.0108741
0
LINE
8
DEFAULT_255_2_778
10
18.3560422
20
133.0108741
11
18.3560422
21
131.8609741
0
LINE
8
DEFAULT_255_2_778
10
19.6932422
20
131.8609741
11
19.6932422
21
133.0108741
0
LINE
8
DEFAULT_255_2_778
10
19.6932422
20
133.0108741
11
19.4982422
21
133.0108741
0
LINE
8
DEFAULT_255_2_778
10
19.4982422
20
133.0108741
11
19.4982422
21
131.8609741
0
LINE
8
DEFAULT_255_2_778
10
16.5946422
20
135.5109741
11
17.6339422
21
133.7109741
0
LINE
8
DEFAULT_255_2_778
10
17.6339422
20
133.7109741
11
15.5553422
21
133.7109741
0
LINE
8
DEFAULT_255_2_778
10
15.5553422
20
133.7109741
11
16.5946422
21
135.5109741
0
LINE
8
DEFAULT_255_2_778
10
20.5946422
20
135.8609741
11
12.5947422
21
135.8609741
0
LINE
8
DEFAULT_255_2_778
10
11.6948422
20
135.5609741
11
21.4947422
21
135.5609741
0
LINE
8
DEFAULT_255_2_778
10
21.1333422
20
135.7609741
11
12.0562422
21
135.7609741
0
LINE
8
DEFAULT_255_2_778
10
14.6605422
20
133.3609741
11
18.5287422
21
133.3609741
0
LINE
8
DEFAULT_255_2_778
10
16.5658422
20
135.4609741
11
11.5750422
21
135.4609741
0
LINE
8
DEFAULT_255_2_778
10
21.6146422
20
135.4609741
11
16.6235422
21
135.4609741
0
LINE
8
DEFAULT_255_2_778
10
32.7813422
20
3.7783741
11
32.8654422
21
3.7783741
0
LINE
8
DEFAULT_255_2_778
10
32.8654422
20
3.7783741
11
33.0567422
21
3.7783741
0
LINE
8
DEFAULT_255_2_778
10
34.4942422
20
4.8496741
11
34.2844422
21
4.8414741
0
LINE
8
DEFAULT_255_2_778
10
34.2844422
20
4.8414741
11
34.2154422
21
4.8384741
0
LINE
8
DEFAULT_255_2_778
10
34.7308422
20
8.2780741
11
34.7308422
21
127.3609741
0
LINE
8
DEFAULT_255_2_778
10
34.2154422
20
130.8005741
11
34.3561422
21
130.7949741
0
LINE
8
DEFAULT_255_2_778
10
34.3561422
20
130.7949741
11
34.4381422
21
130.7917741
0
LINE
8
DEFAULT_255_2_778
10
33.0012422
20
131.8609741
11
32.9123422
21
131.8609741
0
LINE
8
DEFAULT_255_2_778
10
32.9123422
20
131.8609741
11
32.7813422
21
131.8609741
0
LINE
8
DEFAULT_255_2_778
10
32.7813422
20
131.8609741
11
2.4079422
21
131.8609741
0
LINE
8
DEFAULT_255_2_778
10
2.4079422
20
131.8609741
11
2.3238422
21
131.8609741
0
LINE
8
DEFAULT_255_2_778
10
2.3238422
20
131.8609741
11
2.1881422
21
131.8609741
0
LINE
8
DEFAULT_255_2_778
10
34.9948422
20
8.2780741
11
34.9948422
21
102.0024741
0
LINE
8
DEFAULT_255_2_778
10
34.9948422
20
102.0024741
11
34.9416422
21
108.1024741
0
LINE
8
DEFAULT_255_2_778
10
34.9416422
20
108.1024741
11
34.9416422
21
127.3609741
0
LINE
8
DEFAULT_255_2_778
10
5.9944422
20
95.6921741
11
5.9944422
21
95.7609741
0
LINE
8
DEFAULT_255_2_778
10
4.7945422
20
95.7609741
11
4.7945422
21
95.6921741
0
LINE
8
DEFAULT_255_2_778
10
3.7944422
20
95.6921741
11
3.7944422
21
95.7609741
0
LINE
8
DEFAULT_255_2_778
10
2.2558422
20
95.6921741
11
2.1891422
21
95.7609741
0
LINE
8
DEFAULT_255_2_778
10
0.7580422
20
95.7609741
11
0.7580422
21
95.6921741
0
LINE
8
DEFAULT_255_2_778
10
33.0522422
20
92.0192741
11
33.0522422
21
90.6193741
0
LINE
8
DEFAULT_255_2_778
10
33.5804422
20
87.0193741
11
33.5804422
21
87.1194741
0
LINE
8
DEFAULT_255_2_778
10
33.5804422
20
90.6193741
11
33.5804422
21
92.0192741
0
LINE
8
DEFAULT_255_2_778
10
32.9327422
20
92.0192741
11
32.9327422
21
90.6193741
0
LINE
8
DEFAULT_255_2_778
10
31.7185422
20
87.0193741
11
31.7185422
21
87.1194741
0
LINE
8
DEFAULT_255_2_778
10
31.7185422
20
90.6193741
11
31.7185422
21
92.0192741
0
LINE
8
DEFAULT_255_2_778
10
34.4305422
20
87.0191741
11
34.4305422
21
87.1191741
0
LINE
8
DEFAULT_255_2_778
10
34.4305422
20
90.6190741
11
34.4305422
21
92.0189741
0
LINE
8
DEFAULT_255_2_778
10
33.5804422
20
20.8190741
11
33.5804422
21
83.0993741
0
LINE
8
DEFAULT_255_2_778
10
33.7804422
20
83.0993741
11
33.7804422
21
20.8193741
0
LINE
8
DEFAULT_255_2_778
10
34.4305422
20
20.8193741
11
34.4305422
21
83.0993741
0
LINE
8
DEFAULT_255_2_778
10
32.9327422
20
13.0993741
11
32.9342422
21
11.5993741
0
LINE
8
DEFAULT_255_2_778
10
30.7184422
20
12.5992741
11
30.7184422
21
11.5991741
0
LINE
8
DEFAULT_255_2_778
10
34.4302422
20
11.5991741
11
34.4302422
21
13.0990741
0
LINE
8
DEFAULT_255_2_778
10
30.6183422
20
89.4990741
11
30.4183422
21
89.4990741
0
LINE
8
DEFAULT_255_2_778
10
30.4183422
20
90.6190741
11
30.6183422
21
90.6190741
0
LINE
8
DEFAULT_255_2_778
10
30.6183422
20
89.2990741
11
30.4183422
21
89.2990741
0
LINE
8
DEFAULT_255_2_778
10
30.4183422
20
14.4190741
11
30.6183422
21
14.4190741
0
LINE
8
DEFAULT_255_2_778
10
30.6183422
20
13.0990741
11
30.4183422
21
13.0990741
0
LINE
8
DEFAULT_255_2_778
10
30.6183422
20
14.6190741
11
30.4183422
21
14.6190741
0
LINE
8
DEFAULT_255_2_778
10
32.9991422
20
95.7609741
11
32.9324422
21
95.6921741
0
LINE
8
DEFAULT_255_2_778
10
33.3682422
20
87.0191741
11
33.3682422
21
87.1191741
0
LINE
8
DEFAULT_255_2_778
10
31.8682422
20
87.1191741
11
31.8682422
21
87.0191741
0
LINE
8
DEFAULT_255_2_778
10
30.6183422
20
87.0191741
11
30.6183422
21
87.1191741
0
LINE
8
DEFAULT_255_2_778
10
33.7804422
20
92.0192741
11
33.7804422
21
90.6193741
0
LINE
8
DEFAULT_255_2_778
10
33.7804422
20
87.1194741
11
33.7804422
21
87.0193741
0
LINE
8
DEFAULT_255_2_778
10
34.5331422
20
95.7612741
11
34.7043422
21
95.7612741
0
LINE
8
DEFAULT_255_2_778
10
34.7043422
20
95.7612741
11
34.7043422
21
127.3609741
0
LINE
8
DEFAULT_255_2_778
10
34.7043422
20
127.3609741
11
34.5331422
21
127.3609741
0
LINE
8
DEFAULT_255_2_778
10
34.5331422
20
127.3609741
11
34.5331422
21
95.7609741
0
LINE
8
DEFAULT_255_2_778
10
34.5331422
20
95.7609741
11
33.0337422
21
95.7609741
0
LINE
8
DEFAULT_255_2_778
10
33.0337422
20
95.7609741
11
33.0337422
21
127.3609741
0
LINE
8
DEFAULT_255_2_778
10
34.7263422
20
127.3609741
11
34.7263422
21
95.7609741
0
LINE
8
DEFAULT_255_2_778
10
34.7263422
20
95.7609741
11
34.7046422
21
95.7609741
0
LINE
8
DEFAULT_255_2_778
10
11.7943422
20
95.7609741
11
11.7943422
21
95.6921741
0
LINE
8
DEFAULT_255_2_778
10
13.9946422
20
95.7609741
11
13.9946422
21
95.6921741
0
LINE
8
DEFAULT_255_2_778
10
12.9944422
20
95.6921741
11
12.9944422
21
95.7609741
0
LINE
8
DEFAULT_255_2_778
10
34.2421422
20
94.7920741
11
34.2421422
21
95.6921741
0
LINE
8
DEFAULT_255_2_778
10
34.2421422
20
95.6921741
11
34.2333422
21
95.6921741
0
LINE
8
DEFAULT_255_2_778
10
34.5657422
20
87.1191741
11
34.5657422
21
90.6190741
0
LINE
8
DEFAULT_255_2_778
10
33.0337422
20
90.6190741
11
31.6187422
21
90.6190741
0
LINE
8
DEFAULT_255_2_778
10
31.6187422
20
90.6190741
11
31.6187422
21
87.1191741
0
LINE
8
DEFAULT_255_2_778
10
31.6187422
20
87.1191741
11
33.0337422
21
87.1191741
0
LINE
8
DEFAULT_255_2_778
10
31.6187422
20
87.1191741
11
30.6186422
21
87.1191741
0
LINE
8
DEFAULT_255_2_778
10
30.6186422
20
87.1191741
11
30.6186422
21
90.6190741
0
LINE
8
DEFAULT_255_2_778
10
30.6186422
20
90.6190741
11
31.6187422
21
90.6190741
0
LINE
8
DEFAULT_255_2_778
10
34.5334422
20
87.1191741
11
34.5334422
21
90.6190741
0
LINE
8
DEFAULT_255_2_778
10
34.5334422
20
90.6190741
11
33.0340422
21
90.6190741
0
LINE
8
DEFAULT_255_2_778
10
33.0340422
20
90.6190741
11
33.0340422
21
87.1191741
0
LINE
8
DEFAULT_255_2_778
10
33.0340422
20
87.1191741
11
34.5659422
21
87.1191741
0
LINE
8
DEFAULT_255_2_778
10
34.5659422
20
87.1191741
11
34.5659422
21
90.6190741
0
LINE
8
DEFAULT_255_2_778
10
34.5659422
20
90.6190741
11
34.5336422
21
90.6190741
0
LINE
8
DEFAULT_255_2_778
10
33.0343422
20
86.0190741
11
33.4692422
21
86.0190741
0
LINE
8
DEFAULT_255_2_778
10
33.4692422
20
86.0190741
11
33.4692422
21
84.0989741
0
LINE
8
DEFAULT_255_2_778
10
33.4692422
20
84.0989741
11
33.0343422
21
84.0989741
0
LINE
8
DEFAULT_255_2_778
10
34.5336422
20
87.0188741
11
34.5413422
21
87.0188741
0
LINE
8
DEFAULT_255_2_778
10
34.5413422
20
87.0188741
11
34.5426422
21
83.0988741
0
LINE
8
DEFAULT_255_2_778
10
34.5426422
20
83.0988741
11
34.5336422
21
83.0988741
0
LINE
8
DEFAULT_255_2_778
10
34.5659422
20
13.0987741
11
34.5659422
21
16.5986741
0
LINE
8
DEFAULT_255_2_778
10
31.6190422
20
13.0987741
11
30.6189422
21
13.0987741
0
LINE
8
DEFAULT_255_2_778
10
30.6189422
20
13.0987741
11
30.6189422
21
16.5986741
0
LINE
8
DEFAULT_255_2_778
10
34.5424422
20
19.8186741
11
34.5424422
21
20.8187741
0
LINE
8
DEFAULT_255_2_778
10
34.5429422
20
16.5986741
11
34.5424422
21
17.1987741
0
LINE
8
DEFAULT_255_2_778
10
8.8947422
20
3.7780741
11
8.8947422
21
3.4780741
0
LINE
8
DEFAULT_255_2_778
10
8.8947422
20
3.4780741
11
6.8947422
21
3.4780741
0
LINE
8
DEFAULT_255_2_778
10
26.2948422
20
3.4780741
11
24.2948422
21
3.4780741
0
LINE
8
DEFAULT_255_2_778
10
24.2948422
20
3.4780741
11
24.2948422
21
3.7780741
0
LINE
8
DEFAULT_255_2_778
10
24.2948422
20
131.8607741
11
24.2948422
21
132.1607741
0
LINE
8
DEFAULT_255_2_778
10
24.2948422
20
132.1607741
11
26.2948422
21
132.1607741
0
LINE
8
DEFAULT_255_2_778
10
6.8947422
20
132.1607741
11
8.8947422
21
132.1607741
0
LINE
8
DEFAULT_255_2_778
10
8.8947422
20
132.1607741
11
8.8947422
21
131.8607741
0
LINE
8
DEFAULT_255_2_778
10
11.0947422
20
2.2781741
11
11.0947422
21
3.7780741
0
LINE
8
DEFAULT_255_2_778
10
15.5598422
20
3.7780741
11
15.5598422
21
2.6570741
0
LINE
8
DEFAULT_255_2_778
10
15.5598422
20
2.6570741
11
16.4965422
21
2.6570741
0
LINE
8
DEFAULT_255_2_778
10
16.4965422
20
2.6570741
11
16.4965422
21
2.8406741
0
LINE
8
DEFAULT_255_2_778
10
16.4965422
20
2.8406741
11
15.7435422
21
2.8406741
0
LINE
8
DEFAULT_255_2_778
10
15.7435422
20
2.8406741
11
15.7435422
21
3.7780741
0
LINE
8
DEFAULT_255_2_778
10
14.6388422
20
3.7780741
11
14.6388422
21
2.9223741
0
LINE
8
DEFAULT_255_2_778
10
14.6388422
20
2.9223741
11
14.1419422
21
3.7780741
0
LINE
8
DEFAULT_255_2_778
10
20.4168422
20
3.7780741
11
20.4168422
21
2.6509741
0
LINE
8
DEFAULT_255_2_778
10
20.4168422
20
2.6509741
11
20.6078422
21
2.6509741
0
LINE
8
DEFAULT_255_2_778
10
20.6078422
20
2.6509741
11
20.6078422
21
3.1893741
0
LINE
8
DEFAULT_255_2_778
10
20.6078422
20
3.1893741
11
20.8327422
21
3.4565741
0
LINE
8
DEFAULT_255_2_778
10
20.8327422
20
3.4565741
11
21.4614422
21
2.6506741
0
LINE
8
DEFAULT_255_2_778
10
21.4614422
20
2.6506741
11
21.7037422
21
2.6506741
0
LINE
8
DEFAULT_255_2_778
10
21.7037422
20
2.6506741
11
20.9587422
21
3.6060741
0
LINE
8
DEFAULT_255_2_778
10
20.9587422
20
3.6060741
11
21.1031422
21
3.7777741
0
LINE
8
DEFAULT_255_2_778
10
20.8534422
20
3.7777741
11
20.6078422
21
3.4859741
0
LINE
8
DEFAULT_255_2_778
10
20.6078422
20
3.4859741
11
20.6078422
21
3.7777741
0
LINE
8
DEFAULT_255_2_778
10
18.9637422
20
3.7777741
11
18.9425422
21
3.6499741
0
LINE
8
DEFAULT_255_2_778
10
18.9425422
20
3.6499741
11
18.9425422
21
3.4298741
0
LINE
8
DEFAULT_255_2_778
10
18.9425422
20
3.4298741
11
18.9589422
21
3.2496741
0
LINE
8
DEFAULT_255_2_778
10
18.9589422
20
3.2496741
11
19.0235422
21
3.0718741
0
LINE
8
DEFAULT_255_2_778
10
19.0235422
20
3.0718741
11
19.0894422
21
2.9565741
0
LINE
8
DEFAULT_255_2_778
10
19.0894422
20
2.9565741
11
19.1185422
21
2.9131741
0
LINE
8
DEFAULT_255_2_778
10
19.1185422
20
2.9131741
11
19.1555422
21
2.8760741
0
LINE
8
DEFAULT_255_2_778
10
19.1555422
20
2.8760741
11
19.2040422
21
2.8517741
0
LINE
8
DEFAULT_255_2_778
10
19.2040422
20
2.8517741
11
19.3439422
21
2.8205741
0
LINE
8
DEFAULT_255_2_778
10
19.3439422
20
2.8205741
11
19.4479422
21
2.8205741
0
LINE
8
DEFAULT_255_2_778
10
19.4479422
20
2.8205741
11
19.5633422
21
2.8493741
0
LINE
8
DEFAULT_255_2_778
10
19.5633422
20
2.8493741
11
19.6641422
21
2.9213741
0
LINE
8
DEFAULT_255_2_778
10
19.6641422
20
2.9213741
11
19.7167422
21
2.9872741
0
LINE
8
DEFAULT_255_2_778
10
19.7167422
20
2.9872741
11
19.7651422
21
3.1485741
0
LINE
8
DEFAULT_255_2_778
10
19.7651422
20
3.1485741
11
19.9355422
21
3.0975741
0
LINE
8
DEFAULT_255_2_778
10
19.9355422
20
3.0975741
11
19.8771422
21
2.9030741
0
LINE
8
DEFAULT_255_2_778
10
19.8771422
20
2.9030741
11
19.7874422
21
2.7908741
0
LINE
8
DEFAULT_255_2_778
10
19.7874422
20
2.7908741
11
19.6389422
21
2.6847741
0
LINE
8
DEFAULT_255_2_778
10
19.6389422
20
2.6847741
11
19.4696422
21
2.6424741
0
LINE
8
DEFAULT_255_2_778
10
19.4696422
20
2.6424741
11
19.3243422
21
2.6424741
0
LINE
8
DEFAULT_255_2_778
10
19.3243422
20
2.6424741
11
19.1439422
21
2.6826741
0
LINE
8
DEFAULT_255_2_778
10
19.1439422
20
2.6826741
11
19.0500422
21
2.7297741
0
LINE
8
DEFAULT_255_2_778
10
19.0500422
20
2.7297741
11
18.9801422
21
2.7996741
0
LINE
8
DEFAULT_255_2_778
10
18.9801422
20
2.7996741
11
18.9380422
21
2.8628741
0
LINE
8
DEFAULT_255_2_778
10
18.9380422
20
2.8628741
11
18.8616422
21
2.9967741
0
LINE
8
DEFAULT_255_2_778
10
18.8616422
20
2.9967741
11
18.7838422
21
3.2105741
0
LINE
8
DEFAULT_255_2_778
10
18.7838422
20
3.2105741
11
18.7645422
21
3.4219741
0
LINE
8
DEFAULT_255_2_778
10
18.7645422
20
3.4219741
11
18.7645422
21
3.6648741
0
LINE
8
DEFAULT_255_2_778
10
18.7645422
20
3.6648741
11
18.7833422
21
3.7777741
0
LINE
8
DEFAULT_255_2_778
10
17.5474422
20
0.5779741
11
17.6628422
21
0.7779741
0
LINE
8
DEFAULT_255_2_778
10
11.0947422
20
2.1778741
11
11.0947422
21
2.2778741
0
LINE
8
DEFAULT_255_2_778
10
11.0947422
20
2.2778741
11
14.6605422
21
2.2778741
0
LINE
8
DEFAULT_255_2_778
10
14.6605422
20
2.2778741
11
14.7182422
21
2.1778741
0
LINE
8
DEFAULT_255_2_778
10
21.9212422
20
0.5779741
11
17.5474422
21
0.5779741
0
LINE
8
DEFAULT_255_2_778
10
17.5474422
20
0.5779741
11
17.4897422
21
0.4778741
0
LINE
8
DEFAULT_255_2_778
10
17.4897422
20
0.4778741
11
21.8635422
21
0.4778741
0
LINE
8
DEFAULT_255_2_778
10
11.1490422
20
0.8779741
11
15.4688422
21
0.8779741
0
LINE
8
DEFAULT_255_2_778
10
15.4688422
20
0.8779741
11
15.5265422
21
0.7779741
0
LINE
8
DEFAULT_255_2_778
10
22.0945422
20
2.1778741
11
22.0945422
21
2.2778741
0
LINE
8
DEFAULT_255_2_778
10
22.0945422
20
2.2778741
11
18.5287422
21
2.2778741
0
LINE
8
DEFAULT_255_2_778
10
18.5287422
20
2.2778741
11
18.4711422
21
2.1778741
0
LINE
8
DEFAULT_255_2_778
10
22.0403422
20
0.8779741
11
17.7204422
21
0.8779741
0
LINE
8
DEFAULT_255_2_778
10
17.7204422
20
0.8779741
11
17.6628422
21
0.7779741
0
LINE
8
DEFAULT_255_2_778
10
17.6628422
20
0.7779741
11
22.0088422
21
0.7779741
0
LINE
8
DEFAULT_255_2_778
10
18.3554422
20
1.9780741
11
18.2978422
21
1.8780741
0
LINE
8
DEFAULT_255_2_778
10
18.2978422
20
1.8780741
11
22.0945422
21
1.8780741
0
LINE
8
DEFAULT_255_2_778
10
22.0945422
20
1.8780741
11
22.0945422
21
2.1781741
0
LINE
8
DEFAULT_255_2_778
10
22.0945422
20
2.1781741
11
18.4711422
21
2.1781741
0
LINE
8
DEFAULT_255_2_778
10
18.4711422
20
2.1781741
11
18.3557422
21
1.9780741
0
LINE
8
DEFAULT_255_2_778
10
18.3557422
20
1.9780741
11
22.0948422
21
1.9780741
0
LINE
8
DEFAULT_255_2_778
10
22.0948422
20
1.2779741
11
22.0948422
21
1.5780741
0
LINE
8
DEFAULT_255_2_778
10
22.0948422
20
1.5780741
11
18.1247422
21
1.5780741
0
LINE
8
DEFAULT_255_2_778
10
18.1247422
20
1.5780741
11
18.0670422
21
1.4780741
0
LINE
8
DEFAULT_255_2_778
10
18.0670422
20
1.4780741
11
22.0948422
21
1.4780741
0
LINE
8
DEFAULT_255_2_778
10
22.0948422
20
1.2779741
11
17.9514422
21
1.2779741
0
LINE
8
DEFAULT_255_2_778
10
17.9514422
20
1.2779741
11
17.8937422
21
1.1779741
0
LINE
8
DEFAULT_255_2_778
10
17.8937422
20
1.1779741
11
22.0914422
21
1.1779741
0
LINE
8
DEFAULT_255_2_778
10
11.0947422
20
1.9778741
11
11.0947422
21
2.1778741
0
LINE
8
DEFAULT_255_2_778
10
11.0947422
20
2.1778741
11
14.7185422
21
2.1778741
0
LINE
8
DEFAULT_255_2_778
10
14.7185422
20
2.1778741
11
14.8338422
21
1.9778741
0
LINE
8
DEFAULT_255_2_778
10
11.0947422
20
1.5777741
11
11.0947422
21
1.9778741
0
LINE
8
DEFAULT_255_2_778
10
11.0947422
20
1.9778741
11
14.8338422
21
1.9778741
0
LINE
8
DEFAULT_255_2_778
10
14.8338422
20
1.9778741
11
14.8915422
21
1.8778741
0
LINE
8
DEFAULT_255_2_778
10
14.8915422
20
1.8778741
11
11.0947422
21
1.8778741
0
LINE
8
DEFAULT_255_2_778
10
11.1805422
20
0.7779741
11
15.5265422
21
0.7779741
0
LINE
8
DEFAULT_255_2_778
10
15.5265422
20
0.7779741
11
15.6419422
21
0.5779741
0
LINE
8
DEFAULT_255_2_778
10
15.6419422
20
0.5779741
11
11.2680422
21
0.5779741
0
LINE
8
DEFAULT_255_2_778
10
11.3257422
20
0.4778741
11
15.6995422
21
0.4778741
0
LINE
8
DEFAULT_255_2_778
10
15.6995422
20
0.4778741
11
15.6419422
21
0.5779741
0
LINE
8
DEFAULT_255_2_778
10
2.6241422
20
3.7785741
11
14.9947422
21
3.7785741
0
LINE
8
DEFAULT_255_2_778
10
30.7189422
20
11.7785741
11
32.9332422
21
11.7785741
0
LINE
8
DEFAULT_255_2_778
10
17.6294422
20
131.8609741
11
17.6294422
21
132.9820741
0
LINE
8
DEFAULT_255_2_778
10
17.6294422
20
132.9820741
11
16.6928422
21
132.9820741
0
LINE
8
DEFAULT_255_2_778
10
16.6928422
20
132.9820741
11
16.6928422
21
132.7983741
0
LINE
8
DEFAULT_255_2_778
10
16.6928422
20
132.7983741
11
17.4458422
21
132.7983741
0
LINE
8
DEFAULT_255_2_778
10
17.4458422
20
132.7983741
11
17.4458422
21
131.8609741
0
LINE
8
DEFAULT_255_2_778
10
18.5504422
20
131.8609741
11
18.5504422
21
132.7166741
0
LINE
8
DEFAULT_255_2_778
10
18.5504422
20
132.7166741
11
19.0473422
21
131.8609741
0
LINE
8
DEFAULT_255_2_778
10
14.2256422
20
131.8609741
11
14.2467422
21
131.9887741
0
LINE
8
DEFAULT_255_2_778
10
14.2467422
20
131.9887741
11
14.2467422
21
132.2089741
0
LINE
8
DEFAULT_255_2_778
10
14.2467422
20
132.2089741
11
14.2303422
21
132.3890741
0
LINE
8
DEFAULT_255_2_778
10
14.2303422
20
132.3890741
11
14.1658422
21
132.5668741
0
LINE
8
DEFAULT_255_2_778
10
14.1658422
20
132.5668741
11
14.0999422
21
132.6822741
0
LINE
8
DEFAULT_255_2_778
10
14.0999422
20
132.6822741
11
14.0708422
21
132.7256741
0
LINE
8
DEFAULT_255_2_778
10
14.0708422
20
132.7256741
11
14.0337422
21
132.7626741
0
LINE
8
DEFAULT_255_2_778
10
14.0337422
20
132.7626741
11
13.9853422
21
132.7870741
0
LINE
8
DEFAULT_255_2_778
10
13.9853422
20
132.7870741
11
13.8453422
21
132.8182741
0
LINE
8
DEFAULT_255_2_778
10
13.8453422
20
132.8182741
11
13.7414422
21
132.8182741
0
LINE
8
DEFAULT_255_2_778
10
13.7414422
20
132.8182741
11
13.6260422
21
132.7894741
0
LINE
8
DEFAULT_255_2_778
10
13.6260422
20
132.7894741
11
13.5252422
21
132.7174741
0
LINE
8
DEFAULT_255_2_778
10
13.5252422
20
132.7174741
11
13.4725422
21
132.6515741
0
LINE
8
DEFAULT_255_2_778
10
13.4725422
20
132.6515741
11
13.4241422
21
132.4901741
0
LINE
8
DEFAULT_255_2_778
10
13.4241422
20
132.4901741
11
13.2537422
21
132.5412741
0
LINE
8
DEFAULT_255_2_778
10
13.2537422
20
132.5412741
11
13.3122422
21
132.7356741
0
LINE
8
DEFAULT_255_2_778
10
13.3122422
20
132.7356741
11
13.4019422
21
132.8478741
0
LINE
8
DEFAULT_255_2_778
10
13.4019422
20
132.8478741
11
13.5503422
21
132.9539741
0
LINE
8
DEFAULT_255_2_778
10
13.5503422
20
132.9539741
11
13.7197422
21
132.9963741
0
LINE
8
DEFAULT_255_2_778
10
13.7197422
20
132.9963741
11
13.8649422
21
132.9963741
0
LINE
8
DEFAULT_255_2_778
10
13.8649422
20
132.9963741
11
14.0454422
21
132.9560741
0
LINE
8
DEFAULT_255_2_778
10
14.0454422
20
132.9560741
11
14.1393422
21
132.9092741
0
LINE
8
DEFAULT_255_2_778
10
14.1393422
20
132.9092741
11
14.2091422
21
132.8394741
0
LINE
8
DEFAULT_255_2_778
10
14.2091422
20
132.8394741
11
14.2512422
21
132.7761741
0
LINE
8
DEFAULT_255_2_778
10
14.2512422
20
132.7761741
11
14.3277422
21
132.6422741
0
LINE
8
DEFAULT_255_2_778
10
14.3277422
20
132.6422741
11
14.4055422
21
132.4285741
0
LINE
8
DEFAULT_255_2_778
10
14.4055422
20
132.4285741
11
14.4248422
21
132.2171741
0
LINE
8
DEFAULT_255_2_778
10
14.4248422
20
132.2171741
11
14.4248422
21
131.9742741
0
LINE
8
DEFAULT_255_2_778
10
14.4248422
20
131.9742741
11
14.4060422
21
131.8612741
0
LINE
8
DEFAULT_255_2_778
10
12.7725422
20
131.8612741
11
12.7725422
21
132.9883741
0
LINE
8
DEFAULT_255_2_778
10
12.7725422
20
132.9883741
11
12.5814422
21
132.9883741
0
LINE
8
DEFAULT_255_2_778
10
12.5814422
20
132.9883741
11
12.5814422
21
132.4499741
0
LINE
8
DEFAULT_255_2_778
10
12.5814422
20
132.4499741
11
12.3565422
21
132.1827741
0
LINE
8
DEFAULT_255_2_778
10
12.3565422
20
132.1827741
11
11.7279422
21
132.9886741
0
LINE
8
DEFAULT_255_2_778
10
11.7279422
20
132.9886741
11
11.4855422
21
132.9886741
0
LINE
8
DEFAULT_255_2_778
10
11.4855422
20
132.9886741
11
12.2306422
21
132.0332741
0
LINE
8
DEFAULT_255_2_778
10
12.2306422
20
132.0332741
11
12.0861422
21
131.8615741
0
LINE
8
DEFAULT_255_2_778
10
12.3359422
20
131.8615741
11
12.5814422
21
132.1533741
0
LINE
8
DEFAULT_255_2_778
10
12.5814422
20
132.1533741
11
12.5814422
21
131.8615741
0
LINE
8
DEFAULT_255_2_778
10
15.5265422
20
134.8610741
11
15.4688422
21
134.7610741
0
LINE
8
DEFAULT_255_2_778
10
15.4688422
20
134.7610741
11
11.1490422
21
134.7610741
0
LINE
8
DEFAULT_255_2_778
10
20.9835422
20
135.8096741
11
12.2057422
21
135.8096741
0
LINE
8
DEFAULT_255_2_778
10
15.6421422
20
135.0611741
11
15.5268422
21
134.8610741
0
LINE
8
DEFAULT_255_2_778
10
15.5268422
20
134.8610741
11
11.1805422
21
134.8610741
0
LINE
8
DEFAULT_255_2_778
10
22.0948422
20
133.4611741
11
22.0948422
21
133.3611741
0
LINE
8
DEFAULT_255_2_778
10
22.0948422
20
133.3611741
11
18.5287422
21
133.3611741
0
LINE
8
DEFAULT_255_2_778
10
18.5287422
20
133.3611741
11
18.4711422
21
133.4611741
0
LINE
8
DEFAULT_255_2_778
10
11.2680422
20
135.0611741
11
15.6421422
21
135.0611741
0
LINE
8
DEFAULT_255_2_778
10
15.6421422
20
135.0611741
11
15.6998422
21
135.1611741
0
LINE
8
DEFAULT_255_2_778
10
15.6998422
20
135.1611741
11
11.3257422
21
135.1611741
0
LINE
8
DEFAULT_255_2_778
10
11.0945422
20
133.4611741
11
11.0945422
21
133.6612741
0
LINE
8
DEFAULT_255_2_778
10
11.0945422
20
133.6612741
11
14.8336422
21
133.6612741
0
LINE
8
DEFAULT_255_2_778
10
14.8336422
20
133.6612741
11
14.7182422
21
133.4611741
0
LINE
8
DEFAULT_255_2_778
10
14.7182422
20
133.4611741
11
11.0947422
21
133.4611741
0
LINE
8
DEFAULT_255_2_778
10
11.0947422
20
133.4611741
11
11.0947422
21
133.3611741
0
LINE
8
DEFAULT_255_2_778
10
11.0947422
20
133.3611741
11
14.6605422
21
133.3611741
0
LINE
8
DEFAULT_255_2_778
10
14.6605422
20
133.3611741
11
14.7182422
21
133.4611741
0
LINE
8
DEFAULT_255_2_778
10
22.0911422
20
134.4613741
11
17.8937422
21
134.4613741
0
LINE
8
DEFAULT_255_2_778
10
17.8937422
20
134.4613741
11
17.9514422
21
134.3612741
0
LINE
8
DEFAULT_255_2_778
10
21.8635422
20
135.1613741
11
17.4897422
21
135.1613741
0
LINE
8
DEFAULT_255_2_778
10
17.4897422
20
135.1613741
11
17.5474422
21
135.0613741
0
LINE
8
DEFAULT_255_2_778
10
11.0947422
20
134.1610741
11
11.0947422
21
134.0609741
0
LINE
8
DEFAULT_255_2_778
10
11.0947422
20
134.0609741
11
15.0648422
21
134.0609741
0
LINE
8
DEFAULT_255_2_778
10
15.0648422
20
134.0609741
11
15.1225422
21
134.1610741
0
LINE
8
DEFAULT_255_2_778
10
14.8338422
20
133.6609741
11
14.8915422
21
133.7609741
0
LINE
8
DEFAULT_255_2_778
10
14.8915422
20
133.7609741
11
11.0947422
21
133.7609741
0
LINE
8
DEFAULT_255_2_778
10
11.0947422
20
133.7609741
11
11.0947422
21
133.6609741
0
LINE
8
DEFAULT_255_2_778
10
22.0948422
20
133.6609741
11
22.0948422
21
133.4609741
0
LINE
8
DEFAULT_255_2_778
10
22.0948422
20
133.4609741
11
18.4711422
21
133.4609741
0
LINE
8
DEFAULT_255_2_778
10
18.4711422
20
133.4609741
11
18.3557422
21
133.6609741
0
LINE
8
DEFAULT_255_2_778
10
22.0948422
20
134.1610741
11
22.0948422
21
134.0609741
0
LINE
8
DEFAULT_255_2_778
10
22.0948422
20
134.0609741
11
18.1247422
21
134.0609741
0
LINE
8
DEFAULT_255_2_778
10
18.1247422
20
134.0609741
11
18.0670422
21
134.1610741
0
LINE
8
DEFAULT_255_2_778
10
11.0947422
20
134.3610741
11
11.0947422
21
134.1610741
0
LINE
8
DEFAULT_255_2_778
10
11.0947422
20
134.1610741
11
15.1225422
21
134.1610741
0
LINE
8
DEFAULT_255_2_778
10
15.1225422
20
134.1610741
11
15.2378422
21
134.3610741
0
LINE
8
DEFAULT_255_2_778
10
22.0945422
20
134.3610741
11
22.0945422
21
134.1610741
0
LINE
8
DEFAULT_255_2_778
10
22.0945422
20
134.1610741
11
18.0670422
21
134.1610741
0
LINE
8
DEFAULT_255_2_778
10
18.0670422
20
134.1610741
11
17.9517422
21
134.3610741
0
LINE
8
DEFAULT_255_2_778
10
17.9517422
20
134.3610741
11
22.0945422
21
134.3610741
0
LINE
8
DEFAULT_255_2_778
10
15.2955422
20
134.4610741
11
11.0979422
21
134.4610741
0
LINE
8
DEFAULT_255_2_778
10
11.0945422
20
134.3610741
11
15.2376422
21
134.3610741
0
LINE
8
DEFAULT_255_2_778
10
15.2376422
20
134.3610741
11
15.2955422
21
134.4610741
0
LINE
8
DEFAULT_255_2_778
10
17.6628422
20
134.8610741
11
17.7204422
21
134.7610741
0
LINE
8
DEFAULT_255_2_778
10
17.7204422
20
134.7610741
11
22.0403422
21
134.7610741
0
LINE
8
DEFAULT_255_2_778
10
22.0088422
20
134.8610741
11
17.6628422
21
134.8610741
0
LINE
8
DEFAULT_255_2_778
10
17.6628422
20
134.8610741
11
17.5474422
21
135.0611741
0
LINE
8
DEFAULT_255_2_778
10
17.5474422
20
135.0611741
11
21.9215422
21
135.0611741
0
LINE
8
DEFAULT_255_2_778
10
18.2980422
20
133.7609741
11
22.0948422
21
133.7609741
0
LINE
8
DEFAULT_255_2_778
10
22.0948422
20
133.7609741
11
22.0948422
21
133.6609741
0
LINE
8
DEFAULT_255_2_778
10
22.0948422
20
133.6609741
11
18.3557422
21
133.6609741
0
LINE
8
DEFAULT_255_2_778
10
18.3557422
20
133.6609741
11
18.2980422
21
133.7609741
0
LINE
8
DEFAULT_255_2_778
10
2.4079422
20
3.7785741
11
2.2907422
21
3.7785741
0
LINE
8
DEFAULT_255_2_778
10
2.2907422
20
3.7785741
11
2.1322422
21
3.7785741
0
LINE
8
DEFAULT_255_2_778
10
0.1947422
20
8.2783741
11
0.1947422
21
16.7783741
0
LINE
8
DEFAULT_255_2_778
10
0.1947422
20
16.7783741
11
0.2122422
21
18.7783741
0
LINE
8
DEFAULT_255_2_778
10
0.2122422
20
18.7783741
11
0.2820422
21
18.7783741
0
LINE
8
DEFAULT_255_2_778
10
0.3082422
20
21.7784741
11
0.3082422
21
21.7784741
0
LINE
8
DEFAULT_255_2_778
10
0.3082422
20
21.7784741
11
0.3082422
21
113.8611741
0
LINE
8
DEFAULT_255_2_778
10
0.3082422
20
113.8611741
11
0.2820422
21
116.8609741
0
LINE
8
DEFAULT_255_2_778
10
0.2820422
20
116.8609741
11
0.2820422
21
116.8609741
0
LINE
8
DEFAULT_255_2_778
10
0.2820422
20
116.8609741
11
0.2653422
21
116.8609741
0
LINE
8
DEFAULT_255_2_778
10
0.2653422
20
116.8609741
11
0.2653422
21
116.8609741
0
LINE
8
DEFAULT_255_2_778
10
0.2479422
20
118.8609741
11
0.2479422
21
127.3609741
0
LINE
8
DEFAULT_255_2_778
10
34.7308422
20
8.2783741
11
34.9946422
21
8.2783741
0
LINE
8
DEFAULT_255_2_778
10
0.4585422
20
127.3609741
11
0.2479422
21
127.3609741
0
LINE
8
DEFAULT_255_2_778
10
0.7511422
20
130.7917741
11
0.8908422
21
130.7973741
0
LINE
8
DEFAULT_255_2_778
10
0.8908422
20
130.7973741
11
0.9739422
21
130.8007741
0
LINE
8
DEFAULT_255_2_778
10
0.4585422
20
127.3612741
11
0.4585422
21
8.2786741
0
LINE
8
DEFAULT_255_2_778
10
34.7308422
20
127.3609741
11
34.9414422
21
127.3609741
0
LINE
8
DEFAULT_255_2_778
10
2.6241422
20
4.0783741
11
2.6241422
21
3.7783741
0
LINE
8
DEFAULT_255_2_778
10
2.6241422
20
3.7783741
11
2.4082422
21
3.7783741
0
LINE
8
DEFAULT_255_2_778
10
0.4588422
20
8.2783741
11
0.1947422
21
8.2783741
0
LINE
8
DEFAULT_255_2_778
10
0.6950422
20
4.8498741
11
0.7225422
21
4.8488741
0
LINE
8
DEFAULT_255_2_778
10
0.7225422
20
4.8488741
11
0.8331422
21
4.8445741
0
LINE
8
DEFAULT_255_2_778
10
0.8331422
20
4.8445741
11
0.9739422
21
4.8390741
0
LINE
8
DEFAULT_255_2_778
10
2.6241422
20
5.1025741
11
2.6241422
21
4.0786741
0
LINE
8
DEFAULT_255_2_778
10
2.6241422
20
4.0786741
11
2.4085422
21
4.0786741
0
LINE
8
DEFAULT_255_2_778
10
34.4310422
20
94.7923741
11
34.4310422
21
95.7612741
0
LINE
8
DEFAULT_255_2_778
10
33.0485422
20
11.7785741
11
33.0356422
21
11.7785741
0
LINE
8
DEFAULT_255_2_778
10
33.0356422
20
11.7785741
11
33.0356422
21
11.5993741
0
LINE
8
DEFAULT_255_2_778
10
33.0356422
20
11.5993741
11
34.5339422
21
11.5993741
0
LINE
8
DEFAULT_255_2_778
10
34.5339422
20
11.5993741
11
34.5339422
21
8.8588741
0
LINE
8
DEFAULT_255_2_778
10
33.5814422
20
12.2785741
11
33.5814422
21
13.0993741
0
LINE
8
DEFAULT_255_2_778
10
33.0533422
20
13.0993741
11
33.0533422
21
12.2785741
0
LINE
8
DEFAULT_255_2_778
10
33.0533422
20
12.2785741
11
33.5814422
21
12.2785741
0
LINE
8
DEFAULT_255_2_778
10
33.7814422
20
13.0993741
11
33.7814422
21
11.7785741
0
LINE
8
DEFAULT_255_2_778
10
33.7814422
20
11.7785741
11
33.0488422
21
11.7785741
0
LINE
8
DEFAULT_255_2_778
10
33.0533422
20
12.2785741
11
33.0491422
21
12.7786741
0
LINE
8
DEFAULT_255_2_778
10
34.4569422
20
5.7782741
11
34.4347422
21
5.7782741
0
LINE
8
DEFAULT_255_2_778
10
32.7612422
20
131.8392741
11
32.6718422
21
131.7191741
0
LINE
8
DEFAULT_255_2_778
10
32.6996422
20
131.4249741
11
32.7408422
21
131.0947741
0
LINE
8
DEFAULT_255_2_778
10
32.7408422
20
131.0947741
11
32.7932422
21
130.6605741
0
LINE
8
DEFAULT_255_2_778
10
32.7932422
20
130.6605741
11
32.8512422
21
130.1335741
0
LINE
8
DEFAULT_255_2_778
10
32.8512422
20
130.1335741
11
32.9078422
21
129.5387741
0
LINE
8
DEFAULT_255_2_778
10
32.9078422
20
129.5387741
11
32.9581422
21
128.8915741
0
LINE
8
DEFAULT_255_2_778
10
32.9581422
20
128.8915741
11
32.9975422
21
128.2205741
0
LINE
8
DEFAULT_255_2_778
10
32.9975422
20
128.2205741
11
2.1923422
21
128.2205741
0
LINE
8
DEFAULT_255_2_778
10
2.1923422
20
128.2205741
11
1.9055422
21
128.2451741
0
LINE
8
DEFAULT_255_2_778
10
1.9055422
20
128.2451741
11
1.6293422
21
128.2689741
0
LINE
8
DEFAULT_255_2_778
10
1.6293422
20
128.2689741
11
1.3742422
21
128.2909741
0
LINE
8
DEFAULT_255_2_778
10
1.3742422
20
128.2909741
11
1.1493422
21
128.3102741
0
LINE
8
DEFAULT_255_2_778
10
1.1493422
20
128.3102741
11
0.9633422
21
128.3261741
0
LINE
8
DEFAULT_255_2_778
10
0.9633422
20
128.3261741
11
0.8231422
21
128.3383741
0
LINE
8
DEFAULT_255_2_778
10
0.8231422
20
128.3383741
11
0.7337422
21
128.3459741
0
LINE
8
DEFAULT_255_2_778
10
0.7337422
20
128.3459741
11
0.6985422
21
128.3489741
0
LINE
8
DEFAULT_255_2_778
10
0.6561422
20
127.3614741
11
2.1555422
21
127.3614741
0
LINE
8
DEFAULT_255_2_778
10
2.1555422
20
127.3614741
11
2.1555422
21
95.7614741
0
LINE
8
DEFAULT_255_2_778
10
2.1555422
20
95.7614741
11
0.6559422
21
95.7614741
0
LINE
8
DEFAULT_255_2_778
10
0.6559422
20
95.7614741
11
0.6559422
21
127.3609741
0
LINE
8
DEFAULT_255_2_778
10
0.6559422
20
127.3609741
11
0.4847422
21
127.3609741
0
LINE
8
DEFAULT_255_2_778
10
0.9940422
20
130.7767741
11
0.9787422
21
130.8007741
0
LINE
8
DEFAULT_255_2_778
10
2.4127422
20
131.8609741
11
2.4288422
21
131.8392741
0
LINE
8
DEFAULT_255_2_778
10
2.4288422
20
131.8392741
11
2.5180422
21
131.7191741
0
LINE
8
DEFAULT_255_2_778
10
2.4905422
20
131.4257741
11
2.4495422
21
131.0976741
0
LINE
8
DEFAULT_255_2_778
10
2.4495422
20
131.0976741
11
2.3968422
21
130.6613741
0
LINE
8
DEFAULT_255_2_778
10
2.3968422
20
130.6613741
11
2.3391422
21
130.1369741
0
LINE
8
DEFAULT_255_2_778
10
2.3391422
20
130.1369741
11
2.2823422
21
129.5405741
0
LINE
8
DEFAULT_255_2_778
10
2.2823422
20
129.5405741
11
2.2320422
21
128.8944741
0
LINE
8
DEFAULT_255_2_778
10
2.2320422
20
128.8944741
11
2.1923422
21
128.2197741
0
LINE
8
DEFAULT_255_2_778
10
32.7607422
20
131.8392741
11
32.7768422
21
131.8609741
0
LINE
8
DEFAULT_255_2_778
10
34.2109422
20
130.8007741
11
34.1955422
21
130.7767741
0
LINE
8
DEFAULT_255_2_778
10
0.5633422
20
95.6921741
11
0.8633422
21
95.6921741
0
LINE
8
DEFAULT_255_2_778
10
14.9947422
20
3.8603741
11
14.9947422
21
3.7783741
0
LINE
8
DEFAULT_255_2_778
10
14.9947422
20
3.7783741
11
32.7535422
21
3.7783741
0
LINE
8
DEFAULT_255_2_778
10
2.2508422
20
3.8619741
11
2.2674422
21
3.8777741
0
LINE
8
DEFAULT_255_2_778
10
0.9559422
20
95.6921741
11
0.8636422
21
95.6921741
0
LINE
8
DEFAULT_255_2_778
10
0.8636422
20
95.6921741
11
0.8636422
21
94.7920741
0
LINE
8
DEFAULT_255_2_778
10
0.5500422
20
8.2783741
11
0.5500422
21
95.6921741
0
LINE
8
DEFAULT_255_2_778
10
0.5500422
20
95.6921741
11
0.5630422
21
95.6921741
0
LINE
8
DEFAULT_255_2_778
10
0.5630422
20
95.6921741
11
0.5630422
21
94.7920741
0
LINE
8
DEFAULT_255_2_778
10
0.5630422
20
94.7920741
11
0.6556422
21
94.7920741
0
LINE
8
DEFAULT_255_2_778
10
34.5331422
20
11.5991741
11
34.6114422
21
11.5991741
0
LINE
8
DEFAULT_255_2_778
10
34.6114422
20
11.5991741
11
34.6128422
21
11.2784741
0
LINE
8
DEFAULT_255_2_778
10
34.6128422
20
11.2784741
11
34.6128422
21
8.2783741
0
LINE
8
DEFAULT_255_2_778
10
34.5331422
20
94.7920741
11
34.5421422
21
94.7920741
0
LINE
8
DEFAULT_255_2_778
10
34.5421422
20
94.7920741
11
34.5421422
21
92.0192741
0
LINE
8
DEFAULT_255_2_778
10
34.5421422
20
92.0192741
11
34.5331422
21
92.0192741
0
LINE
8
DEFAULT_255_2_778
10
0.6559422
20
95.7609741
11
0.4847422
21
95.7609741
0
LINE
8
DEFAULT_255_2_778
10
0.4847422
20
95.7609741
11
0.4847422
21
127.3609741
0
LINE
8
DEFAULT_255_2_778
10
0.4847422
20
127.3609741
11
0.4630422
21
127.3609741
0
LINE
8
DEFAULT_255_2_778
10
0.4630422
20
127.3609741
11
0.4630422
21
95.7609741
0
LINE
8
DEFAULT_255_2_778
10
0.4630422
20
95.7609741
11
0.4847422
21
95.7609741
0
LINE
8
DEFAULT_255_2_778
10
34.5334422
20
20.8190741
11
34.5424422
21
20.8190741
0
LINE
8
DEFAULT_255_2_778
10
34.5424422
20
20.8190741
11
34.5424422
21
16.5989741
0
LINE
8
DEFAULT_255_2_778
10
34.5424422
20
16.5989741
11
34.5659422
21
16.5989741
0
LINE
8
DEFAULT_255_2_778
10
34.5659422
20
16.5989741
11
34.5659422
21
13.0990741
0
LINE
8
DEFAULT_255_2_778
10
34.5659422
20
13.0990741
11
34.5336422
21
13.0990741
0
LINE
8
DEFAULT_255_2_778
10
1.0797422
20
130.6441741
11
1.0236422
21
130.7309741
0
LINE
8
DEFAULT_255_2_778
10
1.0236422
20
130.7309741
11
0.9940422
21
130.7769741
0
LINE
8
DEFAULT_255_2_778
10
2.4286422
20
131.8392741
11
32.7607422
21
131.8392741
0
LINE
8
DEFAULT_255_2_778
10
34.7048422
20
127.3612741
11
34.7265422
21
127.3612741
0
LINE
8
DEFAULT_255_2_778
10
34.1952422
20
130.7772741
11
34.1394422
21
130.6904741
0
LINE
8
DEFAULT_255_2_778
10
34.1394422
20
130.6904741
11
34.1095422
21
130.6444741
0
LINE
8
DEFAULT_255_2_778
10
0.6559422
20
8.8588741
11
0.6559422
21
8.8588741
0
LINE
8
DEFAULT_255_2_778
10
0.6559422
20
8.8588741
11
0.6545422
21
8.2783741
0
LINE
8
DEFAULT_255_2_778
10
0.6545422
20
8.2783741
11
0.5500422
21
8.2783741
0
LINE
8
DEFAULT_255_2_778
10
1.0480422
20
4.9094741
11
1.0596422
21
4.9276741
0
LINE
8
DEFAULT_255_2_778
10
0.9556422
20
94.7920741
11
0.9556422
21
95.6921741
0
LINE
8
DEFAULT_255_2_778
10
0.9556422
20
95.6921741
11
2.1553422
21
95.6921741
0
LINE
8
DEFAULT_255_2_778
10
2.1553422
20
95.6921741
11
2.1553422
21
94.7920741
0
LINE
8
DEFAULT_255_2_778
10
2.1553422
20
94.7920741
11
0.6559422
21
94.7920741
0
LINE
8
DEFAULT_255_2_778
10
0.6559422
20
94.7920741
11
0.6559422
21
8.8585741
0
LINE
8
DEFAULT_255_2_778
10
0.6559422
20
8.8585741
11
2.1553422
21
8.8585741
0
LINE
8
DEFAULT_255_2_778
10
2.1553422
20
8.8585741
11
2.1553422
21
8.8585741
0
LINE
8
DEFAULT_255_2_778
10
2.1553422
20
8.8585741
11
2.1539422
21
8.0293741
0
LINE
8
DEFAULT_255_2_778
10
2.3500422
20
5.0988741
11
2.3471422
21
5.0012741
0
LINE
8
DEFAULT_255_2_778
10
2.3471422
20
5.0046741
11
2.3294422
21
4.5334741
0
LINE
8
DEFAULT_255_2_778
10
2.3294422
20
4.5334741
11
2.3098422
21
4.1839741
0
LINE
8
DEFAULT_255_2_778
10
1.0072422
20
5.2298741
11
0.9374422
21
5.5597741
0
LINE
8
DEFAULT_255_2_778
10
0.9374422
20
5.5597741
11
0.8562422
21
5.9836741
0
LINE
8
DEFAULT_255_2_778
10
2.2749422
20
5.6314741
11
2.3473422
21
5.0046741
0
LINE
8
DEFAULT_255_2_778
10
2.3473422
20
5.0046741
11
2.3471422
21
5.0046741
0
LINE
8
DEFAULT_255_2_778
10
33.0340422
20
92.0192741
11
34.5334422
21
92.0192741
0
LINE
8
DEFAULT_255_2_778
10
34.5334422
20
92.0192741
11
34.5334422
21
94.7920741
0
LINE
8
DEFAULT_255_2_778
10
34.5334422
20
94.7920741
11
33.0340422
21
94.7920741
0
LINE
8
DEFAULT_255_2_778
10
33.0340422
20
94.7920741
11
33.0340422
21
95.6921741
0
LINE
8
DEFAULT_255_2_778
10
33.0340422
20
95.6921741
11
2.1555422
21
95.6921741
0
LINE
8
DEFAULT_255_2_778
10
2.1555422
20
95.6921741
11
2.1555422
21
95.7609741
0
LINE
8
DEFAULT_255_2_778
10
2.1555422
20
95.7609741
11
33.0340422
21
95.7609741
0
LINE
8
DEFAULT_255_2_778
10
33.0340422
20
95.7609741
11
33.0353422
21
95.6921741
0
LINE
8
DEFAULT_255_2_778
10
33.0353422
20
95.6921741
11
34.2336422
21
95.6921741
0
LINE
8
DEFAULT_255_2_778
10
34.2336422
20
95.6921741
11
34.2336422
21
94.7920741
0
LINE
8
DEFAULT_255_2_778
10
33.0353422
20
8.0293741
11
33.0340422
21
8.8585741
0
LINE
8
DEFAULT_255_2_778
10
33.0340422
20
8.8585741
11
34.5334422
21
8.8585741
0
LINE
8
DEFAULT_255_2_778
10
34.5334422
20
8.8585741
11
34.5347422
21
8.2780741
0
LINE
8
DEFAULT_255_2_778
10
34.5347422
20
8.2780741
11
34.6130422
21
8.2780741
0
LINE
8
DEFAULT_255_2_778
10
34.3543422
20
5.7782741
11
34.3812422
21
5.7782741
0
LINE
8
DEFAULT_255_2_778
10
34.3812422
20
5.7782741
11
34.4323422
21
5.7782741
0
LINE
8
DEFAULT_255_2_778
10
34.4323422
20
5.7782741
11
34.4347422
21
5.7782741
0
LINE
8
DEFAULT_255_2_778
10
34.1878422
20
4.8376741
11
34.2109422
21
4.8387741
0
LINE
8
DEFAULT_255_2_778
10
2.3503422
20
5.1022741
11
14.9947422
21
5.1022741
0
LINE
8
DEFAULT_255_2_778
10
14.9947422
20
5.1022741
11
14.9947422
21
3.8603741
0
LINE
8
DEFAULT_255_2_778
10
14.9947422
20
3.8603741
11
32.6937422
21
3.8603741
0
LINE
8
DEFAULT_255_2_778
10
32.7300422
20
4.1989741
11
32.7848422
21
4.5781741
0
LINE
8
DEFAULT_255_2_778
10
32.7848422
20
4.5781741
11
32.8525422
21
5.0845741
0
LINE
8
DEFAULT_255_2_778
10
32.8525422
20
5.0845741
11
32.9218422
21
5.6997741
0
LINE
8
DEFAULT_255_2_778
10
32.9218422
20
5.6997741
11
32.9819422
21
6.4117741
0
LINE
8
DEFAULT_255_2_778
10
34.3336422
20
5.9841741
11
34.2521422
21
5.5586741
0
LINE
8
DEFAULT_255_2_778
10
34.2521422
20
5.5586741
11
34.1825422
21
5.2300741
0
LINE
8
DEFAULT_255_2_778
10
34.1825422
20
5.2300741
11
34.1381422
21
5.0139741
0
LINE
8
DEFAULT_255_2_778
10
32.6940422
20
3.8603741
11
32.7549422
21
3.7783741
0
LINE
8
DEFAULT_255_2_778
10
34.1881422
20
4.8369741
11
34.1299422
21
4.9276741
0
LINE
8
DEFAULT_255_2_778
10
33.0343422
20
19.8189741
11
33.4692422
21
19.8189741
0
LINE
8
DEFAULT_255_2_778
10
33.4692422
20
19.8189741
11
33.4692422
21
17.6988741
0
LINE
8
DEFAULT_255_2_778
10
33.4692422
20
17.6988741
11
33.0343422
21
17.6988741
0
LINE
8
DEFAULT_255_2_778
10
0.9234422
20
129.8945741
11
0.9869422
21
130.1930741
0
LINE
8
DEFAULT_255_2_778
10
0.9869422
20
130.1930741
11
1.0392422
21
130.4272741
0
LINE
8
DEFAULT_255_2_778
10
1.0392422
20
130.4272741
11
1.0726422
21
130.5827741
0
LINE
8
DEFAULT_255_2_778
10
2.5175422
20
131.7191741
11
32.6712422
21
131.7191741
0
LINE
8
DEFAULT_255_2_778
10
34.1495422
20
130.4264741
11
34.2024422
21
130.1906741
0
LINE
8
DEFAULT_255_2_778
10
34.2024422
20
130.1906741
11
34.2656422
21
129.8935741
0
LINE
8
DEFAULT_255_2_778
10
34.2656422
20
129.8935741
11
34.3320422
21
129.5466741
0
LINE
8
DEFAULT_255_2_778
10
34.3320422
20
129.5466741
11
34.3945422
21
129.1669741
0
LINE
8
DEFAULT_255_2_778
10
34.4908422
20
128.3486741
11
34.4556422
21
128.3457741
0
LINE
8
DEFAULT_255_2_778
10
34.4556422
20
128.3457741
11
34.3662422
21
128.3380741
0
LINE
8
DEFAULT_255_2_778
10
34.3662422
20
128.3380741
11
34.2259422
21
128.3258741
0
LINE
8
DEFAULT_255_2_778
10
34.2259422
20
128.3258741
11
34.0399422
21
128.3100741
0
LINE
8
DEFAULT_255_2_778
10
34.0399422
20
128.3100741
11
33.8150422
21
128.2906741
0
LINE
8
DEFAULT_255_2_778
10
33.8150422
20
128.2906741
11
33.5600422
21
128.2687741
0
LINE
8
DEFAULT_255_2_778
10
33.5600422
20
128.2687741
11
33.2838422
21
128.2449741
0
LINE
8
DEFAULT_255_2_778
10
33.2838422
20
128.2449741
11
32.9969422
21
128.2203741
0
LINE
8
DEFAULT_255_2_778
10
33.0337422
20
127.3612741
11
34.5331422
21
127.3612741
0
LINE
8
DEFAULT_255_2_778
10
33.0337422
20
87.0193741
11
34.5331422
21
87.0193741
0
LINE
8
DEFAULT_255_2_778
10
34.5331422
20
87.0193741
11
34.5331422
21
83.0993741
0
LINE
8
DEFAULT_255_2_778
10
34.5331422
20
83.0993741
11
33.4687422
21
83.0993741
0
LINE
8
DEFAULT_255_2_778
10
33.4687422
20
83.0993741
11
33.4687422
21
20.8193741
0
LINE
8
DEFAULT_255_2_778
10
33.4687422
20
20.8193741
11
34.5331422
21
20.8193741
0
LINE
8
DEFAULT_255_2_778
10
34.5331422
20
20.8193741
11
34.5331422
21
13.0993741
0
LINE
8
DEFAULT_255_2_778
10
34.5331422
20
13.0993741
11
33.0337422
21
13.0993741
0
LINE
8
DEFAULT_255_2_778
10
33.0337422
20
13.0993741
11
33.0337422
21
17.6993741
0
LINE
8
DEFAULT_255_2_778
10
33.0337422
20
17.6993741
11
31.7688422
21
17.6993741
0
LINE
8
DEFAULT_255_2_778
10
31.7688422
20
17.6993741
11
31.7688422
21
19.8194741
0
LINE
8
DEFAULT_255_2_778
10
31.7688422
20
19.8194741
11
33.0337422
21
19.8194741
0
LINE
8
DEFAULT_255_2_778
10
33.0337422
20
19.8194741
11
33.0337422
21
84.0991741
0
LINE
8
DEFAULT_255_2_778
10
33.0337422
20
84.0991741
11
31.7688422
21
84.0991741
0
LINE
8
DEFAULT_255_2_778
10
31.7688422
20
84.0991741
11
31.7688422
21
86.0192741
0
LINE
8
DEFAULT_255_2_778
10
31.7688422
20
86.0192741
11
33.0337422
21
86.0192741
0
LINE
8
DEFAULT_255_2_778
10
33.0337422
20
86.0192741
11
33.0337422
21
87.0193741
0
LINE
8
DEFAULT_255_2_778
10
33.0337422
20
87.0193741
11
30.4186422
21
87.0193741
0
LINE
8
DEFAULT_255_2_778
10
30.4186422
20
87.0193741
11
30.4186422
21
92.0194741
0
LINE
8
DEFAULT_255_2_778
10
30.4186422
20
92.0194741
11
33.0337422
21
92.0194741
0
LINE
8
DEFAULT_255_2_778
10
33.0337422
20
92.0194741
11
33.0337422
21
94.7923741
0
LINE
8
DEFAULT_255_2_778
10
33.0337422
20
94.7923741
11
2.1555422
21
94.7923741
0
LINE
8
DEFAULT_255_2_778
10
2.1555422
20
94.7923741
11
2.1555422
21
8.8588741
0
LINE
8
DEFAULT_255_2_778
10
2.1555422
20
8.8588741
11
33.0340422
21
8.8588741
0
LINE
8
DEFAULT_255_2_778
10
33.0340422
20
8.8588741
11
33.0340422
21
11.5993741
0
LINE
8
DEFAULT_255_2_778
10
33.0340422
20
11.5993741
11
30.4188422
21
11.5993741
0
LINE
8
DEFAULT_255_2_778
10
30.4188422
20
11.5993741
11
30.4188422
21
16.5994741
0
LINE
8
DEFAULT_255_2_778
10
30.4188422
20
16.5994741
11
31.6187422
21
16.5994741
0
LINE
8
DEFAULT_255_2_778
10
31.6187422
20
16.5994741
11
31.6187422
21
13.0995741
0
LINE
8
DEFAULT_255_2_778
10
31.6187422
20
13.0995741
11
33.0337422
21
13.0995741
0
LINE
8
DEFAULT_255_2_778
10
34.5421422
20
83.0995741
11
34.5421422
21
84.0997741
0
LINE
8
DEFAULT_255_2_778
10
34.5416422
20
86.5195741
11
34.5408422
21
87.0196741
0
ARC
8
DEFAULT_255_2_778
10
7.3377127
20
101.0669361
40
0.7573335
50
71.5995225
51
90.9822236
0
ARC
8
DEFAULT_255_2_778
10
7.4170355
20
101.319237
40
0.4929125
50
48.3164228
51
71.0911697
0
ARC
8
DEFAULT_255_2_778
10
7.433248
20
101.3437344
40
0.4638544
50
357.7048484
51
47.799708
0
ARC
8
DEFAULT_255_2_778
10
7.3664573
20
101.3115407
40
0.5304478
50
334.3549713
51
1.4710578
0
ARC
8
DEFAULT_255_2_778
10
7.4866799
20
101.2636993
40
0.4014612
50
310.616882
51
333.0842442
0
ARC
8
DEFAULT_255_2_778
10
7.4164869
20
101.3600536
40
0.520383
50
279.7768744
51
309.5769712
0
ARC
8
DEFAULT_255_2_778
10
7.329582
20
101.764354
40
0.9337236
50
269.555016
51
280.8193513
0
ARC
8
DEFAULT_255_2_778
10
7.3374476
20
101.4823694
40
0.4761809
50
268.4696382
51
291.4853633
0
ARC
8
DEFAULT_255_2_778
10
7.402239
20
101.3010914
40
0.2838347
50
292.7181129
51
311.2087068
0
ARC
8
DEFAULT_255_2_778
10
7.3932389
20
101.2981099
40
0.2876536
50
312.9488585
51
0.6332593
0
ARC
8
DEFAULT_255_2_778
10
7.1923208
20
101.3223846
40
0.4890095
50
357.5275398
51
0.020356
0
ARC
8
DEFAULT_255_2_778
10
7.3747241
20
101.3363483
40
0.3069162
50
357.4247821
51
45.6605246
0
ARC
8
DEFAULT_255_2_778
10
7.356085
20
101.2973609
40
0.3481058
50
47.9518987
51
88.3177522
0
ARC
8
DEFAULT_255_2_778
10
7.3258192
20
101.0804088
40
0.5663566
50
85.9008179
51
88.88598
0
ARC
8
DEFAULT_255_2_778
10
8.5831449
20
101.481464
40
0.3730918
50
268.7691078
51
299.6693538
0
ARC
8
DEFAULT_255_2_778
10
8.6282538
20
101.3850704
40
0.267143
50
301.4968588
51
311.7474028
0
ARC
8
DEFAULT_255_2_778
10
8.6321282
20
101.3767597
40
0.2583763
50
312.3334961
51
2.6394783
0
ARC
8
DEFAULT_255_2_778
10
8.5390077
20
101.401264
40
0.3514488
50
357.944491
51
25.4183991
0
ARC
8
DEFAULT_255_2_778
10
8.6528336
20
101.4400018
40
0.2324284
50
28.8392676
51
86.972508
0
ARC
8
DEFAULT_255_2_778
10
8.6058937
20
101.194312
40
0.4814492
50
82.9350412
51
90.1979536
0
ARC
8
DEFAULT_255_2_778
10
8.5893038
20
101.3781739
40
0.2979586
50
87.1284981
51
132.1555027
0
ARC
8
DEFAULT_255_2_778
10
8.5778807
20
101.4073285
40
0.268908
50
134.5209709
51
182.5086612
0
ARC
8
DEFAULT_255_2_778
10
8.5185766
20
101.404614
40
0.4169446
50
131.2565014
51
181.2445096
0
ARC
8
DEFAULT_255_2_778
10
8.5827475
20
101.3337804
40
0.5125134
50
89.1186864
51
131.427719
0
ARC
8
DEFAULT_255_2_778
10
8.6042041
20
101.1116752
40
0.7346832
50
89.9979514
51
91.0586203
0
ARC
8
DEFAULT_255_2_778
10
8.6172971
20
101.2327752
40
0.6137222
50
68.6561692
51
91.2199754
0
ARC
8
DEFAULT_255_2_778
10
8.6825845
20
101.4179871
40
0.4175036
50
47.1669559
51
67.7502664
0
ARC
8
DEFAULT_255_2_778
10
8.6731185
20
101.419427
40
0.4229575
50
1.9599251
51
46.0939133
0
ARC
8
DEFAULT_255_2_778
10
8.4275234
20
101.3847808
40
0.6701073
50
359.9467728
51
4.202918
0
ARC
8
DEFAULT_255_2_778
10
8.7393052
20
101.3892138
40
0.3583608
50
323.8385137
51
359.1916833
0
ARC
8
DEFAULT_255_2_778
10
8.6853047
20
101.4172179
40
0.418585
50
291.7965583
51
325.1053599
0
ARC
8
DEFAULT_255_2_778
10
8.7311602
20
100.6435234
40
0.4003217
50
37.5062192
51
74.1151344
0
ARC
8
DEFAULT_255_2_778
10
8.7298098
20
100.658271
40
0.3926136
50
358.2028552
51
35.6786251
0
ARC
8
DEFAULT_255_2_778
10
8.6538118
20
100.6307877
40
0.4686642
50
325.80447
51
1.8549878
0
ARC
8
DEFAULT_255_2_778
10
8.6958684
20
100.6137672
40
0.42442
50
311.7768871
51
324.5139715
0
ARC
8
DEFAULT_255_2_778
10
8.6374901
20
100.6885544
40
0.5191235
50
271.8545015
51
311.0826088
0
ARC
8
DEFAULT_255_2_778
10
8.6055172
20
100.9388834
40
0.7707255
50
269.9638099
51
273.6281829
0
ARC
8
DEFAULT_255_2_778
10
8.5913442
20
100.779727
40
0.6117218
50
245.2033418
51
271.2819978
0
ARC
8
DEFAULT_255_2_778
10
8.5427778
20
100.6535081
40
0.4768534
50
229.15847
51
244.1402271
0
ARC
8
DEFAULT_255_2_778
10
8.4995221
20
100.6065646
40
0.4130568
50
177.9474959
51
229.439254
0
ARC
8
DEFAULT_255_2_778
10
8.5619663
20
100.6096276
40
0.266794
50
177.4799462
51
226.858036
0
ARC
8
DEFAULT_255_2_778
10
8.5868279
20
100.6544093
40
0.316716
50
229.1165976
51
271.7056435
0
ARC
8
DEFAULT_255_2_778
10
8.6049914
20
100.8439356
40
0.5061774
50
269.0110307
51
270.0044045
0
ARC
8
DEFAULT_255_2_778
10
8.6181147
20
100.6971068
40
0.3595866
50
267.9147061
51
297.5730465
0
ARC
8
DEFAULT_255_2_778
10
8.6665154
20
100.5872318
40
0.2399194
50
299.4732422
51
314.5848258
0
ARC
8
DEFAULT_255_2_778
10
8.626846
20
100.6136565
40
0.2867502
50
316.5241312
51
359.3577364
0
ARC
8
DEFAULT_255_2_778
10
8.4120469
20
100.6413644
40
0.5024836
50
356.4718615
51
0.0449159
0
ARC
8
DEFAULT_255_2_778
10
8.6309382
20
100.6566159
40
0.2839811
50
357.0009696
51
40.85516
0
ARC
8
DEFAULT_255_2_778
10
8.6657542
20
100.6759169
40
0.2451581
50
42.7663913
51
48.8642213
0
ARC
8
DEFAULT_255_2_778
10
8.6150775
20
100.5991432
40
0.3365441
50
50.9651934
51
85.0476851
0
ARC
8
DEFAULT_255_2_778
10
8.5672202
20
100.3168237
40
0.6223775
50
82.9015588
51
89.3270156
0
ARC
8
DEFAULT_255_2_778
10
9.4766793
20
100.8760604
40
1.5886949
50
351.4821693
51
0.4254915
0
ARC
8
DEFAULT_255_2_778
10
10.2367966
20
100.7563902
40
0.819257
50
336.0182282
51
351.8852693
0
ARC
8
DEFAULT_255_2_778
10
10.5244642
20
100.6356295
40
0.5073823
50
325.1860755
51
335.2745651
0
ARC
8
DEFAULT_255_2_778
10
10.6026742
20
100.5880727
40
0.416058
50
273.9175863
51
324.4139774
0
ARC
8
DEFAULT_255_2_778
10
10.5533997
20
100.8679122
40
0.6992557
50
269.8714099
51
276.3797912
0
ARC
8
DEFAULT_255_2_778
10
10.5385551
20
100.7160394
40
0.547542
50
246.2849439
51
271.3892814
0
ARC
8
DEFAULT_255_2_778
10
10.4831977
20
100.570126
40
0.3917677
50
215.619913
51
245.1146032
0
ARC
8
DEFAULT_255_2_778
10
10.6764138
20
100.6969396
40
0.6227614
50
192.9882495
51
214.7510443
0
ARC
8
DEFAULT_255_2_778
10
11.2568254
20
100.8433228
40
1.2212844
50
182.2121056
51
193.5601428
0
ARC
8
DEFAULT_255_2_778
10
11.8248802
20
100.8821391
40
1.7904937
50
180.7258059
51
182.7516687
0
ARC
8
DEFAULT_255_2_778
10
11.5800481
20
101.1482192
40
1.5455618
50
171.3534985
51
180.4322867
0
ARC
8
DEFAULT_255_2_778
10
10.8407847
20
101.2664673
40
0.7969439
50
155.5668311
51
171.7679671
0
ARC
8
DEFAULT_255_2_778
10
10.5647815
20
101.3845445
40
0.4968626
50
144.7285418
51
154.7987133
0
ARC
8
DEFAULT_255_2_778
10
10.4953362
20
101.4265648
40
0.4159413
50
94.5565294
51
143.9302683
0
ARC
8
DEFAULT_255_2_778
10
10.5475284
20
101.1410394
40
0.7053214
50
89.8454993
51
96.9409691
0
ARC
8
DEFAULT_255_2_778
10
10.5625424
20
101.2762233
40
0.5702858
50
67.7798489
51
91.3174682
0
ARC
8
DEFAULT_255_2_778
10
10.6263768
20
101.4495289
40
0.3857641
50
36.2358915
51
66.8226387
0
ARC
8
DEFAULT_255_2_778
10
10.4578982
20
101.3396638
40
0.5867024
50
13.3408172
51
35.1641927
0
ARC
8
DEFAULT_255_2_778
10
9.8777794
20
101.1889358
40
1.186015
50
2.7418778
51
13.9592983
0
ARC
8
DEFAULT_255_2_778
10
9.2492256
20
101.1421737
40
1.8161625
50
0.4569597
51
3.2668598
0
ARC
8
DEFAULT_255_2_778
10
9.5685355
20
101.1835824
40
1.2894518
50
359.4612661
51
8.5230238
0
ARC
8
DEFAULT_255_2_778
10
10.3052033
20
101.2999957
40
0.5436988
50
7.8961505
51
25.4152999
0
ARC
8
DEFAULT_255_2_778
10
10.5152584
20
101.39118
40
0.314935
50
26.8328806
51
31.4840506
0
ARC
8
DEFAULT_255_2_778
10
10.5668268
20
101.4219787
40
0.254874
50
31.6341186
51
93.913777
0
ARC
8
DEFAULT_255_2_778
10
10.5320239
20
101.4252165
40
0.2516446
50
86.0336341
51
148.6446438
0
ARC
8
DEFAULT_255_2_778
10
10.7362242
20
101.3174611
40
0.4823028
50
150.3360894
51
170.3830756
0
ARC
8
DEFAULT_255_2_778
10
11.3765233
20
101.1939764
40
1.1343294
50
169.6364539
51
179.593892
0
ARC
8
DEFAULT_255_2_778
10
11.9190608
20
101.1729898
40
1.6770896
50
179.0082943
51
179.5193618
0
ARC
8
DEFAULT_255_2_778
10
11.5184703
20
100.8431818
40
1.2764942
50
179.4713994
51
188.7141219
0
ARC
8
DEFAULT_255_2_778
10
10.80644
20
100.7276266
40
0.5552123
50
188.0592744
51
206.2122721
0
ARC
8
DEFAULT_255_2_778
10
10.6058603
20
100.6382254
40
0.3358759
50
207.6433266
51
211.2547231
0
ARC
8
DEFAULT_255_2_778
10
10.5385329
20
100.5916041
40
0.2541784
50
210.1449956
51
272.9310969
0
ARC
8
DEFAULT_255_2_778
10
10.5662305
20
100.5882728
40
0.2509454
50
266.6417437
51
328.3403029
0
ARC
8
DEFAULT_255_2_778
10
10.3780901
20
100.6929421
40
0.466125
50
329.5274611
51
349.7012944
0
ARC
8
DEFAULT_255_2_778
10
9.729004
20
100.8257902
40
1.1285995
50
348.9568172
51
359.0703069
0
ARC
8
DEFAULT_255_2_778
10
9.1311289
20
100.8539804
40
1.7269522
50
358.4569863
51
359.242799
0
ARC
8
DEFAULT_255_2_778
10
11.9432526
20
101.3919124
40
0.378626
50
326.0494302
51
0.9149413
0
ARC
8
DEFAULT_255_2_778
10
11.8937367
20
101.4289351
40
0.4403874
50
295.4426459
51
325.6516339
0
ARC
8
DEFAULT_255_2_778
10
11.9037384
20
100.5972471
40
0.4695482
50
35.6414994
51
67.5655469
0
ARC
8
DEFAULT_255_2_778
10
11.9559309
20
100.6369011
40
0.4040297
50
359.2990449
51
35.3844221
0
ARC
8
DEFAULT_255_2_778
10
11.9335713
20
100.6135528
40
0.4267561
50
311.5864394
51
2.4718709
0
ARC
8
DEFAULT_255_2_778
10
11.8807607
20
100.6897315
40
0.5189054
50
273.3772695
51
310.3647435
0
ARC
8
DEFAULT_255_2_778
10
11.8416604
20
100.9608476
40
0.7921899
50
269.9254986
51
275.045395
0
ARC
8
DEFAULT_255_2_778
10
11.8271796
20
100.7975034
40
0.6289889
50
247.1311212
51
271.2253471
0
ARC
8
DEFAULT_255_2_778
10
11.7697295
20
100.6406512
40
0.462209
50
228.4287514
51
246.1366417
0
ARC
8
DEFAULT_255_2_778
10
11.7498043
20
100.6138627
40
0.4289558
50
177.5822448
51
228.0455456
0
ARC
8
DEFAULT_255_2_778
10
11.7375979
20
100.6364844
40
0.4163921
50
145.7456146
51
180.6228088
0
ARC
8
DEFAULT_255_2_778
10
11.7628246
20
100.6174219
40
0.4479756
50
112.1766263
51
145.5465044
0
ARC
8
DEFAULT_255_2_778
10
11.778566
20
101.4183646
40
0.4280681
50
213.6027329
51
244.4187609
0
ARC
8
DEFAULT_255_2_778
10
11.7443301
20
101.3921279
40
0.3850439
50
179.1323823
51
213.1704318
0
ARC
8
DEFAULT_255_2_778
10
11.8013941
20
101.4132045
40
0.4423266
50
144.7706316
51
181.975276
0
ARC
8
DEFAULT_255_2_778
10
11.7608109
20
101.4306069
40
0.3992436
50
132.3940855
51
143.4508822
0
ARC
8
DEFAULT_255_2_778
10
11.808175
20
101.3677986
40
0.4776202
50
91.7008273
51
131.5102476
0
ARC
8
DEFAULT_255_2_778
10
11.8398489
20
101.1210085
40
0.7256499
50
89.9619893
51
93.6226333
0
ARC
8
DEFAULT_255_2_778
10
11.8542394
20
101.3044235
40
0.5424132
50
62.7732632
51
91.4693896
0
ARC
8
DEFAULT_255_2_778
10
11.8957991
20
101.4051922
40
0.4338917
50
47.571909
51
61.5651788
0
ARC
8
DEFAULT_255_2_778
10
11.9024966
20
101.419287
40
0.4189942
50
358.1806172
51
46.9475577
0
ARC
8
DEFAULT_255_2_778
10
11.6897795
20
101.39799
40
0.6315508
50
359.9971229
51
0.7252918
0
ARC
8
DEFAULT_255_2_778
10
11.851486
20
100.6474664
40
0.3012567
50
357.8488259
51
44.7239844
0
ARC
8
DEFAULT_255_2_778
10
11.8511579
20
100.6372922
40
0.3087286
50
46.0228092
51
92.362727
0
ARC
8
DEFAULT_255_2_778
10
11.8244727
20
100.6434184
40
0.302662
50
87.3567966
51
134.1569763
0
ARC
8
DEFAULT_255_2_778
10
11.8330128
20
100.6495671
40
0.304378
50
136.1169939
51
182.5248794
0
ARC
8
DEFAULT_255_2_778
10
11.8184999
20
100.6203889
40
0.2899986
50
176.8828514
51
224.4357205
0
ARC
8
DEFAULT_255_2_778
10
11.8166125
20
100.6439585
40
0.3056917
50
227.8397598
51
270.2096499
0
ARC
8
DEFAULT_255_2_778
10
11.8406314
20
100.8517166
40
0.5139583
50
267.4462416
51
270.022179
0
ARC
8
DEFAULT_255_2_778
10
11.8546656
20
100.6736522
40
0.3361787
50
267.6413614
51
303.1660972
0
ARC
8
DEFAULT_255_2_778
10
11.8892184
20
100.6048926
40
0.2598634
50
305.0829884
51
313.9986566
0
ARC
8
DEFAULT_255_2_778
10
11.8643463
20
100.6211015
40
0.2888767
50
315.3142798
51
2.9877239
0
ARC
8
DEFAULT_255_2_778
10
11.8293862
20
101.4085685
40
0.2676261
50
87.5920462
51
134.2227793
0
ARC
8
DEFAULT_255_2_778
10
11.8448609
20
101.4091784
40
0.2782203
50
136.5948405
51
183.0328325
0
ARC
8
DEFAULT_255_2_778
10
11.8432114
20
101.3823355
40
0.276447
50
177.4866501
51
223.1818703
0
ARC
8
DEFAULT_255_2_778
10
11.828445
20
101.3813164
40
0.2651475
50
225.2052649
51
272.677316
0
ARC
8
DEFAULT_255_2_778
10
11.8531807
20
101.3816509
40
0.26548
50
267.3335943
51
314.7645433
0
ARC
8
DEFAULT_255_2_778
10
11.8385493
20
101.3823355
40
0.276447
50
316.8181297
51
2.5133499
0
ARC
8
DEFAULT_255_2_778
10
11.8381432
20
101.4053547
40
0.2768017
50
357.7439573
51
43.9485262
0
ARC
8
DEFAULT_255_2_778
10
11.8496152
20
101.4124883
40
0.2636066
50
44.5627155
51
91.8445306
0
ARC
8
DEFAULT_255_2_778
10
16.3538204
20
102.4149837
40
1.5529564
50
245.7811439
51
254.4241583
0
ARC
8
DEFAULT_255_2_778
10
16.0132755
20
101.6717225
40
0.7354355
50
230.7075857
51
246.2227934
0
ARC
8
DEFAULT_255_2_778
10
15.8552734
20
101.4643763
40
0.4749918
50
227.3782673
51
229.6187383
0
ARC
8
DEFAULT_255_2_778
10
15.7812513
20
101.3949774
40
0.3738754
50
179.0220856
51
228.5238083
0
ARC
8
DEFAULT_255_2_778
10
15.8023699
20
101.407242
40
0.3949834
50
127.5345503
51
180.8535063
0
ARC
8
DEFAULT_255_2_778
10
15.9167542
20
101.2714239
40
0.572428
50
94.355867
51
128.3312488
0
ARC
8
DEFAULT_255_2_778
10
15.9613179
20
100.9756892
40
0.8709704
50
89.9005074
51
95.8015324
0
ARC
8
DEFAULT_255_2_778
10
15.9748291
20
101.1781577
40
0.6686083
50
64.484999
51
91.0282738
0
ARC
8
DEFAULT_255_2_778
10
16.0509279
20
101.3342166
40
0.4949922
50
32.7725146
51
64.6534289
0
ARC
8
DEFAULT_255_2_778
10
16.0803235
20
101.3550228
40
0.4590157
50
359.6424397
51
32.5749953
0
ARC
8
DEFAULT_255_2_778
10
16.0263627
20
101.3676139
40
0.2969701
50
357.0167304
51
47.043639
0
ARC
8
DEFAULT_255_2_778
10
16.0037099
20
101.3186139
40
0.3486739
50
49.8072856
51
86.5322407
0
ARC
8
DEFAULT_255_2_778
10
15.9641106
20
101.0563511
40
0.6133085
50
84.3210364
51
90.1195985
0
ARC
8
DEFAULT_255_2_778
10
15.9501464
20
101.2023324
40
0.467498
50
88.4452808
51
111.6334456
0
ARC
8
DEFAULT_255_2_778
10
15.888517
20
101.3761218
40
0.2833106
50
113.0051781
51
127.9392628
0
ARC
8
DEFAULT_255_2_778
10
15.8589383
20
101.4156389
40
0.2339611
50
128.1764563
51
182.6655699
0
ARC
8
DEFAULT_255_2_778
10
15.8357737
20
101.4046793
40
0.2105434
50
179.978505
51
233.2601634
0
ARC
8
DEFAULT_255_2_778
10
16.0188951
20
101.6385236
40
0.5075232
50
232.4851777
51
248.0051276
0
ARC
8
DEFAULT_255_2_778
10
16.3566702
20
102.4292289
40
1.3672899
50
247.2905025
51
254.8021186
0
ARC
8
DEFAULT_255_2_778
10
15.5268574
20
99.3865308
40
1.7865345
50
67.8929895
51
74.7015073
0
ARC
8
DEFAULT_255_2_778
10
15.8604293
20
100.2085748
40
0.8993895
50
59.5054404
51
67.8727621
0
ARC
8
DEFAULT_255_2_778
10
16.0780851
20
100.5593119
40
0.4868103
50
33.5667969
51
60.6313069
0
ARC
8
DEFAULT_255_2_778
10
16.1736233
20
100.6338309
40
0.3661189
50
31.0661639
51
32.1161735
0
ARC
8
DEFAULT_255_2_778
10
16.1314627
20
100.6161932
40
0.4113876
50
358.6161938
51
30.1402282
0
ARC
8
DEFAULT_255_2_778
10
16.1609769
20
100.5953439
40
0.3819094
50
306.4785413
51
1.6376553
0
ARC
8
DEFAULT_255_2_778
10
16.042848
20
100.7531086
40
0.5789962
50
277.1792569
51
306.5963489
0
ARC
8
DEFAULT_255_2_778
10
15.9780465
20
101.1141661
40
0.9455159
50
269.762691
51
278.3410288
0
ARC
8
DEFAULT_255_2_778
10
15.9681417
20
100.9349763
40
0.7663414
50
246.3014591
51
270.4477488
0
ARC
8
DEFAULT_255_2_778
10
15.8621018
20
100.7217973
40
0.5286424
50
216.1489473
51
247.5388498
0
ARC
8
DEFAULT_255_2_778
10
15.7870441
20
100.6588463
40
0.4309503
50
179.2538526
51
215.2772116
0
ARC
8
DEFAULT_255_2_778
10
15.8533959
20
100.6533126
40
0.2810866
50
177.7275083
51
232.3840661
0
ARC
8
DEFAULT_255_2_778
10
15.9341356
20
100.7696136
40
0.4225501
50
233.3374242
51
266.4490309
0
ARC
8
DEFAULT_255_2_778
10
15.9727267
20
101.0413065
40
0.6964494
50
264.6643965
51
270.0990236
0
ARC
8
DEFAULT_255_2_778
10
15.9864437
20
100.8837654
40
0.5390524
50
268.6698366
51
288.3238072
0
ARC
8
DEFAULT_255_2_778
10
16.0591375
20
100.6488138
40
0.2932002
50
289.2731488
51
306.9365223
0
ARC
8
DEFAULT_255_2_778
10
16.0999223
20
100.5957329
40
0.226265
50
306.758895
51
2.1340002
0
ARC
8
DEFAULT_255_2_778
10
16.1042289
20
100.6156961
40
0.2221014
50
357.0222419
51
51.6843153
0
ARC
8
DEFAULT_255_2_778
10
15.9370767
20
100.3745093
40
0.5152995
50
53.7290315
51
67.6524231
0
ARC
8
DEFAULT_255_2_778
10
15.5441167
20
99.4685207
40
1.5027757
50
66.9292332
51
73.4344378
0
ARC
8
DEFAULT_255_2_778
10
15.2460646
20
98.5325983
40
2.4849015
50
73.0000713
51
73.8600103
0
LINE
8
DEFAULT_255_2_778
10
7.3223303
20
100.8303583
11
6.9376303
21
100.8303583
0
LINE
8
DEFAULT_255_2_778
10
6.9376303
20
100.8303583
11
6.9376303
21
100.1908583
0
LINE
8
DEFAULT_255_2_778
10
6.9376303
20
100.1908583
11
6.7222303
21
100.1908583
0
LINE
8
DEFAULT_255_2_778
10
6.7222303
20
100.1908583
11
6.7222303
21
101.8241583
0
LINE
8
DEFAULT_255_2_778
10
6.7222303
20
101.8241583
11
7.3247303
21
101.8241583
0
LINE
8
DEFAULT_255_2_778
10
7.3223303
20
100.8306583
11
7.3223303
21
100.8303583
0
LINE
8
DEFAULT_255_2_778
10
6.9376303
20
101.6468583
11
6.9376303
21
101.0063583
0
LINE
8
DEFAULT_255_2_778
10
6.9376303
20
101.0063583
11
7.3247303
21
101.0063583
0
LINE
8
DEFAULT_255_2_778
10
7.3368303
20
101.6466583
11
6.9376303
21
101.6466583
0
LINE
8
DEFAULT_255_2_778
10
6.9376303
20
101.6466583
11
6.9376303
21
101.6468583
0
LINE
8
DEFAULT_255_2_778
10
8.4192303
20
100.9391583
11
8.4192303
21
101.1084583
0
LINE
8
DEFAULT_255_2_778
10
8.4192303
20
101.1084583
11
8.5751303
21
101.1084583
0
LINE
8
DEFAULT_255_2_778
10
8.3092303
20
101.3955583
11
8.1017303
21
101.3955583
0
LINE
8
DEFAULT_255_2_778
10
8.0867303
20
100.6213583
11
8.2954303
21
100.6213583
0
LINE
8
DEFAULT_255_2_778
10
8.5745303
20
100.9391583
11
8.4187303
21
100.9391583
0
LINE
8
DEFAULT_255_2_778
10
8.4187303
20
100.9391583
11
8.4192303
21
100.9391583
0
LINE
8
DEFAULT_255_2_778
10
9.8607303
20
100.9695583
11
9.8607303
21
100.8002583
0
LINE
8
DEFAULT_255_2_778
10
9.8607303
20
100.8002583
11
9.3133303
21
100.8002583
0
LINE
8
DEFAULT_255_2_778
10
9.3133303
20
100.8002583
11
9.3133303
21
100.9695583
0
LINE
8
DEFAULT_255_2_778
10
9.3133303
20
100.9695583
11
9.8607303
21
100.9695583
0
LINE
8
DEFAULT_255_2_778
10
9.8607303
20
100.9695583
11
9.8607303
21
100.9695583
0
LINE
8
DEFAULT_255_2_778
10
11.0653303
20
101.1568583
11
11.0653303
21
100.8878583
0
LINE
8
DEFAULT_255_2_778
10
10.0345303
20
100.8594583
11
10.0345303
21
101.1365583
0
LINE
8
DEFAULT_255_2_778
10
11.0653303
20
101.1566583
11
11.0653303
21
101.1568583
0
LINE
8
DEFAULT_255_2_778
10
10.8579303
20
100.8314583
11
10.8579303
21
101.1714583
0
LINE
8
DEFAULT_255_2_778
10
10.2420303
20
101.1870583
11
10.2420303
21
100.8549583
0
LINE
8
DEFAULT_255_2_778
10
10.8579303
20
100.8311583
11
10.8579303
21
100.8314583
0
LINE
8
DEFAULT_255_2_778
10
12.3213303
20
101.3979583
11
12.3218303
21
101.3979583
0
LINE
8
DEFAULT_255_2_778
10
12.1528303
20
100.6361583
11
12.1525303
21
100.6361583
0
LINE
8
DEFAULT_255_2_778
10
11.8411303
20
101.6759583
11
11.8406303
21
101.6759583
0
LINE
8
DEFAULT_255_2_778
10
13.8035303
20
101.8241583
11
13.8035303
21
101.6468583
0
LINE
8
DEFAULT_255_2_778
10
13.8035303
20
101.6468583
11
13.2786303
21
101.6468583
0
LINE
8
DEFAULT_255_2_778
10
13.2786303
20
101.6468583
11
13.2786303
21
100.1908583
0
LINE
8
DEFAULT_255_2_778
10
13.2786303
20
100.1908583
11
13.0643303
21
100.1908583
0
LINE
8
DEFAULT_255_2_778
10
13.0643303
20
100.1908583
11
13.0643303
21
101.6468583
0
LINE
8
DEFAULT_255_2_778
10
13.0643303
20
101.6468583
11
12.5404303
21
101.6468583
0
LINE
8
DEFAULT_255_2_778
10
12.5404303
20
101.6468583
11
12.5404303
21
101.8241583
0
LINE
8
DEFAULT_255_2_778
10
12.5404303
20
101.8241583
11
13.8035303
21
101.8241583
0
LINE
8
DEFAULT_255_2_778
10
13.8035303
20
101.8241583
11
13.8035303
21
101.8241583
0
LINE
8
DEFAULT_255_2_778
10
15.0150303
20
100.1908583
11
14.8592303
21
100.6171583
0
LINE
8
DEFAULT_255_2_778
10
14.8592303
20
100.6171583
11
14.1750303
21
100.6171583
0
LINE
8
DEFAULT_255_2_778
10
14.1750303
20
100.6171583
11
14.0213303
21
100.1908583
0
LINE
8
DEFAULT_255_2_778
10
14.0213303
20
100.1908583
11
13.7993303
21
100.1908583
0
LINE
8
DEFAULT_255_2_778
10
13.7993303
20
100.1908583
11
14.4229303
21
101.8241583
0
LINE
8
DEFAULT_255_2_778
10
14.4229303
20
101.8241583
11
14.6113303
21
101.8241583
0
LINE
8
DEFAULT_255_2_778
10
14.6113303
20
101.8241583
11
15.2360303
21
100.1908583
0
LINE
8
DEFAULT_255_2_778
10
15.2360303
20
100.1908583
11
15.0150303
21
100.1908583
0
LINE
8
DEFAULT_255_2_778
10
15.0150303
20
100.1908583
11
15.0150303
21
100.1908583
0
LINE
8
DEFAULT_255_2_778
10
14.5171303
20
101.5582583
11
14.2401303
21
100.7944583
0
LINE
8
DEFAULT_255_2_778
10
14.2401303
20
100.7944583
11
14.7954303
21
100.7944583
0
LINE
8
DEFAULT_255_2_778
10
14.7954303
20
100.7944583
11
14.5174303
21
101.5582583
0
LINE
8
DEFAULT_255_2_778
10
14.5174303
20
101.5582583
11
14.5171303
21
101.5582583
0
LINE
8
DEFAULT_255_2_778
10
16.5393303
20
101.3521583
11
16.3229303
21
101.3521583
0
LINE
8
DEFAULT_255_2_778
10
15.3561303
20
100.6644583
11
15.5725303
21
100.6644583
0
LINE
8
DEFAULT_255_2_778
10
15.9368303
20
100.9195583
11
15.9368303
21
100.9190583
0
ENDSEC
0
EOF