0
SECTION
2
HEADER
9
$MEASUREMENT
70
1
0
ENDSEC
0
SECTION
2
TABLES
0
TABLE
2
LTYPE
0
LTYPE
72
65
70
64
2
CONTINUOUS
3
______
73
0
40
0
0
ENDTAB
0
TABLE
2
LAYER
0
LAYER
2
DEFAULT_255_2_778
70
0
62
255
6
CONTINUOUS
0
LAYER
2
DEFAULT_255_1_234
70
0
62
255
6
CONTINUOUS
0
ENDTAB
0
ENDSEC
0
SECTION
2
ENTITIES
0
ARC
8
DEFAULT_255_2_778
10
3.5700693
20
171.0552017
40
0.7914215
50
129.1312896
51
180.1450914
0
ARC
8
DEFAULT_255_2_778
10
3.5703345
20
171.0556888
40
0.7912112
50
89.854026
51
129.1684493
0
ARC
8
DEFAULT_255_2_778
10
25.7993937
20
171.0553754
40
0.7915249
50
39.4792447
51
90.147911
0
ARC
8
DEFAULT_255_2_778
10
25.7999935
20
171.055222
40
0.7911595
50
359.8533901
51
39.5154338
0
ARC
8
DEFAULT_255_2_778
10
25.7996693
20
-1.9863506
40
0.7914836
50
309.4761667
51
0.1482649
0
ARC
8
DEFAULT_255_2_778
10
25.799398
20
-1.9867816
40
0.7913235
50
269.8517415
51
309.511178
0
ARC
8
DEFAULT_255_2_778
10
3.570342
20
-1.9867235
40
0.7913815
50
219.1282118
51
270.1454017
0
ARC
8
DEFAULT_255_2_778
10
3.5700247
20
-1.986341
40
0.7913769
50
179.8524075
51
219.1641908
0
LINE
8
DEFAULT_255_2_778
10
3.5723503
20
171.8468976
11
25.7973503
21
171.8468976
0
LINE
8
DEFAULT_255_2_778
10
26.5911503
20
171.0531976
11
26.5911503
21
-1.9843024
0
LINE
8
DEFAULT_255_2_778
10
25.7973503
20
-2.7781024
11
3.5723503
21
-2.7781024
0
LINE
8
DEFAULT_255_2_778
10
2.7786503
20
-1.9843024
11
2.7786503
21
171.0531976
0
LINE
8
DEFAULT_255_1_234
10
10.4161344
20
-0.1934909
11
10.1406458
21
-0.1934909
0
LINE
8
DEFAULT_255_1_234
10
10.1406458
20
-0.1934909
11
10.1406458
21
-0.6513
0
LINE
8
DEFAULT_255_1_234
10
10.1406458
20
-0.6513
11
9.9864364
21
-0.6513
0
LINE
8
DEFAULT_255_1_234
10
9.9864364
20
-0.6513
11
9.9864364
21
0.5181211
0
LINE
8
DEFAULT_255_1_234
10
9.9864364
20
0.5181211
11
10.4177407
21
0.5181211
0
LINE
8
DEFAULT_255_1_234
10
10.1406458
20
0.3912196
11
10.1406458
21
-0.0673926
0
LINE
8
DEFAULT_255_1_234
10
10.1406458
20
-0.0673926
11
10.4177407
21
-0.0673926
0
LINE
8
DEFAULT_255_1_234
10
10.4265756
20
0.3912196
11
10.1406458
21
0.3912196
0
ARC
8
DEFAULT_255_1_234
10
10.4219534
20
-0.0877805
40
0.6059162
50
78.8378113
51
90.3983573
0
ARC
8
DEFAULT_255_1_234
10
10.4635548
20
0.1142879
40
0.3996205
50
58.9632738
51
79.0810598
0
ARC
8
DEFAULT_255_1_234
10
10.493709
20
0.1702721
40
0.3361177
50
48.0197965
51
58.447194
0
ARC
8
DEFAULT_255_1_234
10
10.5025951
20
0.1788225
40
0.3238191
50
3.3375044
51
48.1766626
0
ARC
8
DEFAULT_255_1_234
10
10.379579
20
0.1611171
40
0.4477806
50
359.9477528
51
4.6829065
0
ARC
8
DEFAULT_255_1_234
10
10.3919107
20
0.1568628
40
0.4354656
50
346.1877825
51
0.5060252
0
ARC
8
DEFAULT_255_1_234
10
10.5277975
20
0.1215731
40
0.295089
50
310.8831995
51
346.5426355
0
ARC
8
DEFAULT_255_1_234
10
10.4969395
20
0.1632695
40
0.3468331
50
286.6925341
51
310.2288297
0
ARC
8
DEFAULT_255_1_234
10
10.4400226
20
0.3422882
40
0.5346654
50
274.6850312
51
287.0245141
0
ARC
8
DEFAULT_255_1_234
10
10.4174949
20
0.5631932
40
0.7566852
50
269.8969846
51
275.018904
0
ARC
8
DEFAULT_255_1_234
10
10.420254
20
0.3552707
40
0.4226708
50
269.6593078
51
279.4153575
0
ARC
8
DEFAULT_255_1_234
10
10.4459815
20
0.2062133
40
0.2714146
50
279.2049762
51
294.9900808
0
ARC
8
DEFAULT_255_1_234
10
10.4750141
20
0.1414508
40
0.2004525
50
295.2888114
51
311.2911209
0
ARC
8
DEFAULT_255_1_234
10
10.4821035
20
0.130922
40
0.1878703
50
311.7854996
51
347.2861051
0
ARC
8
DEFAULT_255_1_234
10
10.3837194
20
0.1562092
40
0.2894234
50
346.6893224
51
0.1059443
0
ARC
8
DEFAULT_255_1_234
10
10.3082089
20
0.1590685
40
0.3649409
50
359.6350983
51
0.0053152
0
ARC
8
DEFAULT_255_1_234
10
10.4052417
20
0.1615937
40
0.2679199
50
359.4672059
51
15.5933957
0
ARC
8
DEFAULT_255_1_234
10
10.4677306
20
0.1784779
40
0.2031932
50
15.7442113
51
46.6203375
0
ARC
8
DEFAULT_255_1_234
10
10.4529527
20
0.1614484
40
0.2257226
50
46.8628658
51
75.6676503
0
ARC
8
DEFAULT_255_1_234
10
10.4235347
20
0.0555718
40
0.3355939
50
75.276167
51
88.2915297
0
ARC
8
DEFAULT_255_1_234
10
10.4177054
20
-0.0322476
40
0.4235602
50
87.8575022
51
88.8000139
0
LINE
8
DEFAULT_255_1_234
10
11.2016384
20
-0.1155831
11
11.2016384
21
0.0056962
0
LINE
8
DEFAULT_255_1_234
10
11.2016384
20
0.0056962
11
11.3132795
21
0.0056962
0
LINE
8
DEFAULT_255_1_234
10
11.1229273
20
0.2113087
11
10.9743402
21
0.2113087
0
LINE
8
DEFAULT_255_1_234
10
10.9638989
20
-0.3428812
11
11.1132893
21
-0.3428812
0
LINE
8
DEFAULT_255_1_234
10
11.3132795
20
-0.1155831
11
11.2016384
21
-0.1155831
0
ARC
8
DEFAULT_255_1_234
10
11.3103662
20
0.3449713
40
0.3392876
50
270.4919872
51
281.8951556
0
ARC
8
DEFAULT_255_1_234
10
11.3344923
20
0.2347702
40
0.2264817
50
281.6691735
51
301.2943132
0
ARC
8
DEFAULT_255_1_234
10
11.3515134
20
0.2036304
40
0.1910381
50
301.7833094
51
311.7545298
0
ARC
8
DEFAULT_255_1_234
10
11.3606709
20
0.1934748
40
0.1773635
50
311.7323931
51
354.2802411
0
ARC
8
DEFAULT_255_1_234
10
11.2880335
20
0.2059722
40
0.2509385
50
353.0937916
51
0.1181479
0
ARC
8
DEFAULT_255_1_234
10
11.241912
20
0.2107386
40
0.2970898
50
359.1805295
51
15.0453146
0
ARC
8
DEFAULT_255_1_234
10
11.3764957
20
0.2499992
40
0.1569564
50
13.9577229
51
77.6713066
0
ARC
8
DEFAULT_255_1_234
10
11.3378486
20
0.1114949
40
0.3006298
50
76.1116566
51
90.7026153
0
ARC
8
DEFAULT_255_1_234
10
11.3319324
20
0.1388545
40
0.2732568
50
89.5324876
51
103.531937
0
ARC
8
DEFAULT_255_1_234
10
11.3118768
20
0.2187884
40
0.1908508
50
103.2931773
51
133.5619022
0
ARC
8
DEFAULT_255_1_234
10
11.3074256
20
0.2247375
40
0.1834746
50
133.8349307
51
173.5344437
0
ARC
8
DEFAULT_255_1_234
10
11.37973
20
0.2119213
40
0.2568033
50
172.5096846
51
180.1366907
0
ARC
8
DEFAULT_255_1_234
10
11.2846193
20
0.2153622
40
0.3103056
50
155.3484492
51
180.7484736
0
ARC
8
DEFAULT_255_1_234
10
11.2797283
20
0.2124846
40
0.3070957
50
131.5744599
51
154.4798489
0
ARC
8
DEFAULT_255_1_234
10
11.311043
20
0.180831
40
0.3515643
50
96.9875458
51
131.9690667
0
ARC
8
DEFAULT_255_1_234
10
11.332991
20
0.0562636
40
0.4779224
50
89.8596053
51
97.7825159
0
ARC
8
DEFAULT_255_1_234
10
11.3377973
20
0.0300616
40
0.5041361
50
78.3655447
51
90.4131539
0
ARC
8
DEFAULT_255_1_234
10
11.3735891
20
0.1959887
40
0.3344039
50
56.6229102
51
78.638727
0
ARC
8
DEFAULT_255_1_234
10
11.3950834
20
0.2335805
40
0.2912001
50
47.0253525
51
56.0854072
0
ARC
8
DEFAULT_255_1_234
10
11.3970614
20
0.2375223
40
0.2869704
50
10.9208013
51
46.7778124
0
ARC
8
DEFAULT_255_1_234
10
11.2606681
20
0.2059857
40
0.426899
50
359.6364486
51
11.6087304
0
ARC
8
DEFAULT_255_1_234
10
11.4441525
20
0.2044752
40
0.243409
50
332.3549906
51
359.7179418
0
ARC
8
DEFAULT_255_1_234
10
11.3791126
20
0.2353142
40
0.3153459
50
325.2333722
51
332.8745602
0
ARC
8
DEFAULT_255_1_234
10
11.394375
20
0.2246828
40
0.2967456
50
292.9802137
51
325.2392345
0
ARC
8
DEFAULT_255_1_234
10
11.3669124
20
0.2780863
40
0.3566604
50
292.5402179
51
293.6924929
0
ARC
8
DEFAULT_255_1_234
10
11.406172
20
-0.3673909
40
0.3307468
50
57.6435486
51
72.8625112
0
ARC
8
DEFAULT_255_1_234
10
11.441622
20
-0.3099451
40
0.2632492
50
36.7248896
51
57.4697979
0
ARC
8
DEFAULT_255_1_234
10
11.4404852
20
-0.308678
40
0.2634081
50
8.0545065
51
36.356114
0
ARC
8
DEFAULT_255_1_234
10
11.3542038
20
-0.3241826
40
0.3510261
50
359.8320645
51
8.5869982
0
ARC
8
DEFAULT_255_1_234
10
11.3166814
20
-0.3289899
40
0.3885653
50
343.9829931
51
0.5571613
0
ARC
8
DEFAULT_255_1_234
10
11.4053011
20
-0.3532562
40
0.2966924
50
311.6359546
51
343.7651759
0
ARC
8
DEFAULT_255_1_234
10
11.367458
20
-0.3105898
40
0.3537231
50
279.7829875
51
311.6255694
0
ARC
8
DEFAULT_255_1_234
10
11.3373356
20
-0.166872
40
0.5004971
50
269.7286406
51
280.3856417
0
ARC
8
DEFAULT_255_1_234
10
11.3311429
20
-0.1710004
40
0.4963778
50
256.6828919
51
270.4412052
0
ARC
8
DEFAULT_255_1_234
10
11.2972725
20
-0.3094606
40
0.3538406
50
229.4223008
51
256.8556159
0
ARC
8
DEFAULT_255_1_234
10
11.2558118
20
-0.3561264
40
0.2914296
50
181.818294
51
229.6455059
0
ARC
8
DEFAULT_255_1_234
10
11.3598074
20
-0.3430504
40
0.3959084
50
179.9755256
51
183.2323064
0
ARC
8
DEFAULT_255_1_234
10
11.342582
20
-0.3450963
40
0.2293034
50
179.4465117
51
196.2869258
0
ARC
8
DEFAULT_255_1_234
10
11.2938228
20
-0.3584349
40
0.1787621
50
196.5661473
51
227.705904
0
ARC
8
DEFAULT_255_1_234
10
11.3102323
20
-0.3400845
40
0.2033784
50
227.7652068
51
257.8762805
0
ARC
8
DEFAULT_255_1_234
10
11.3327293
20
-0.2457844
40
0.3003081
50
257.4584385
51
270.426602
0
ARC
8
DEFAULT_255_1_234
10
11.3372859
20
-0.2168004
40
0.329292
50
269.5962073
51
280.8789248
0
ARC
8
DEFAULT_255_1_234
10
11.3602388
20
-0.3314315
40
0.2123908
50
280.6346389
51
299.8595945
0
ARC
8
DEFAULT_255_1_234
10
11.3793294
20
-0.3676788
40
0.171457
50
300.3576302
51
314.5517981
0
ARC
8
DEFAULT_255_1_234
10
11.3710354
20
-0.3616081
40
0.1816095
50
315.0728369
51
345.0431014
0
ARC
8
DEFAULT_255_1_234
10
11.2787169
20
-0.3347159
40
0.2777492
50
344.5986631
51
357.9269593
0
ARC
8
DEFAULT_255_1_234
10
11.1891495
20
-0.3285724
40
0.3674917
50
357.4748886
51
0.0231117
0
ARC
8
DEFAULT_255_1_234
10
11.2914604
20
-0.3261321
40
0.2651907
50
359.5047933
51
13.4239635
0
ARC
8
DEFAULT_255_1_234
10
11.3781248
20
-0.3039522
40
0.1757509
50
12.9498199
51
48.7551375
0
ARC
8
DEFAULT_255_1_234
10
11.3598982
20
-0.32886
40
0.2065134
50
49.5088623
51
72.1836453
0
ARC
8
DEFAULT_255_1_234
10
11.3241135
20
-0.4350709
40
0.3185836
50
71.9010081
51
84.3554254
0
ARC
8
DEFAULT_255_1_234
10
11.3079766
20
-0.5711674
40
0.4556151
50
84.0193428
51
89.333121
0
LINE
8
DEFAULT_255_1_234
10
12.2337167
20
-0.0938974
11
12.2337167
21
-0.2151766
0
LINE
8
DEFAULT_255_1_234
10
12.2337167
20
-0.2151766
11
11.8417679
21
-0.2151766
0
LINE
8
DEFAULT_255_1_234
10
11.8417679
20
-0.2151766
11
11.8417679
21
-0.0938974
0
LINE
8
DEFAULT_255_1_234
10
11.8417679
20
-0.0938974
11
12.2337167
21
-0.0938974
0
LINE
8
DEFAULT_255_1_234
10
13.0963254
20
0.0402327
11
13.0963254
21
-0.1525291
0
LINE
8
DEFAULT_255_1_234
10
12.3582087
20
-0.1726084
11
12.3582087
21
0.0257755
0
LINE
8
DEFAULT_255_1_234
10
12.9477383
20
-0.1926877
11
12.9477383
21
0.0506739
0
LINE
8
DEFAULT_255_1_234
10
12.5067958
20
0.0619184
11
12.5067958
21
-0.1758211
0
ARC
8
DEFAULT_255_1_234
10
11.8716144
20
-0.1574195
40
1.2247208
50
353.8441951
51
0.2287902
0
ARC
8
DEFAULT_255_1_234
10
12.3355648
20
-0.2092194
40
0.7578929
50
344.4934747
51
353.9765454
0
ARC
8
DEFAULT_255_1_234
10
12.6348238
20
-0.2943019
40
0.4467846
50
329.2803592
51
344.7472793
0
ARC
8
DEFAULT_255_1_234
10
12.7341063
20
-0.3487982
40
0.3336173
50
324.9352394
51
328.6160465
0
ARC
8
DEFAULT_255_1_234
10
12.7718171
20
-0.3751573
40
0.2876076
50
280.580143
51
324.9173126
0
ARC
8
DEFAULT_255_1_234
10
12.7316964
20
-0.2080901
40
0.4592847
50
269.5977311
51
281.6734359
0
ARC
8
DEFAULT_255_1_234
10
12.724487
20
-0.2200827
40
0.4472986
50
256.6228859
51
270.51044
0
ARC
8
DEFAULT_255_1_234
10
12.6842847
20
-0.3749123
40
0.2873874
50
215.8618325
51
257.2788573
0
ARC
8
DEFAULT_255_1_234
10
12.7863879
20
-0.3064023
40
0.4102928
50
197.9693508
51
215.2623606
0
ARC
8
DEFAULT_255_1_234
10
13.0348995
20
-0.2225291
40
0.6725652
50
187.8816417
51
198.2346507
0
ARC
8
DEFAULT_255_1_234
10
13.4307203
20
-0.1653921
40
1.0724845
50
180.8976217
51
188.0055519
0
ARC
8
DEFAULT_255_1_234
10
13.7107391
20
-0.1550223
40
1.3526448
50
180.7449369
51
181.1510016
0
ARC
8
DEFAULT_255_1_234
10
13.553012
20
0.0306042
40
1.1948131
50
173.7675579
51
180.231553
0
ARC
8
DEFAULT_255_1_234
10
13.1012267
20
0.0816666
40
0.7401564
50
164.3058563
51
173.9002247
0
ARC
8
DEFAULT_255_1_234
10
12.8100336
20
0.1655656
40
0.4371288
50
148.7922025
51
164.568378
0
ARC
8
DEFAULT_255_1_234
10
12.7148788
20
0.2186929
40
0.3282386
50
144.5883898
51
148.1176286
0
ARC
8
DEFAULT_255_1_234
10
12.6805686
20
0.2426315
40
0.2864044
50
101.6440918
51
144.514236
0
ARC
8
DEFAULT_255_1_234
10
12.7230752
20
0.0737069
40
0.4604934
50
89.5284041
51
102.5819763
0
ARC
8
DEFAULT_255_1_234
10
12.730984
20
0.0698018
40
0.464401
50
77.0437873
51
90.5081339
0
ARC
8
DEFAULT_255_1_234
10
12.7711842
20
0.2340615
40
0.2953195
50
48.2778575
51
77.4994676
0
ARC
8
DEFAULT_255_1_234
10
12.7784473
20
0.2469746
40
0.2808655
50
36.3142134
51
47.6305865
0
ARC
8
DEFAULT_255_1_234
10
12.691578
20
0.1884515
40
0.3855453
50
18.2931786
51
35.6769206
0
ARC
8
DEFAULT_255_1_234
10
12.4372539
20
0.1011593
40
0.654423
50
8.024666
51
18.5605216
0
ARC
8
DEFAULT_255_1_234
10
12.0209459
20
0.0396792
40
1.0752407
50
1.1274072
51
8.1718305
0
ARC
8
DEFAULT_255_1_234
10
11.697365
20
0.0269885
40
1.3990231
50
0.5424119
51
1.3863029
0
ARC
8
DEFAULT_255_1_234
10
11.8795027
20
0.0542342
40
1.0682415
50
359.8090433
51
4.9407866
0
ARC
8
DEFAULT_255_1_234
10
12.3005041
20
0.0918113
40
0.6455691
50
4.8362157
51
12.2904523
0
ARC
8
DEFAULT_255_1_234
10
12.5760156
20
0.1531965
40
0.3633074
50
12.0805627
51
23.8173984
0
ARC
8
DEFAULT_255_1_234
10
12.6933862
20
0.2028919
40
0.2358723
50
24.2871213
51
31.3935614
0
ARC
8
DEFAULT_255_1_234
10
12.7458559
20
0.2372233
40
0.1732111
50
30.7407893
51
82.4657128
0
ARC
8
DEFAULT_255_1_234
10
12.7278693
20
0.1488691
40
0.263235
50
81.1060089
51
90.2184952
0
ARC
8
DEFAULT_255_1_234
10
12.7242992
20
0.1746924
40
0.2374236
50
89.3806855
51
105.6762551
0
ARC
8
DEFAULT_255_1_234
10
12.7059623
20
0.2413567
40
0.1682847
50
105.7981136
51
149.7388061
0
ARC
8
DEFAULT_255_1_234
10
12.8123701
20
0.177395
40
0.2924306
50
149.4208916
51
163.6286378
0
ARC
8
DEFAULT_255_1_234
10
13.0214589
20
0.113625
40
0.5110213
50
163.3763315
51
172.1410975
0
ARC
8
DEFAULT_255_1_234
10
13.3515308
20
0.0663518
40
0.8444586
50
172.0259487
51
178.0703232
0
ARC
8
DEFAULT_255_1_234
10
13.6545397
20
0.0519906
40
1.1477868
50
177.8631668
51
179.5044149
0
ARC
8
DEFAULT_255_1_234
10
13.5472802
20
-0.1794611
40
1.0404907
50
179.7995573
51
185.2460446
0
ARC
8
DEFAULT_255_1_234
10
13.1429841
20
-0.2177487
40
0.6343885
50
185.1411642
51
193.0079639
0
ARC
8
DEFAULT_255_1_234
10
12.8786314
20
-0.2802359
40
0.3627568
50
192.7897626
51
205.2507664
0
ARC
8
DEFAULT_255_1_234
10
12.7739861
20
-0.3269585
40
0.2481908
50
205.8005384
51
211.2537509
0
ARC
8
DEFAULT_255_1_234
10
12.7216301
20
-0.362042
40
0.1852521
50
210.3789793
51
238.4008143
0
ARC
8
DEFAULT_255_1_234
10
12.7196823
20
-0.3573624
40
0.1882621
50
239.6520629
51
265.9793761
0
ARC
8
DEFAULT_255_1_234
10
12.7282023
20
-0.2901573
40
0.2559272
50
265.1315437
51
270.060332
0
ARC
8
DEFAULT_255_1_234
10
12.7310802
20
-0.3225466
40
0.2235528
50
269.3314664
51
287.2178029
0
ARC
8
DEFAULT_255_1_234
10
12.7448654
20
-0.3728721
40
0.1714108
50
287.7958004
51
329.080874
0
ARC
8
DEFAULT_255_1_234
10
12.6491111
20
-0.313107
40
0.2842745
50
328.6634704
51
343.3325132
0
ARC
8
DEFAULT_255_1_234
10
12.4318131
20
-0.2454137
40
0.5118644
50
343.0499468
51
351.9393422
0
ARC
8
DEFAULT_255_1_234
10
12.0851431
20
-0.1943051
40
0.8622784
50
351.8069023
51
357.7959224
0
ARC
8
DEFAULT_255_1_234
10
11.7615987
20
-0.1775279
40
1.1862365
50
357.5871873
51
359.2677531
0
ARC
8
DEFAULT_255_1_234
10
13.713656
20
0.2103703
40
0.2822356
50
338.8763615
51
0.5166041
0
ARC
8
DEFAULT_255_1_234
10
13.7305214
20
0.2058208
40
0.2648703
50
325.8412414
51
338.4795939
0
ARC
8
DEFAULT_255_1_234
10
13.6914582
20
0.2329042
40
0.3124019
50
296.7586019
51
325.753654
0
ARC
8
DEFAULT_255_1_234
10
13.662669
20
0.2813789
40
0.368668
50
296.0902311
51
297.3618122
0
ARC
8
DEFAULT_255_1_234
10
13.6884148
20
-0.3740959
40
0.3518806
50
47.9009248
51
67.1946869
0
ARC
8
DEFAULT_255_1_234
10
13.708039
20
-0.3494605
40
0.320451
50
35.236241
51
47.551371
0
ARC
8
DEFAULT_255_1_234
10
13.7342008
20
-0.3320007
40
0.2890103
50
359.2759738
51
35.4014081
0
ARC
8
DEFAULT_255_1_234
10
13.6597039
20
-0.3393174
40
0.3635026
50
343.1294516
51
0.5776525
0
ARC
8
DEFAULT_255_1_234
10
13.7321584
20
-0.359267
40
0.2883832
50
310.8497458
51
342.744803
0
ARC
8
DEFAULT_255_1_234
10
13.6903697
20
-0.3115706
40
0.3517954
50
281.5473923
51
310.9169905
0
ARC
8
DEFAULT_255_1_234
10
13.6547147
20
-0.1562916
40
0.5110832
50
269.6192722
51
281.9789957
0
ARC
8
DEFAULT_255_1_234
10
13.6474936
20
-0.1562172
40
0.5111606
50
257.4584469
51
270.4287458
0
ARC
8
DEFAULT_255_1_234
10
13.6094079
20
-0.3165656
40
0.3463762
50
228.7553743
51
257.8484423
0
ARC
8
DEFAULT_255_1_234
10
13.5784277
20
-0.3538558
40
0.297916
50
184.0104442
51
228.5071787
0
ARC
8
DEFAULT_255_1_234
10
13.6947221
20
-0.3361488
40
0.4152734
50
179.9315461
51
185.3254504
0
ARC
8
DEFAULT_255_1_234
10
13.5770867
20
-0.3324008
40
0.2976554
50
145.6795913
51
180.6259649
0
ARC
8
DEFAULT_255_1_234
10
13.5934216
20
-0.3438071
40
0.3175776
50
115.5537925
51
145.6416199
0
ARC
8
DEFAULT_255_1_234
10
13.6275146
20
-0.4048972
40
0.3874232
50
113.2437915
51
116.2054627
0
ARC
8
DEFAULT_255_1_234
10
13.6122359
20
0.234958
40
0.3154751
50
222.9548379
51
244.1372485
0
ARC
8
DEFAULT_255_1_234
10
13.6000434
20
0.2212834
40
0.2972382
50
213.3439227
51
222.6271327
0
ARC
8
DEFAULT_255_1_234
10
13.5808369
20
0.2082308
40
0.274019
50
180.4316517
51
213.2713999
0
ARC
8
DEFAULT_255_1_234
10
13.638337
20
0.212911
40
0.33158
50
179.9992944
51
181.1655061
0
ARC
8
DEFAULT_255_1_234
10
13.6792787
20
0.2163561
40
0.3725376
50
164.6186108
51
180.5292368
0
ARC
8
DEFAULT_255_1_234
10
13.589465
20
0.2405101
40
0.2795349
50
132.2454369
51
164.5092287
0
ARC
8
DEFAULT_255_1_234
10
13.6181754
20
0.2080028
40
0.3229019
50
100.7052766
51
132.1387266
0
ARC
8
DEFAULT_255_1_234
10
13.6486726
20
0.0702086
40
0.4639835
50
89.6732617
51
101.2449487
0
ARC
8
DEFAULT_255_1_234
10
13.6548924
20
0.087699
40
0.4464999
50
76.2876631
51
90.4586123
0
ARC
8
DEFAULT_255_1_234
10
13.6855156
20
0.209922
40
0.3205023
50
47.8240157
51
76.4266918
0
ARC
8
DEFAULT_255_1_234
10
13.7077706
20
0.235959
40
0.2862661
50
6.9168658
51
47.6261438
0
ARC
8
DEFAULT_255_1_234
10
13.5891109
20
0.214037
40
0.4067708
50
359.8419705
51
7.9694496
0
ARC
8
DEFAULT_255_1_234
10
13.6233006
20
-0.3300075
40
0.2513121
50
359.4454068
51
16.9256425
0
ARC
8
DEFAULT_255_1_234
10
13.6701817
20
-0.3170967
40
0.2027071
50
17.292259
51
45.462717
0
ARC
8
DEFAULT_255_1_234
10
13.6647753
20
-0.3217566
40
0.2098212
50
45.3028762
51
83.1921472
0
ARC
8
DEFAULT_255_1_234
10
13.6504437
20
-0.4019105
40
0.2911472
50
82.2614531
51
90.143954
0
ARC
8
DEFAULT_255_1_234
10
13.6473557
20
-0.378605
40
0.2678513
50
89.4959189
51
104.8579811
0
ARC
8
DEFAULT_255_1_234
10
13.6296816
20
-0.311611
40
0.1985654
50
104.8855873
51
135.2448349
0
ARC
8
DEFAULT_255_1_234
10
13.6346589
20
-0.3160664
40
0.2052373
50
135.3398955
51
172.104394
0
ARC
8
DEFAULT_255_1_234
10
13.7153647
20
-0.3315075
40
0.2873299
50
171.2651929
51
180.1859362
0
ARC
8
DEFAULT_255_1_234
10
13.6984348
20
-0.3347267
40
0.2704083
50
179.515471
51
193.6466734
0
ARC
8
DEFAULT_255_1_234
10
13.6168117
20
-0.3555223
40
0.1861855
50
193.3540587
51
225.8256931
0
ARC
8
DEFAULT_255_1_234
10
13.6208874
20
-0.3484476
40
0.1941102
50
226.418029
51
255.8553723
0
ARC
8
DEFAULT_255_1_234
10
13.6465307
20
-0.2548002
40
0.2911917
50
255.4655572
51
268.7985967
0
ARC
8
DEFAULT_255_1_234
10
13.6512499
20
-0.1709509
40
0.3751331
50
268.3464808
51
270.0104874
0
ARC
8
DEFAULT_255_1_234
10
13.6535887
20
-0.2393862
40
0.3067064
50
269.575914
51
282.0823146
0
ARC
8
DEFAULT_255_1_234
10
13.6760796
20
-0.3388197
40
0.2047712
50
281.7522535
51
306.6056425
0
ARC
8
DEFAULT_255_1_234
10
13.6859222
20
-0.3549513
40
0.1859604
50
307.1350025
51
314.0277951
0
ARC
8
DEFAULT_255_1_234
10
13.6823306
20
-0.3523234
40
0.1903475
50
314.2553419
51
350.169324
0
ARC
8
DEFAULT_255_1_234
10
13.5971775
20
-0.3338591
40
0.2774269
50
349.4145679
51
0.2930737
0
ARC
8
DEFAULT_255_1_234
10
13.6492208
20
0.1820353
40
0.2300764
50
89.477591
51
105.729794
0
ARC
8
DEFAULT_255_1_234
10
13.6356122
20
0.2325637
40
0.1777519
50
105.922966
51
135.1662921
0
ARC
8
DEFAULT_255_1_234
10
13.6376624
20
0.2311419
40
0.1802087
50
135.3053131
51
168.9882338
0
ARC
8
DEFAULT_255_1_234
10
13.7204196
20
0.2121721
40
0.2650806
50
168.3802067
51
180.3602358
0
ARC
8
DEFAULT_255_1_234
10
13.6975776
20
0.2084041
40
0.2422425
50
179.5029707
51
194.9126783
0
ARC
8
DEFAULT_255_1_234
10
13.6390437
20
0.193011
40
0.1817188
50
194.9722181
51
224.1943972
0
ARC
8
DEFAULT_255_1_234
10
13.6362304
20
0.1907169
40
0.1781027
50
224.2961434
51
262.0157375
0
ARC
8
DEFAULT_255_1_234
10
13.6504547
20
0.2638661
40
0.2525492
50
261.1250369
51
270.1959853
0
ARC
8
DEFAULT_255_1_234
10
13.6534302
20
0.2451339
40
0.233825
50
269.4825617
51
285.0988277
0
ARC
8
DEFAULT_255_1_234
10
13.6688461
20
0.187299
40
0.1739712
50
285.1585659
51
315.9484648
0
ARC
8
DEFAULT_255_1_234
10
13.6599473
20
0.1954886
40
0.1860616
50
316.0412958
51
351.9162715
0
ARC
8
DEFAULT_255_1_234
10
13.5866428
20
0.2096245
40
0.2606517
50
351.1056823
51
0.1936567
0
ARC
8
DEFAULT_255_1_234
10
13.6129257
20
0.2126369
40
0.234377
50
359.4789506
51
16.0679113
0
ARC
8
DEFAULT_255_1_234
10
13.6605216
20
0.225481
40
0.1850875
50
16.3251951
51
44.791304
0
ARC
8
DEFAULT_255_1_234
10
13.6587497
20
0.2255339
40
0.186312
50
44.3958661
51
88.2498933
0
ARC
8
DEFAULT_255_1_234
10
13.6514051
20
0.1644154
40
0.2476868
50
86.9833827
51
90.0200148
0
LINE
8
DEFAULT_255_1_234
10
15.0568728
20
0.5181211
11
15.0568728
21
0.3912196
0
LINE
8
DEFAULT_255_1_234
10
15.0568728
20
0.3912196
11
14.6809874
21
0.3912196
0
LINE
8
DEFAULT_255_1_234
10
14.6809874
20
0.3912196
11
14.6809874
21
-0.6513
0
LINE
8
DEFAULT_255_1_234
10
14.6809874
20
-0.6513
11
14.5275812
21
-0.6513
0
LINE
8
DEFAULT_255_1_234
10
14.5275812
20
-0.6513
11
14.5275812
21
0.3912196
0
LINE
8
DEFAULT_255_1_234
10
14.5275812
20
0.3912196
11
14.152499
21
0.3912196
0
LINE
8
DEFAULT_255_1_234
10
14.152499
20
0.3912196
11
14.152499
21
0.5181211
0
LINE
8
DEFAULT_255_1_234
10
14.152499
20
0.5181211
11
15.0568728
21
0.5181211
0
LINE
8
DEFAULT_255_1_234
10
15.9130561
20
-0.6513
11
15.6592531
21
-0.1782306
0
LINE
8
DEFAULT_255_1_234
10
15.6592531
20
-0.1782306
11
15.3845677
21
-0.1782306
0
LINE
8
DEFAULT_255_1_234
10
15.3845677
20
-0.1782306
11
15.3845677
21
-0.6513
0
LINE
8
DEFAULT_255_1_234
10
15.3845677
20
-0.6513
11
15.2295551
21
-0.6513
0
LINE
8
DEFAULT_255_1_234
10
15.2295551
20
-0.6513
11
15.2295551
21
0.5181211
0
LINE
8
DEFAULT_255_1_234
10
15.2295551
20
0.5181211
11
15.6166849
21
0.5181211
0
LINE
8
DEFAULT_255_1_234
10
15.8038244
20
-0.1453005
11
16.0785099
21
-0.6416619
0
LINE
8
DEFAULT_255_1_234
10
16.0785099
20
-0.6416619
11
16.0785099
21
-0.6513
0
LINE
8
DEFAULT_255_1_234
10
16.0785099
20
-0.6513
11
15.9130561
21
-0.6513
0
LINE
8
DEFAULT_255_1_234
10
15.3845677
20
0.3912196
11
15.3845677
21
-0.0521323
0
LINE
8
DEFAULT_255_1_234
10
15.3845677
20
-0.0521323
11
15.621504
21
-0.0521323
0
LINE
8
DEFAULT_255_1_234
10
15.6207008
20
0.3912196
11
15.3845677
21
0.3912196
0
ARC
8
DEFAULT_255_1_234
10
15.6208488
20
-0.1780239
40
0.6961575
50
80.653586
51
90.3427061
0
ARC
8
DEFAULT_255_1_234
10
15.6627963
20
0.0682348
40
0.4463577
50
65.6987447
51
80.8329603
0
ARC
8
DEFAULT_255_1_234
10
15.7105604
20
0.1777322
40
0.3269094
50
50.0017161
51
65.4305835
0
ARC
8
DEFAULT_255_1_234
10
15.7324068
20
0.2072482
40
0.2902647
50
11.628416
51
49.5603263
0
ARC
8
DEFAULT_255_1_234
10
15.5788404
20
0.1697299
40
0.4482792
50
359.5655735
51
12.3691
0
ARC
8
DEFAULT_255_1_234
10
15.6865264
20
0.1634644
40
0.3405924
50
341.9983148
51
0.4822259
0
ARC
8
DEFAULT_255_1_234
10
15.7260104
20
0.1527471
40
0.2997359
50
323.8609373
51
341.61416
0
ARC
8
DEFAULT_255_1_234
10
15.6958348
20
0.1760484
40
0.3378487
50
296.7018614
51
323.6876402
0
ARC
8
DEFAULT_255_1_234
10
15.6517244
20
0.2549235
40
0.4281516
50
290.8086567
51
297.2323311
0
ARC
8
DEFAULT_255_1_234
10
15.6240773
20
0.3072351
40
0.3593766
50
269.589728
51
281.8058135
0
ARC
8
DEFAULT_255_1_234
10
15.6491672
20
0.1924743
40
0.2419125
50
281.5501019
51
303.9357432
0
ARC
8
DEFAULT_255_1_234
10
15.662886
20
0.1686936
40
0.2145323
50
304.4415616
51
311.2106213
0
ARC
8
DEFAULT_255_1_234
10
15.6760965
20
0.1547632
40
0.1953505
50
310.9875673
51
356.2715578
0
ARC
8
DEFAULT_255_1_234
10
15.6004614
20
0.1660422
40
0.2716331
50
354.9348262
51
0.0609027
0
ARC
8
DEFAULT_255_1_234
10
15.5817488
20
0.1687435
40
0.2903554
50
359.5239371
51
12.8808918
0
ARC
8
DEFAULT_255_1_234
10
15.6795044
20
0.1926728
40
0.1897315
50
12.4173452
51
43.1022135
0
ARC
8
DEFAULT_255_1_234
10
15.6856648
20
0.1963724
40
0.1827118
50
43.5751728
51
48.203944
0
ARC
8
DEFAULT_255_1_234
10
15.668714
20
0.1742302
40
0.2105272
50
48.7809703
51
72.6969569
0
ARC
8
DEFAULT_255_1_234
10
15.6332765
20
0.066682
40
0.3237537
50
72.3702241
51
84.8791103
0
ARC
8
DEFAULT_255_1_234
10
15.6185241
20
-0.0675231
40
0.4587478
50
84.5400526
51
89.7281406
0
LINE
8
DEFAULT_255_1_234
10
17.0190264
20
0.1799849
11
16.8640139
21
0.1799849
0
LINE
8
DEFAULT_255_1_234
10
16.171678
20
-0.3123606
11
16.3266906
21
-0.3123606
0
ARC
8
DEFAULT_255_1_234
10
16.9298952
20
1.0746768
40
1.252368
50
248.9199003
51
254.1439814
0
ARC
8
DEFAULT_255_1_234
10
16.7618446
20
0.6420234
40
0.788226
50
241.633709
51
249.0064503
0
ARC
8
DEFAULT_255_1_234
10
16.6089841
20
0.3619317
40
0.4691427
50
230.498225
51
241.8087113
0
ARC
8
DEFAULT_255_1_234
10
16.5305415
20
0.2619906
40
0.3421437
50
227.4064532
51
229.9881192
0
ARC
8
DEFAULT_255_1_234
10
16.4817936
20
0.2144088
40
0.2741476
50
200.6781896
51
228.1763934
0
ARC
8
DEFAULT_255_1_234
10
16.4890246
20
0.2129077
40
0.2804109
50
179.5061581
51
199.8694617
0
ARC
8
DEFAULT_255_1_234
10
16.4880998
20
0.220321
40
0.2795204
50
132.4834203
51
181.0242172
0
ARC
8
DEFAULT_255_1_234
10
16.547658
20
0.1640704
40
0.3612768
50
129.2532479
51
133.4242687
0
ARC
8
DEFAULT_255_1_234
10
16.562303
20
0.1420965
40
0.3875675
50
101.98776
51
128.8742646
0
ARC
8
DEFAULT_255_1_234
10
16.602164
20
-0.0300259
40
0.5642249
50
89.5906553
51
102.3169264
0
ARC
8
DEFAULT_255_1_234
10
16.6092133
20
0.0018148
40
0.5323783
50
77.2360837
51
90.3248275
0
ARC
8
DEFAULT_255_1_234
10
16.6299212
20
0.09854
40
0.4334697
50
63.837784
51
77.0809408
0
ARC
8
DEFAULT_255_1_234
10
16.6576973
20
0.1502911
40
0.3747796
50
45.9864267
51
64.1607727
0
ARC
8
DEFAULT_255_1_234
10
16.6837855
20
0.1800866
40
0.3352302
50
32.2747395
51
45.6547121
0
ARC
8
DEFAULT_255_1_234
10
16.6904295
20
0.181988
40
0.328603
50
359.6507365
51
32.6130309
0
ARC
8
DEFAULT_255_1_234
10
16.5961391
20
0.182466
40
0.2678863
50
359.469343
51
14.9832209
0
ARC
8
DEFAULT_255_1_234
10
16.6666453
20
0.2013539
40
0.1948938
50
14.9781179
51
48.2004265
0
ARC
8
DEFAULT_255_1_234
10
16.6502097
20
0.1806983
40
0.2212521
50
48.5927837
51
74.1241538
0
ARC
8
DEFAULT_255_1_234
10
16.6168587
20
0.0706248
40
0.3362561
50
73.7888341
51
86.6652678
0
ARC
8
DEFAULT_255_1_234
10
16.6066153
20
-0.0501119
40
0.4573953
50
86.2640471
51
90.0526343
0
ARC
8
DEFAULT_255_1_234
10
16.6037865
20
-0.0105808
40
0.4178709
50
89.6697524
51
99.2309573
0
ARC
8
DEFAULT_255_1_234
10
16.5795316
20
0.1338964
40
0.2713749
50
99.069534
51
113.7658566
0
ARC
8
DEFAULT_255_1_234
10
16.5521507
20
0.1984677
40
0.2012469
50
114.0401004
51
127.9850673
0
ARC
8
DEFAULT_255_1_234
10
16.5281071
20
0.228073
40
0.1631167
50
127.7287463
51
176.7105154
0
ARC
8
DEFAULT_255_1_234
10
16.5959788
20
0.2179693
40
0.2315392
50
175.1779447
51
180.0581938
0
ARC
8
DEFAULT_255_1_234
10
16.5116635
20
0.2167428
40
0.1472271
50
179.6142195
51
228.1246017
0
ARC
8
DEFAULT_255_1_234
10
16.5558304
20
0.2576308
40
0.2072299
50
226.5779593
51
230.8800004
0
ARC
8
DEFAULT_255_1_234
10
16.6029383
20
0.3201636
40
0.2854818
50
231.4635071
51
241.9260842
0
ARC
8
DEFAULT_255_1_234
10
16.7226561
20
0.54048
40
0.53622
50
241.7178533
51
248.3259551
0
ARC
8
DEFAULT_255_1_234
10
16.8611932
20
0.8837064
40
0.9063478
50
248.2007737
51
252.4528373
0
ARC
8
DEFAULT_255_1_234
10
16.9815657
20
1.2558441
40
1.2974635
50
252.3391078
51
254.3469452
0
ARC
8
DEFAULT_255_1_234
10
16.227336
20
-1.4418852
40
1.5037162
50
71.0197183
51
74.4087047
0
ARC
8
DEFAULT_255_1_234
10
16.3968045
20
-0.9526889
40
0.9859993
50
66.1847285
51
71.086374
0
ARC
8
DEFAULT_255_1_234
10
16.5524357
20
-0.60228
40
0.6025855
50
59.3536294
51
66.2691831
0
ARC
8
DEFAULT_255_1_234
10
16.641301
20
-0.4519391
40
0.4279449
50
49.1020879
51
59.3293958
0
ARC
8
DEFAULT_255_1_234
10
16.723175
20
-0.3586166
40
0.3038015
50
32.7919921
51
49.2505539
0
ARC
8
DEFAULT_255_1_234
10
16.755284
20
-0.3357809
40
0.264448
50
31.1181161
51
32.4005348
0
ARC
8
DEFAULT_255_1_234
10
16.7464377
20
-0.3393221
40
0.2738556
50
8.1116974
51
30.7958831
0
ARC
8
DEFAULT_255_1_234
10
16.6654045
20
-0.3531247
40
0.3560327
50
359.8389159
51
8.4706516
0
ARC
8
DEFAULT_255_1_234
10
16.7279837
20
-0.3579863
40
0.2934776
50
337.4731098
51
0.7537279
0
ARC
8
DEFAULT_255_1_234
10
16.7458532
20
-0.3599613
40
0.2762607
50
307.5917067
51
336.4315538
0
ARC
8
DEFAULT_255_1_234
10
16.699836
20
-0.3086898
40
0.3449979
50
307.6551545
51
308.4529766
0
ARC
8
DEFAULT_255_1_234
10
16.6768079
20
-0.273175
40
0.3871988
50
284.3734338
51
307.1424381
0
ARC
8
DEFAULT_255_1_234
10
16.6272909
20
-0.0910068
40
0.5759636
50
272.4382747
51
284.646547
0
ARC
8
DEFAULT_255_1_234
10
16.6146118
20
0.0889893
40
0.7563528
50
269.9708387
51
272.8178037
0
ARC
8
DEFAULT_255_1_234
10
16.6103157
20
-0.1148284
40
0.5525489
50
248.2707594
51
270.4055579
0
ARC
8
DEFAULT_255_1_234
10
16.6048898
20
-0.1338808
40
0.5328452
50
246.1383403
51
248.0542782
0
ARC
8
DEFAULT_255_1_234
10
16.5630277
20
-0.2218157
40
0.4355005
50
233.1670131
51
246.4950969
0
ARC
8
DEFAULT_255_1_234
10
16.5076182
20
-0.2966188
40
0.3424126
50
215.3403242
51
233.0843104
0
ARC
8
DEFAULT_255_1_234
10
16.4803614
20
-0.3164451
40
0.3087104
50
179.2419209
51
215.2648451
0
ARC
8
DEFAULT_255_1_234
10
16.5571207
20
-0.3150334
40
0.2304457
50
179.335461
51
199.1045811
0
ARC
8
DEFAULT_255_1_234
10
16.5238884
20
-0.3237234
40
0.1962176
50
199.8828939
51
232.7063202
0
ARC
8
DEFAULT_255_1_234
10
16.5711152
20
-0.2643212
40
0.2720938
50
232.3738199
51
255.5136649
0
ARC
8
DEFAULT_255_1_234
10
16.6052019
20
-0.1399165
40
0.4010747
50
255.2446292
51
267.5320849
0
ARC
8
DEFAULT_255_1_234
10
16.6139642
20
-0.0166298
40
0.5246356
50
267.1557994
51
270.0286766
0
ARC
8
DEFAULT_255_1_234
10
16.6167415
20
-0.061005
40
0.4802668
50
269.7000017
51
278.1660162
0
ARC
8
DEFAULT_255_1_234
10
16.6423419
20
-0.2340485
40
0.3053425
50
278.0231263
51
290.625471
0
ARC
8
DEFAULT_255_1_234
10
16.6771106
20
-0.3267975
40
0.206291
50
290.6619762
51
307.0370976
0
ARC
8
DEFAULT_255_1_234
10
16.7071496
20
-0.3636496
40
0.1587906
50
306.3943566
51
355.3030547
0
ARC
8
DEFAULT_255_1_234
10
16.6559427
20
-0.3559887
40
0.2104809
50
354.3660432
51
0.0698737
0
ARC
8
DEFAULT_255_1_234
10
16.6701772
20
-0.3537383
40
0.1962563
50
359.417946
51
16.1971788
0
ARC
8
DEFAULT_255_1_234
10
16.7157083
20
-0.3412582
40
0.149053
50
16.4723299
51
52.6262157
0
ARC
8
DEFAULT_255_1_234
10
16.6336137
20
-0.4496567
40
0.2850296
50
52.7386432
51
62.4979148
0
ARC
8
DEFAULT_255_1_234
10
16.4951213
20
-0.7102717
40
0.5801521
50
62.2515216
51
68.1220564
0
ARC
8
DEFAULT_255_1_234
10
16.3231124
20
-1.1330128
40
1.0365451
50
68.0062803
51
71.8053402
0
ARC
8
DEFAULT_255_1_234
10
16.1435496
20
-1.6715242
40
1.6042013
50
71.7183119
51
73.9258742
0
LINE
8
DEFAULT_255_1_234
10
17.5049466
20
-0.0938974
11
17.5049466
21
-0.2151766
0
LINE
8
DEFAULT_255_1_234
10
17.5049466
20
-0.2151766
11
17.1129978
21
-0.2151766
0
LINE
8
DEFAULT_255_1_234
10
17.1129978
20
-0.2151766
11
17.1129978
21
-0.0938974
0
LINE
8
DEFAULT_255_1_234
10
17.1129978
20
-0.0938974
11
17.5049466
21
-0.0938974
0
LINE
8
DEFAULT_255_1_234
10
18.1225873
20
0.5237433
11
18.1225873
21
-0.6513
0
LINE
8
DEFAULT_255_1_234
10
18.1225873
20
-0.6513
11
17.9731969
21
-0.6513
0
LINE
8
DEFAULT_255_1_234
10
17.9731969
20
-0.6513
11
17.9731969
21
0.3390133
0
LINE
8
DEFAULT_255_1_234
10
17.9731969
20
0.3390133
11
17.6736131
21
0.2289785
0
LINE
8
DEFAULT_255_1_234
10
17.6736131
20
0.2289785
11
17.6736131
21
0.3639117
0
LINE
8
DEFAULT_255_1_234
10
17.6736131
20
0.3639117
11
18.0992952
21
0.5237433
0
LINE
8
DEFAULT_255_1_234
10
18.0992952
20
0.5237433
11
18.1225873
21
0.5237433
0
LINE
8
DEFAULT_255_1_234
10
8.5475344
20
165.8325091
11
8.2720458
21
165.8325091
0
LINE
8
DEFAULT_255_1_234
10
8.2720458
20
165.8325091
11
8.2720458
21
165.3747
0
LINE
8
DEFAULT_255_1_234
10
8.2720458
20
165.3747
11
8.1178364
21
165.3747
0
LINE
8
DEFAULT_255_1_234
10
8.1178364
20
165.3747
11
8.1178364
21
166.5441211
0
LINE
8
DEFAULT_255_1_234
10
8.1178364
20
166.5441211
11
8.5491407
21
166.5441211
0
LINE
8
DEFAULT_255_1_234
10
8.2720458
20
166.4172196
11
8.2720458
21
165.9586074
0
LINE
8
DEFAULT_255_1_234
10
8.2720458
20
165.9586074
11
8.5491407
21
165.9586074
0
LINE
8
DEFAULT_255_1_234
10
8.5579756
20
166.4172196
11
8.2720458
21
166.4172196
0
ARC
8
DEFAULT_255_1_234
10
8.5533534
20
165.9382195
40
0.6059162
50
78.8378113
51
90.3983573
0
ARC
8
DEFAULT_255_1_234
10
8.5949548
20
166.1402879
40
0.3996205
50
58.9632738
51
79.0810598
0
ARC
8
DEFAULT_255_1_234
10
8.625109
20
166.1962721
40
0.3361177
50
48.0197965
51
58.447194
0
ARC
8
DEFAULT_255_1_234
10
8.6339951
20
166.2048225
40
0.3238191
50
3.3375044
51
48.1766626
0
ARC
8
DEFAULT_255_1_234
10
8.510979
20
166.1871171
40
0.4477806
50
359.9477528
51
4.6829065
0
ARC
8
DEFAULT_255_1_234
10
8.5233107
20
166.1828628
40
0.4354656
50
346.1877825
51
0.5060252
0
ARC
8
DEFAULT_255_1_234
10
8.6591975
20
166.1475731
40
0.295089
50
310.8831995
51
346.5426355
0
ARC
8
DEFAULT_255_1_234
10
8.6283395
20
166.1892695
40
0.3468331
50
286.6925341
51
310.2288297
0
ARC
8
DEFAULT_255_1_234
10
8.5714226
20
166.3682882
40
0.5346654
50
274.6850312
51
287.0245141
0
ARC
8
DEFAULT_255_1_234
10
8.5488949
20
166.5891932
40
0.7566852
50
269.8969846
51
275.018904
0
ARC
8
DEFAULT_255_1_234
10
8.551654
20
166.3812707
40
0.4226708
50
269.6593078
51
279.4153575
0
ARC
8
DEFAULT_255_1_234
10
8.5773815
20
166.2322133
40
0.2714146
50
279.2049762
51
294.9900808
0
ARC
8
DEFAULT_255_1_234
10
8.6064141
20
166.1674508
40
0.2004525
50
295.2888114
51
311.2911209
0
ARC
8
DEFAULT_255_1_234
10
8.6135035
20
166.156922
40
0.1878703
50
311.7854996
51
347.2861051
0
ARC
8
DEFAULT_255_1_234
10
8.5151194
20
166.1822092
40
0.2894234
50
346.6893224
51
0.1059443
0
ARC
8
DEFAULT_255_1_234
10
8.4396089
20
166.1850685
40
0.3649409
50
359.6350983
51
0.0053152
0
ARC
8
DEFAULT_255_1_234
10
8.5366417
20
166.1875937
40
0.2679199
50
359.4672059
51
15.5933957
0
ARC
8
DEFAULT_255_1_234
10
8.5991306
20
166.2044779
40
0.2031932
50
15.7442113
51
46.6203375
0
ARC
8
DEFAULT_255_1_234
10
8.5843527
20
166.1874484
40
0.2257226
50
46.8628658
51
75.6676503
0
ARC
8
DEFAULT_255_1_234
10
8.5549347
20
166.0815718
40
0.3355939
50
75.276167
51
88.2915297
0
ARC
8
DEFAULT_255_1_234
10
8.5491054
20
165.9937524
40
0.4235602
50
87.8575022
51
88.8000139
0
LINE
8
DEFAULT_255_1_234
10
9.5523048
20
166.2485531
11
9.5523048
21
166.1104072
0
LINE
8
DEFAULT_255_1_234
10
9.2808321
20
165.9915375
11
9.2808321
21
165.3747
0
LINE
8
DEFAULT_255_1_234
10
9.2808321
20
165.3747
11
9.1322449
21
165.3747
0
LINE
8
DEFAULT_255_1_234
10
9.1322449
20
165.3747
11
9.1322449
21
166.2437341
0
LINE
8
DEFAULT_255_1_234
10
9.1322449
20
166.2437341
11
9.2768162
21
166.2437341
0
LINE
8
DEFAULT_255_1_234
10
9.2768162
20
166.2437341
11
9.2792257
21
166.1433374
0
ARC
8
DEFAULT_255_1_234
10
9.4856454
20
165.7044342
40
0.4114092
50
80.6754243
51
86.8932892
0
ARC
8
DEFAULT_255_1_234
10
9.4795988
20
165.60767
40
0.5083596
50
86.8038578
51
90.0431435
0
ARC
8
DEFAULT_255_1_234
10
9.4758969
20
165.8533866
40
0.2626638
50
89.2759698
51
106.6213787
0
ARC
8
DEFAULT_255_1_234
10
9.4554533
20
165.927683
40
0.1856317
50
107.1346045
51
157.6458115
0
ARC
8
DEFAULT_255_1_234
10
9.5246134
20
165.8893311
40
0.2643398
50
155.6586782
51
157.2539184
0
ARC
8
DEFAULT_255_1_234
10
9.5041337
20
166.0062157
40
0.2634121
50
127.8165941
51
148.6302098
0
ARC
8
DEFAULT_255_1_234
10
9.4787806
20
166.0322218
40
0.2273596
50
91.3329982
51
126.7875809
0
ARC
8
DEFAULT_255_1_234
10
9.4863746
20
165.9607195
40
0.299078
50
89.986594
51
92.4688449
0
ARC
8
DEFAULT_255_1_234
10
9.4872141
20
165.9882078
40
0.2715908
50
85.3589899
51
90.1623399
0
ARC
8
DEFAULT_255_1_234
10
9.4956657
20
166.0886164
40
0.1708278
50
78.401942
51
85.4594656
0
ARC
8
DEFAULT_255_1_234
10
9.5101541
20
166.1577236
40
0.1002194
50
67.7858312
51
78.5728455
0
ARC
8
DEFAULT_255_1_234
10
9.5209393
20
166.1856887
40
0.0702548
50
63.4835954
51
67.3062642
0
LINE
8
DEFAULT_255_1_234
10
9.6334254
20
165.8068075
11
9.6334254
21
165.8172488
0
LINE
8
DEFAULT_255_1_234
10
10.4245516
20
165.8100202
11
10.4245516
21
165.799579
0
ARC
8
DEFAULT_255_1_234
10
10.1920433
20
165.8204837
40
0.5586273
50
166.3003825
51
180.3317926
0
ARC
8
DEFAULT_255_1_234
10
10.1057593
20
165.8397964
40
0.4702272
50
153.8608245
51
166.0967125
0
ARC
8
DEFAULT_255_1_234
10
10.0391995
20
165.875475
40
0.3947658
50
135.1316692
51
154.253643
0
ARC
8
DEFAULT_255_1_234
10
10.0113555
20
165.9000666
40
0.3576898
50
121.7044358
51
134.776924
0
ARC
8
DEFAULT_255_1_234
10
10.0180548
20
165.8871867
40
0.3721701
50
93.4002104
51
121.5398234
0
ARC
8
DEFAULT_255_1_234
10
10.0275504
20
165.8046228
40
0.4551749
50
89.9706281
51
93.9769836
0
ARC
8
DEFAULT_255_1_234
10
10.0322596
20
165.8436362
40
0.4161854
50
71.3323442
51
90.6161982
0
ARC
8
DEFAULT_255_1_234
10
10.0485293
20
165.9038578
40
0.3539455
50
41.1815071
51
70.707185
0
ARC
8
DEFAULT_255_1_234
10
10.0007693
20
165.8604919
40
0.4184468
50
12.1971897
51
41.3445735
0
ARC
8
DEFAULT_255_1_234
10
9.80817
20
165.8146425
40
0.616399
50
359.5703439
51
12.5804035
0
ARC
8
DEFAULT_255_1_234
10
9.8554775
20
165.7964116
40
0.5690829
50
347.0197749
51
0.3188898
0
ARC
8
DEFAULT_255_1_234
10
9.9513277
20
165.7757808
40
0.4710501
50
334.3504053
51
346.846361
0
ARC
8
DEFAULT_255_1_234
10
10.0358701
20
165.7318805
40
0.3758475
50
310.422922
51
334.8045033
0
ARC
8
DEFAULT_255_1_234
10
10.0440526
20
165.7254782
40
0.3656736
50
301.8486886
51
310.097356
0
ARC
8
DEFAULT_255_1_234
10
10.0408252
20
165.7330638
40
0.3738224
50
274.307774
51
301.655379
0
ARC
8
DEFAULT_255_1_234
10
10.029756
20
165.8208361
40
0.4621997
50
269.9546461
51
274.8588071
0
ARC
8
DEFAULT_255_1_234
10
10.0248493
20
165.7707249
40
0.4121134
50
250.888809
51
270.631312
0
ARC
8
DEFAULT_255_1_234
10
10.0098413
20
165.7148277
40
0.3544073
50
221.1701932
51
250.2227191
0
ARC
8
DEFAULT_255_1_234
10
10.0582568
20
165.7589439
40
0.4198961
50
191.6263638
51
221.3526367
0
ARC
8
DEFAULT_255_1_234
10
10.2470563
20
165.8026329
40
0.6136451
50
179.610213
51
192.0693181
0
ARC
8
DEFAULT_255_1_234
10
10.2893791
20
165.7963633
40
0.5065736
50
179.636298
51
190.6162791
0
ARC
8
DEFAULT_255_1_234
10
10.1251459
20
165.764359
40
0.3392576
50
190.4136628
51
208.7170242
0
ARC
8
DEFAULT_255_1_234
10
10.0741084
20
165.7390366
40
0.2823401
50
209.1867941
51
217.4225593
0
ARC
8
DEFAULT_255_1_234
10
10.0211918
20
165.6924558
40
0.2120636
50
216.1156896
51
265.2575835
0
ARC
8
DEFAULT_255_1_234
10
10.0291066
20
165.7498109
40
0.2698952
50
264.5897417
51
270.0601757
0
ARC
8
DEFAULT_255_1_234
10
10.0324127
20
165.7118185
40
0.2319225
50
269.2532621
51
291.8792492
0
ARC
8
DEFAULT_255_1_234
10
10.0353348
20
165.6940238
40
0.2143562
50
292.9269754
51
323.1776747
0
ARC
8
DEFAULT_255_1_234
10
9.996017
20
165.7288452
40
0.2667346
50
322.2518483
51
323.0930371
0
ARC
8
DEFAULT_255_1_234
10
9.9665829
20
165.746999
40
0.3011886
50
323.6941278
51
343.8493282
0
ARC
8
DEFAULT_255_1_234
10
9.8087372
20
165.795035
40
0.4661719
50
343.5748474
51
355.0079071
0
ARC
8
DEFAULT_255_1_234
10
9.6079618
20
165.8158424
40
0.6680042
50
354.7285225
51
0.1206288
0
ARC
8
DEFAULT_255_1_234
10
9.7848084
20
165.8204751
40
0.4911667
50
359.623636
51
11.2015604
0
ARC
8
DEFAULT_255_1_234
10
9.9382311
20
165.852064
40
0.3345323
50
10.9989411
51
30.8319188
0
ARC
8
DEFAULT_255_1_234
10
9.9778184
20
165.8729297
40
0.2898553
50
31.3008956
51
37.3959224
0
ARC
8
DEFAULT_255_1_234
10
10.0274762
20
165.9148653
40
0.2249582
50
36.5915954
51
62.2442953
0
ARC
8
DEFAULT_255_1_234
10
10.0321216
20
165.9145602
40
0.2231053
50
63.3365542
51
89.7195421
0
ARC
8
DEFAULT_255_1_234
10
10.0278069
20
165.8576884
40
0.2800267
50
88.8936788
51
90.0047485
0
ARC
8
DEFAULT_255_1_234
10
10.0246429
20
165.9149787
40
0.2227586
50
89.1921125
51
114.7099455
0
ARC
8
DEFAULT_255_1_234
10
10.0275193
20
165.9187628
40
0.2205633
50
115.7997161
51
142.2900762
0
ARC
8
DEFAULT_255_1_234
10
10.0713925
20
165.8797658
40
0.2791541
50
141.4658779
51
142.3795754
0
ARC
8
DEFAULT_255_1_234
10
10.082283
20
165.8754557
40
0.2904292
50
143.0175714
51
163.234115
0
ARC
8
DEFAULT_255_1_234
10
10.2401002
20
165.8255054
40
0.4559523
50
162.9447461
51
174.3732162
0
ARC
8
DEFAULT_255_1_234
10
10.4546816
20
165.8014143
40
0.6718682
50
174.1228657
51
180.1565175
0
LINE
8
DEFAULT_255_1_234
10
10.5747451
20
165.8052012
11
10.5747451
21
165.8164456
0
LINE
8
DEFAULT_255_1_234
10
11.1594557
20
166.155385
11
11.1594557
21
166.608375
0
LINE
8
DEFAULT_255_1_234
10
11.1594557
20
166.608375
11
11.3080428
21
166.608375
0
LINE
8
DEFAULT_255_1_234
10
11.3080428
20
166.608375
11
11.3080428
21
165.3747
0
LINE
8
DEFAULT_255_1_234
10
11.3080428
20
165.3747
11
11.1715033
21
165.3747
0
LINE
8
DEFAULT_255_1_234
10
11.1715033
20
165.3747
11
11.1642747
21
165.4678682
0
LINE
8
DEFAULT_255_1_234
10
11.1594557
20
165.6116363
11
11.1594557
21
166.0108137
0
ARC
8
DEFAULT_255_1_234
10
11.2622605
20
165.8208457
40
0.6875294
50
169.1661407
51
180.3666851
0
ARC
8
DEFAULT_255_1_234
10
11.042625
20
165.8646387
40
0.4635805
50
150.2838427
51
169.3798909
0
ARC
8
DEFAULT_255_1_234
10
10.9792867
20
165.8970238
40
0.392532
50
142.1062393
51
149.806405
0
ARC
8
DEFAULT_255_1_234
10
10.9220599
20
165.9468749
40
0.3167807
50
118.4283255
51
142.8643566
0
ARC
8
DEFAULT_255_1_234
10
10.9121944
20
165.9531137
40
0.3066506
50
89.9199246
51
117.3621547
0
ARC
8
DEFAULT_255_1_234
10
10.9176923
20
165.8773731
40
0.3824245
50
89.9987914
51
90.7595231
0
ARC
8
DEFAULT_255_1_234
10
10.9214314
20
165.9008667
40
0.3589502
50
72.8978905
51
90.5955712
0
ARC
8
DEFAULT_255_1_234
10
10.9412262
20
165.9723123
40
0.2848505
50
39.9932841
51
72.477307
0
ARC
8
DEFAULT_255_1_234
10
10.938301
20
165.6510579
40
0.2908996
50
275.084999
51
320.969419
0
ARC
8
DEFAULT_255_1_234
10
10.916873
20
165.7777893
40
0.4191533
50
269.8935077
51
276.4672393
0
ARC
8
DEFAULT_255_1_234
10
10.9100745
20
165.6510703
40
0.2924958
50
222.0839186
51
271.1792213
0
ARC
8
DEFAULT_255_1_234
10
10.9711255
20
165.7135816
40
0.3797413
50
217.5160585
51
222.9101888
0
ARC
8
DEFAULT_255_1_234
10
11.0205094
20
165.7475781
40
0.4396261
50
193.0962774
51
217.1109254
0
ARC
8
DEFAULT_255_1_234
10
11.2162193
20
165.7964128
40
0.6413192
50
181.1070734
51
193.3838631
0
ARC
8
DEFAULT_255_1_234
10
11.3828252
20
165.8050869
40
0.8080801
50
179.9919009
51
181.4937549
0
ARC
8
DEFAULT_255_1_234
10
11.3011854
20
165.796472
40
0.5778615
50
179.6919417
51
188.6549204
0
ARC
8
DEFAULT_255_1_234
10
11.099227
20
165.7646672
40
0.3734182
50
188.4936033
51
202.2187731
0
ARC
8
DEFAULT_255_1_234
10
11.0024978
20
165.7263391
40
0.2693801
50
202.4517848
51
215.9307642
0
ARC
8
DEFAULT_255_1_234
10
10.9432424
20
165.6791191
40
0.1937215
50
214.9062306
51
264.2077075
0
ARC
8
DEFAULT_255_1_234
10
10.9526252
20
165.738915
40
0.2541804
50
263.4637896
51
270.0934907
0
ARC
8
DEFAULT_255_1_234
10
10.9566169
20
165.7297045
40
0.2449958
50
269.1634649
51
291.0931088
0
ARC
8
DEFAULT_255_1_234
10
10.9647874
20
165.6964994
40
0.2111194
50
292.2674853
51
328.1937478
0
ARC
8
DEFAULT_255_1_234
10
10.8956292
20
165.7464026
40
0.2962539
50
327.0410354
51
332.9414029
0
ARC
8
DEFAULT_255_1_234
10
10.936949
20
165.8940886
40
0.2512647
50
27.6811062
51
48.7893196
0
ARC
8
DEFAULT_255_1_234
10
10.9652771
20
165.9201916
40
0.2130039
50
49.8959006
51
87.010286
0
ARC
8
DEFAULT_255_1_234
10
10.9548629
20
165.8414504
40
0.292249
50
85.7764096
51
90.0424572
0
ARC
8
DEFAULT_255_1_234
10
10.9519345
20
165.9074006
40
0.2263149
50
89.313423
51
109.4265906
0
ARC
8
DEFAULT_255_1_234
10
10.9445056
20
165.9378962
40
0.1951098
50
110.3478057
51
145.1577858
0
ARC
8
DEFAULT_255_1_234
10
11.0098849
20
165.890275
40
0.2759807
50
144.7982748
51
162.8715388
0
ARC
8
DEFAULT_255_1_234
10
11.1793499
20
165.8357842
40
0.453983
50
162.5984223
51
173.3418672
0
ARC
8
DEFAULT_255_1_234
10
11.4461277
20
165.8026851
40
0.7228019
50
173.1877442
51
180.2462216
0
LINE
8
DEFAULT_255_1_234
10
12.0782865
20
165.3747
11
12.0750738
21
165.4606396
0
LINE
8
DEFAULT_255_1_234
10
11.535341
20
165.6782997
11
11.535341
21
166.2437341
0
LINE
8
DEFAULT_255_1_234
10
11.535341
20
166.2437341
11
11.6839282
21
166.2437341
0
LINE
8
DEFAULT_255_1_234
10
11.6839282
20
166.2437341
11
11.6839282
21
165.6823156
0
LINE
8
DEFAULT_255_1_234
10
12.071058
20
165.6116363
11
12.071058
21
166.2437341
0
LINE
8
DEFAULT_255_1_234
10
12.071058
20
166.2437341
11
12.2196451
21
166.2437341
0
LINE
8
DEFAULT_255_1_234
10
12.2196451
20
166.2437341
11
12.2196451
21
165.3747
0
LINE
8
DEFAULT_255_1_234
10
12.2196451
20
165.3747
11
12.0782865
21
165.3747
0
ARC
8
DEFAULT_255_1_234
10
11.8635203
20
165.642406
40
0.2789157
50
282.5436552
51
319.3308843
0
ARC
8
DEFAULT_255_1_234
10
11.8248036
20
165.7930137
40
0.4343667
50
269.8917857
51
283.214153
0
ARC
8
DEFAULT_255_1_234
10
11.8204721
20
165.9090183
40
0.5503818
50
269.9995424
51
270.3655186
0
ARC
8
DEFAULT_255_1_234
10
11.8174197
20
165.739953
40
0.3813286
50
257.7355913
51
270.4579866
0
ARC
8
DEFAULT_255_1_234
10
11.7876896
20
165.6100503
40
0.2480795
50
233.3384413
51
258.0721298
0
ARC
8
DEFAULT_255_1_234
10
11.7742503
20
165.5881041
40
0.2224626
50
221.9626381
51
232.7401232
0
ARC
8
DEFAULT_255_1_234
10
11.8022552
20
165.609633
40
0.2576959
50
197.9450831
51
221.3585622
0
ARC
8
DEFAULT_255_1_234
10
11.9417747
20
165.6572997
40
0.4051213
50
185.8088195
51
198.2790125
0
ARC
8
DEFAULT_255_1_234
10
12.130955
20
165.6797963
40
0.5956158
50
180.1439627
51
186.1199408
0
ARC
8
DEFAULT_255_1_234
10
12.0408418
20
165.678756
40
0.3569313
50
179.4285986
51
191.0735588
0
ARC
8
DEFAULT_255_1_234
10
11.8724846
20
165.6440017
40
0.1850421
50
190.5251661
51
212.6990766
0
ARC
8
DEFAULT_255_1_234
10
11.8260639
20
165.618383
40
0.1321852
50
214.2246197
51
264.4398755
0
ARC
8
DEFAULT_255_1_234
10
11.8437975
20
165.7093426
40
0.224609
50
262.1850223
51
270.1952455
0
ARC
8
DEFAULT_255_1_234
10
11.8479865
20
165.8369524
40
0.3522342
50
269.4431043
51
282.9585023
0
ARC
8
DEFAULT_255_1_234
10
11.8816555
20
165.6999561
40
0.2111871
50
282.391263
51
311.9722193
0
ARC
8
DEFAULT_255_1_234
10
11.8824152
20
165.6926809
40
0.2053153
50
313.1724425
51
336.7506893
0
LINE
8
DEFAULT_255_1_234
10
12.9987237
20
165.6485823
11
13.1392792
21
165.6485823
0
LINE
8
DEFAULT_255_1_234
10
12.4067846
20
165.8011853
11
12.4067846
21
165.8260837
0
LINE
8
DEFAULT_255_1_234
10
13.1392792
20
165.9449534
11
12.9987237
21
165.9449534
0
LINE
8
DEFAULT_255_1_234
10
12.5553718
20
165.8204615
11
12.5553718
21
165.7923504
0
ARC
8
DEFAULT_255_1_234
10
12.7975273
20
165.6939121
40
0.2140268
50
269.0327816
51
309.2224514
0
ARC
8
DEFAULT_255_1_234
10
12.8185027
20
165.6724108
40
0.1841255
50
308.396669
51
329.6984113
0
ARC
8
DEFAULT_255_1_234
10
12.8322882
20
165.661982
40
0.166974
50
330.401383
51
355.3970571
0
ARC
8
DEFAULT_255_1_234
10
12.8779748
20
165.6637082
40
0.2617417
50
329.2357853
51
356.6870514
0
ARC
8
DEFAULT_255_1_234
10
12.822977
20
165.6927971
40
0.3238945
50
324.8706984
51
329.7905871
0
ARC
8
DEFAULT_255_1_234
10
12.8151489
20
165.6995106
40
0.3341614
50
298.8769168
51
324.7016144
0
ARC
8
DEFAULT_255_1_234
10
12.781968
20
165.7523917
40
0.3965068
50
296.9023738
51
299.385174
0
ARC
8
DEFAULT_255_1_234
10
12.7949294
20
165.7236422
40
0.365007
50
269.8406811
51
297.1299281
0
ARC
8
DEFAULT_255_1_234
10
12.789595
20
165.7874407
40
0.4288259
50
253.315473
51
270.5771285
0
ARC
8
DEFAULT_255_1_234
10
12.7648985
20
165.6980739
40
0.3361372
50
221.1002312
51
252.9744583
0
ARC
8
DEFAULT_255_1_234
10
12.8108983
20
165.737559
40
0.3967576
50
194.5394537
51
221.0302238
0
ARC
8
DEFAULT_255_1_234
10
12.9957804
20
165.7890952
40
0.5886672
50
182.0499201
51
194.8773585
0
ARC
8
DEFAULT_255_1_234
10
13.1728002
20
165.800906
40
0.7660157
50
179.9791086
51
182.4591564
0
ARC
8
DEFAULT_255_1_234
10
12.9990046
20
165.8290498
40
0.5922274
50
168.614861
51
180.2869651
0
ARC
8
DEFAULT_255_1_234
10
12.8788191
20
165.8526269
40
0.4697532
50
154.9162259
51
168.5402336
0
ARC
8
DEFAULT_255_1_234
10
12.7866699
20
165.898163
40
0.3669966
50
133.5746694
51
155.2558665
0
ARC
8
DEFAULT_255_1_234
10
12.7703857
20
165.9120467
40
0.3457206
50
122.0165146
51
133.2055214
0
ARC
8
DEFAULT_255_1_234
10
12.7739696
20
165.9032361
40
0.355095
50
97.8731644
51
121.7531281
0
ARC
8
DEFAULT_255_1_234
10
12.7918779
20
165.7975159
40
0.4622833
50
89.8471353
51
98.2769494
0
ARC
8
DEFAULT_255_1_234
10
12.7967531
20
165.8585091
40
0.401305
50
73.3760412
51
90.5199766
0
ARC
8
DEFAULT_255_1_234
10
12.8163895
20
165.9307516
40
0.3264695
50
47.7085968
51
73.0509704
0
ARC
8
DEFAULT_255_1_234
10
12.8293765
20
165.9420128
40
0.309407
50
3.7443473
51
48.0843753
0
ARC
8
DEFAULT_255_1_234
10
12.7306714
20
165.9262614
40
0.4090351
50
2.6192045
51
5.0432185
0
ARC
8
DEFAULT_255_1_234
10
12.7763568
20
165.9302592
40
0.2228519
50
3.780656
51
23.9356886
0
ARC
8
DEFAULT_255_1_234
10
12.7992184
20
165.9383155
40
0.198697
50
24.4869552
51
46.9440088
0
ARC
8
DEFAULT_255_1_234
10
12.7993034
20
165.9406484
40
0.1969404
50
46.498716
51
89.3298174
0
ARC
8
DEFAULT_255_1_234
10
12.7931388
20
165.8811723
40
0.2565428
50
88.1083975
51
90.0061569
0
ARC
8
DEFAULT_255_1_234
10
12.7903818
20
165.8865759
40
0.251154
50
89.3773333
51
107.2071161
0
ARC
8
DEFAULT_255_1_234
10
12.7760941
20
165.938319
40
0.1975072
50
107.6883219
51
143.3583002
0
ARC
8
DEFAULT_255_1_234
10
12.8328325
20
165.8956873
40
0.2684762
50
143.2846717
51
162.935323
0
ARC
8
DEFAULT_255_1_234
10
12.9833926
20
165.8473652
40
0.4265927
50
162.6650068
51
174.0805419
0
ARC
8
DEFAULT_255_1_234
10
13.1976766
20
165.8224636
40
0.6423078
50
173.8423985
51
180.1785963
0
ARC
8
DEFAULT_255_1_234
10
13.1428866
20
165.7893039
40
0.5875227
50
179.7028978
51
188.2277152
0
ARC
8
DEFAULT_255_1_234
10
12.9327167
20
165.7578247
40
0.3750127
50
188.0629871
51
201.1160002
0
ARC
8
DEFAULT_255_1_234
10
12.8229366
20
165.7159238
40
0.2575093
50
201.2187293
51
216.9761968
0
ARC
8
DEFAULT_255_1_234
10
12.7777929
20
165.6820993
40
0.2010998
50
217.0135981
51
265.2056839
0
ARC
8
DEFAULT_255_1_234
10
12.7933788
20
165.7742695
40
0.2943543
50
263.681807
51
270.104251
0
LINE
8
DEFAULT_255_1_234
10
13.3593488
20
166.4541656
11
13.5079359
21
166.4541656
0
LINE
8
DEFAULT_255_1_234
10
13.5079359
20
166.4541656
11
13.5079359
21
166.2437341
0
LINE
8
DEFAULT_255_1_234
10
13.5079359
20
166.2437341
11
13.6701771
21
166.2437341
0
LINE
8
DEFAULT_255_1_234
10
13.6701771
20
166.2437341
11
13.6701771
21
166.1288802
0
LINE
8
DEFAULT_255_1_234
10
13.6701771
20
166.1288802
11
13.5079359
21
166.1288802
0
LINE
8
DEFAULT_255_1_234
10
13.5079359
20
166.1288802
11
13.5079359
21
165.5899506
0
LINE
8
DEFAULT_255_1_234
10
13.6741929
20
165.4951761
11
13.6741929
21
165.3747
0
LINE
8
DEFAULT_255_1_234
10
13.3593488
20
165.5899506
11
13.3593488
21
166.1288802
0
LINE
8
DEFAULT_255_1_234
10
13.3593488
20
166.1288802
11
13.2011235
21
166.1288802
0
LINE
8
DEFAULT_255_1_234
10
13.2011235
20
166.1288802
11
13.2011235
21
166.2437341
0
LINE
8
DEFAULT_255_1_234
10
13.2011235
20
166.2437341
11
13.3593488
21
166.2437341
0
LINE
8
DEFAULT_255_1_234
10
13.3593488
20
166.2437341
11
13.3593488
21
166.4541656
0
ARC
8
DEFAULT_255_1_234
10
13.7086862
20
165.5889084
40
0.200753
50
179.7025659
51
187.917967
0
ARC
8
DEFAULT_255_1_234
10
13.6340888
20
165.5781724
40
0.1253883
50
187.7545981
51
200.2447476
0
ARC
8
DEFAULT_255_1_234
10
13.5920209
20
165.5624859
40
0.0804913
50
200.130383
51
219.174133
0
ARC
8
DEFAULT_255_1_234
10
13.5784386
20
165.5532515
40
0.0641445
50
220.4434483
51
249.6172
0
ARC
8
DEFAULT_255_1_234
10
13.5939236
20
165.5921968
40
0.1060489
50
249.1032952
51
262.775154
0
ARC
8
DEFAULT_255_1_234
10
13.6027408
20
165.6550715
40
0.1695354
50
262.4913187
51
270.2611758
0
ARC
8
DEFAULT_255_1_234
10
13.6024825
20
165.6766103
40
0.191075
50
270.3091804
51
275.6625139
0
ARC
8
DEFAULT_255_1_234
10
13.588205
20
165.8267435
40
0.3418851
50
275.5610264
51
279.0879356
0
ARC
8
DEFAULT_255_1_234
10
13.5551927
20
166.0362699
40
0.5539959
50
279.0365489
51
281.5011378
0
ARC
8
DEFAULT_255_1_234
10
13.5195004
20
166.2166423
40
0.7378639
50
281.4243939
51
282.1017894
0
ARC
8
DEFAULT_255_1_234
10
13.5538251
20
165.8084858
40
0.4501761
50
275.2597045
51
285.5083879
0
ARC
8
DEFAULT_255_1_234
10
13.5599576
20
165.7528606
40
0.3942242
50
270.0268409
51
275.1132796
0
ARC
8
DEFAULT_255_1_234
10
13.5579541
20
165.6201614
40
0.261534
50
257.3573315
51
270.479383
0
ARC
8
DEFAULT_255_1_234
10
13.5366431
20
165.5303406
40
0.1692304
50
230.8037497
51
257.741658
0
ARC
8
DEFAULT_255_1_234
10
13.5298335
20
165.5193777
40
0.1564393
50
219.974146
51
230.1990686
0
ARC
8
DEFAULT_255_1_234
10
13.5630281
20
165.5447579
40
0.1981916
50
196.5084186
51
219.4318458
0
ARC
8
DEFAULT_255_1_234
10
13.6645727
20
165.5766194
40
0.3046086
50
184.6404872
51
196.8269686
0
ARC
8
DEFAULT_255_1_234
10
13.7890791
20
165.5891908
40
0.4297309
50
179.8986958
51
184.9681077
0
LINE
8
DEFAULT_255_1_234
10
14.0051005
20
166.2437341
11
14.0051005
21
165.3747
0
LINE
8
DEFAULT_255_1_234
10
14.0051005
20
165.3747
11
13.8565134
21
165.3747
0
LINE
8
DEFAULT_255_1_234
10
13.8565134
20
165.3747
11
13.8565134
21
166.2437341
0
LINE
8
DEFAULT_255_1_234
10
13.8565134
20
166.2437341
11
14.0051005
21
166.2437341
0
ARC
8
DEFAULT_255_1_234
10
13.9423282
20
166.4751889
40
0.097867
50
161.415052
51
180.5526306
0
ARC
8
DEFAULT_255_1_234
10
13.9299061
20
166.4786077
40
0.0850062
50
138.1827368
51
160.9307106
0
ARC
8
DEFAULT_255_1_234
10
13.9189006
20
166.4881588
40
0.0704362
50
104.6368899
51
138.0039868
0
ARC
8
DEFAULT_255_1_234
10
13.9296161
20
166.4514963
40
0.1086221
50
92.0600725
51
105.2189128
0
ARC
8
DEFAULT_255_1_234
10
13.9319509
20
166.4172117
40
0.1429728
50
89.9756393
51
92.5012496
0
ARC
8
DEFAULT_255_1_234
10
13.9329529
20
166.4397731
40
0.1204151
50
78.0235316
51
90.4478182
0
ARC
8
DEFAULT_255_1_234
10
13.9421621
20
166.4811295
40
0.0780493
50
55.051506
51
78.3369085
0
ARC
8
DEFAULT_255_1_234
10
13.9471895
20
166.4895711
40
0.0682538
50
42.0501187
51
54.4513741
0
ARC
8
DEFAULT_255_1_234
10
13.9336762
20
166.4771798
40
0.0865878
50
1.7497075
51
42.1496013
0
ARC
8
DEFAULT_255_1_234
10
13.9082095
20
166.4742738
40
0.1121515
50
359.9852656
51
2.8364544
0
ARC
8
DEFAULT_255_1_234
10
13.9248087
20
166.4733229
40
0.0955566
50
342.1070653
51
0.552888
0
ARC
8
DEFAULT_255_1_234
10
13.9390784
20
166.4693904
40
0.0807713
50
316.7107116
51
341.6516965
0
ARC
8
DEFAULT_255_1_234
10
13.9457822
20
166.4633823
40
0.0717724
50
285.4397031
51
316.5324284
0
ARC
8
DEFAULT_255_1_234
10
13.9347739
20
166.4999554
40
0.1099597
50
272.3547054
51
285.8953117
0
ARC
8
DEFAULT_255_1_234
10
13.9320897
20
166.5365048
40
0.1465932
50
269.9695369
51
272.8160237
0
ARC
8
DEFAULT_255_1_234
10
13.9311078
20
166.5145863
40
0.1246779
50
258.8431134
51
270.4153935
0
ARC
8
DEFAULT_255_1_234
10
13.922112
20
166.4710414
40
0.0802162
50
238.5431189
51
259.1288175
0
ARC
8
DEFAULT_255_1_234
10
13.9153005
20
166.4586856
40
0.0661247
50
222.5062634
51
237.9906969
0
ARC
8
DEFAULT_255_1_234
10
13.9280593
20
166.4702889
40
0.0833707
50
184.1069131
51
222.460413
0
ARC
8
DEFAULT_255_1_234
10
13.9549833
20
166.4741349
40
0.1105176
50
179.9429482
51
185.0960898
0
LINE
8
DEFAULT_255_1_234
10
14.3087002
20
166.2437341
11
14.529573
21
165.5762966
0
LINE
8
DEFAULT_255_1_234
10
14.529573
20
165.5762966
11
14.7448236
21
166.2437341
0
LINE
8
DEFAULT_255_1_234
10
14.7448236
20
166.2437341
11
14.8966235
21
166.2437341
0
LINE
8
DEFAULT_255_1_234
10
14.8966235
20
166.2437341
11
14.584992
21
165.3747
0
LINE
8
DEFAULT_255_1_234
10
14.584992
20
165.3747
11
14.4717445
21
165.3747
0
LINE
8
DEFAULT_255_1_234
10
14.4717445
20
165.3747
11
14.1569004
21
166.2437341
0
LINE
8
DEFAULT_255_1_234
10
14.1569004
20
166.2437341
11
14.3087002
21
166.2437341
0
LINE
8
DEFAULT_255_1_234
10
15.2010264
20
166.2437341
11
15.2010264
21
165.3747
0
LINE
8
DEFAULT_255_1_234
10
15.2010264
20
165.3747
11
15.0524392
21
165.3747
0
LINE
8
DEFAULT_255_1_234
10
15.0524392
20
165.3747
11
15.0524392
21
166.2437341
0
LINE
8
DEFAULT_255_1_234
10
15.0524392
20
166.2437341
11
15.2010264
21
166.2437341
0
ARC
8
DEFAULT_255_1_234
10
15.1382541
20
166.4751889
40
0.097867
50
161.415052
51
180.5526306
0
ARC
8
DEFAULT_255_1_234
10
15.1258319
20
166.4786077
40
0.0850062
50
138.1827368
51
160.9307106
0
ARC
8
DEFAULT_255_1_234
10
15.1148265
20
166.4881588
40
0.0704362
50
104.6368899
51
138.0039868
0
ARC
8
DEFAULT_255_1_234
10
15.1255419
20
166.4514963
40
0.1086221
50
92.0600725
51
105.2189128
0
ARC
8
DEFAULT_255_1_234
10
15.1278768
20
166.4172117
40
0.1429728
50
89.9756393
51
92.5012496
0
ARC
8
DEFAULT_255_1_234
10
15.1288787
20
166.4397731
40
0.1204151
50
78.0235316
51
90.4478182
0
ARC
8
DEFAULT_255_1_234
10
15.1380879
20
166.4811295
40
0.0780493
50
55.051506
51
78.3369085
0
ARC
8
DEFAULT_255_1_234
10
15.1431153
20
166.4895711
40
0.0682538
50
42.0501187
51
54.4513741
0
ARC
8
DEFAULT_255_1_234
10
15.129602
20
166.4771798
40
0.0865878
50
1.7497075
51
42.1496013
0
ARC
8
DEFAULT_255_1_234
10
15.1041353
20
166.4742738
40
0.1121515
50
359.9852656
51
2.8364544
0
ARC
8
DEFAULT_255_1_234
10
15.1207345
20
166.4733229
40
0.0955566
50
342.1070653
51
0.552888
0
ARC
8
DEFAULT_255_1_234
10
15.1350043
20
166.4693904
40
0.0807713
50
316.7107116
51
341.6516965
0
ARC
8
DEFAULT_255_1_234
10
15.141708
20
166.4633823
40
0.0717724
50
285.4397031
51
316.5324284
0
ARC
8
DEFAULT_255_1_234
10
15.1306997
20
166.4999554
40
0.1099597
50
272.3547054
51
285.8953117
0
ARC
8
DEFAULT_255_1_234
10
15.1280155
20
166.5365048
40
0.1465932
50
269.9695369
51
272.8160237
0
ARC
8
DEFAULT_255_1_234
10
15.1270336
20
166.5145863
40
0.1246779
50
258.8431134
51
270.4153935
0
ARC
8
DEFAULT_255_1_234
10
15.1180379
20
166.4710414
40
0.0802162
50
238.5431189
51
259.1288175
0
ARC
8
DEFAULT_255_1_234
10
15.1112264
20
166.4586856
40
0.0661247
50
222.5062634
51
237.9906969
0
ARC
8
DEFAULT_255_1_234
10
15.1239851
20
166.4702889
40
0.0833707
50
184.1069131
51
222.460413
0
ARC
8
DEFAULT_255_1_234
10
15.1509092
20
166.4741349
40
0.1105176
50
179.9429482
51
185.0960898
0
LINE
8
DEFAULT_255_1_234
10
15.4917753
20
166.4541656
11
15.6403625
21
166.4541656
0
LINE
8
DEFAULT_255_1_234
10
15.6403625
20
166.4541656
11
15.6403625
21
166.2437341
0
LINE
8
DEFAULT_255_1_234
10
15.6403625
20
166.2437341
11
15.8026036
21
166.2437341
0
LINE
8
DEFAULT_255_1_234
10
15.8026036
20
166.2437341
11
15.8026036
21
166.1288802
0
LINE
8
DEFAULT_255_1_234
10
15.8026036
20
166.1288802
11
15.6403625
21
166.1288802
0
LINE
8
DEFAULT_255_1_234
10
15.6403625
20
166.1288802
11
15.6403625
21
165.5899506
0
LINE
8
DEFAULT_255_1_234
10
15.8066194
20
165.4951761
11
15.8066194
21
165.3747
0
LINE
8
DEFAULT_255_1_234
10
15.4917753
20
165.5899506
11
15.4917753
21
166.1288802
0
LINE
8
DEFAULT_255_1_234
10
15.4917753
20
166.1288802
11
15.33355
21
166.1288802
0
LINE
8
DEFAULT_255_1_234
10
15.33355
20
166.1288802
11
15.33355
21
166.2437341
0
LINE
8
DEFAULT_255_1_234
10
15.33355
20
166.2437341
11
15.4917753
21
166.2437341
0
LINE
8
DEFAULT_255_1_234
10
15.4917753
20
166.2437341
11
15.4917753
21
166.4541656
0
ARC
8
DEFAULT_255_1_234
10
15.8411127
20
165.5889084
40
0.200753
50
179.7025659
51
187.917967
0
ARC
8
DEFAULT_255_1_234
10
15.7665153
20
165.5781724
40
0.1253883
50
187.7545981
51
200.2447476
0
ARC
8
DEFAULT_255_1_234
10
15.7244474
20
165.5624859
40
0.0804913
50
200.130383
51
219.174133
0
ARC
8
DEFAULT_255_1_234
10
15.7108651
20
165.5532515
40
0.0641445
50
220.4434483
51
249.6172
0
ARC
8
DEFAULT_255_1_234
10
15.7263501
20
165.5921968
40
0.1060489
50
249.1032952
51
262.775154
0
ARC
8
DEFAULT_255_1_234
10
15.7351673
20
165.6550715
40
0.1695354
50
262.4913187
51
270.2611758
0
ARC
8
DEFAULT_255_1_234
10
15.7349091
20
165.6766103
40
0.191075
50
270.3091804
51
275.6625139
0
ARC
8
DEFAULT_255_1_234
10
15.7206315
20
165.8267435
40
0.3418851
50
275.5610264
51
279.0879356
0
ARC
8
DEFAULT_255_1_234
10
15.6876192
20
166.0362699
40
0.5539959
50
279.0365489
51
281.5011378
0
ARC
8
DEFAULT_255_1_234
10
15.6519269
20
166.2166423
40
0.7378639
50
281.4243939
51
282.1017894
0
ARC
8
DEFAULT_255_1_234
10
15.6862516
20
165.8084858
40
0.4501761
50
275.2597045
51
285.5083879
0
ARC
8
DEFAULT_255_1_234
10
15.6923841
20
165.7528606
40
0.3942242
50
270.0268409
51
275.1132796
0
ARC
8
DEFAULT_255_1_234
10
15.6903806
20
165.6201614
40
0.261534
50
257.3573315
51
270.479383
0
ARC
8
DEFAULT_255_1_234
10
15.6690697
20
165.5303406
40
0.1692304
50
230.8037497
51
257.741658
0
ARC
8
DEFAULT_255_1_234
10
15.66226
20
165.5193777
40
0.1564393
50
219.974146
51
230.1990686
0
ARC
8
DEFAULT_255_1_234
10
15.6954546
20
165.5447579
40
0.1981916
50
196.5084186
51
219.4318458
0
ARC
8
DEFAULT_255_1_234
10
15.7969992
20
165.5766194
40
0.3046086
50
184.6404872
51
196.8269686
0
ARC
8
DEFAULT_255_1_234
10
15.9215056
20
165.5891908
40
0.4297309
50
179.8986958
51
184.9681077
0
LINE
8
DEFAULT_255_1_234
10
16.0435557
20
166.2437341
11
16.2604126
21
165.5923601
0
LINE
8
DEFAULT_255_1_234
10
16.2604126
20
165.5923601
11
16.4628125
21
166.2437341
0
LINE
8
DEFAULT_255_1_234
10
16.4628125
20
166.2437341
11
16.6218409
21
166.2437341
0
LINE
8
DEFAULT_255_1_234
10
16.6218409
20
166.2437341
11
16.2724603
21
165.24057
0
LINE
8
DEFAULT_255_1_234
10
16.0146415
20
165.023713
11
15.9865304
21
165.0261226
0
LINE
8
DEFAULT_255_1_234
10
15.9865304
20
165.0261226
11
15.9311114
21
165.0365638
0
LINE
8
DEFAULT_255_1_234
10
15.9311114
20
165.0365638
11
15.9311114
21
165.1570399
0
LINE
8
DEFAULT_255_1_234
10
15.9311114
20
165.1570399
11
15.9712701
21
165.1538272
0
LINE
8
DEFAULT_255_1_234
10
16.1584096
20
165.295989
11
16.1913397
21
165.3843381
0
LINE
8
DEFAULT_255_1_234
10
16.1913397
20
165.3843381
11
15.8813146
21
166.2437341
0
LINE
8
DEFAULT_255_1_234
10
15.8813146
20
166.2437341
11
16.0435557
21
166.2437341
0
ARC
8
DEFAULT_255_1_234
10
15.8089945
20
165.4090403
40
0.4931356
50
327.7224013
51
340.0237316
0
ARC
8
DEFAULT_255_1_234
10
15.9842161
20
165.295872
40
0.2845645
50
305.2163759
51
328.1469174
0
ARC
8
DEFAULT_255_1_234
10
16.0187212
20
165.2549893
40
0.2313123
50
268.9893887
51
304.0733175
0
ARC
8
DEFAULT_255_1_234
10
15.9727414
20
165.4573864
40
0.3035628
50
269.7222887
51
278.0404605
0
ARC
8
DEFAULT_255_1_234
10
15.9883237
20
165.3513823
40
0.1964222
50
277.8648378
51
290.8634365
0
ARC
8
DEFAULT_255_1_234
10
16.0091226
20
165.2958422
40
0.1371168
50
291.0076295
51
305.5967213
0
ARC
8
DEFAULT_255_1_234
10
16.0072417
20
165.2942702
40
0.1369553
50
306.6194038
51
324.1023288
0
ARC
8
DEFAULT_255_1_234
10
15.9325231
20
165.34972
40
0.2299972
50
323.8264381
51
334.2987676
0
ARC
8
DEFAULT_255_1_234
10
15.808134
20
165.4108087
40
0.3685747
50
334.1277399
51
340.8153554
0
ARC
8
DEFAULT_255_1_234
10
15.7105275
20
165.4467465
40
0.4725741
50
340.5889714
51
341.3967148
0
LINE
8
DEFAULT_255_1_234
10
16.955158
20
165.9104169
11
16.955158
21
166.0316962
0
LINE
8
DEFAULT_255_1_234
10
16.955158
20
166.0316962
11
17.0667992
21
166.0316962
0
LINE
8
DEFAULT_255_1_234
10
16.876447
20
166.2373087
11
16.7278598
21
166.2373087
0
LINE
8
DEFAULT_255_1_234
10
16.7174186
20
165.6831188
11
16.8668089
21
165.6831188
0
LINE
8
DEFAULT_255_1_234
10
17.0667992
20
165.9104169
11
16.955158
21
165.9104169
0
ARC
8
DEFAULT_255_1_234
10
17.0638858
20
166.3709713
40
0.3392876
50
270.4919872
51
281.8951556
0
ARC
8
DEFAULT_255_1_234
10
17.088012
20
166.2607702
40
0.2264817
50
281.6691735
51
301.2943132
0
ARC
8
DEFAULT_255_1_234
10
17.105033
20
166.2296304
40
0.1910381
50
301.7833094
51
311.7545298
0
ARC
8
DEFAULT_255_1_234
10
17.1141906
20
166.2194748
40
0.1773635
50
311.7323931
51
354.2802411
0
ARC
8
DEFAULT_255_1_234
10
17.0415531
20
166.2319722
40
0.2509385
50
353.0937916
51
0.1181479
0
ARC
8
DEFAULT_255_1_234
10
16.9954316
20
166.2367386
40
0.2970898
50
359.1805295
51
15.0453146
0
ARC
8
DEFAULT_255_1_234
10
17.1300153
20
166.2759992
40
0.1569564
50
13.9577229
51
77.6713066
0
ARC
8
DEFAULT_255_1_234
10
17.0913682
20
166.1374949
40
0.3006298
50
76.1116566
51
90.7026153
0
ARC
8
DEFAULT_255_1_234
10
17.085452
20
166.1648545
40
0.2732568
50
89.5324876
51
103.531937
0
ARC
8
DEFAULT_255_1_234
10
17.0653965
20
166.2447884
40
0.1908508
50
103.2931773
51
133.5619022
0
ARC
8
DEFAULT_255_1_234
10
17.0609453
20
166.2507375
40
0.1834746
50
133.8349307
51
173.5344437
0
ARC
8
DEFAULT_255_1_234
10
17.1332496
20
166.2379213
40
0.2568033
50
172.5096846
51
180.1366907
0
ARC
8
DEFAULT_255_1_234
10
17.038139
20
166.2413622
40
0.3103056
50
155.3484492
51
180.7484736
0
ARC
8
DEFAULT_255_1_234
10
17.0332479
20
166.2384846
40
0.3070957
50
131.5744599
51
154.4798489
0
ARC
8
DEFAULT_255_1_234
10
17.0645626
20
166.206831
40
0.3515643
50
96.9875458
51
131.9690667
0
ARC
8
DEFAULT_255_1_234
10
17.0865106
20
166.0822636
40
0.4779224
50
89.8596053
51
97.7825159
0
ARC
8
DEFAULT_255_1_234
10
17.0913169
20
166.0560616
40
0.5041361
50
78.3655447
51
90.4131539
0
ARC
8
DEFAULT_255_1_234
10
17.1271087
20
166.2219887
40
0.3344039
50
56.6229102
51
78.638727
0
ARC
8
DEFAULT_255_1_234
10
17.1486031
20
166.2595805
40
0.2912001
50
47.0253525
51
56.0854072
0
ARC
8
DEFAULT_255_1_234
10
17.1505811
20
166.2635223
40
0.2869704
50
10.9208013
51
46.7778124
0
ARC
8
DEFAULT_255_1_234
10
17.0141878
20
166.2319857
40
0.426899
50
359.6364486
51
11.6087304
0
ARC
8
DEFAULT_255_1_234
10
17.1976722
20
166.2304752
40
0.243409
50
332.3549906
51
359.7179418
0
ARC
8
DEFAULT_255_1_234
10
17.1326323
20
166.2613142
40
0.3153459
50
325.2333722
51
332.8745602
0
ARC
8
DEFAULT_255_1_234
10
17.1478947
20
166.2506828
40
0.2967456
50
292.9802137
51
325.2392345
0
ARC
8
DEFAULT_255_1_234
10
17.1204321
20
166.3040863
40
0.3566604
50
292.5402179
51
293.6924929
0
ARC
8
DEFAULT_255_1_234
10
17.1596917
20
165.6586091
40
0.3307468
50
57.6435486
51
72.8625112
0
ARC
8
DEFAULT_255_1_234
10
17.1951416
20
165.7160549
40
0.2632492
50
36.7248896
51
57.4697979
0
ARC
8
DEFAULT_255_1_234
10
17.1940049
20
165.717322
40
0.2634081
50
8.0545065
51
36.356114
0
ARC
8
DEFAULT_255_1_234
10
17.1077234
20
165.7018174
40
0.3510261
50
359.8320645
51
8.5869982
0
ARC
8
DEFAULT_255_1_234
10
17.070201
20
165.6970101
40
0.3885653
50
343.9829931
51
0.5571613
0
ARC
8
DEFAULT_255_1_234
10
17.1588208
20
165.6727438
40
0.2966924
50
311.6359546
51
343.7651759
0
ARC
8
DEFAULT_255_1_234
10
17.1209777
20
165.7154102
40
0.3537231
50
279.7829875
51
311.6255694
0
ARC
8
DEFAULT_255_1_234
10
17.0908553
20
165.859128
40
0.5004971
50
269.7286406
51
280.3856417
0
ARC
8
DEFAULT_255_1_234
10
17.0846626
20
165.8549996
40
0.4963778
50
256.6828919
51
270.4412052
0
ARC
8
DEFAULT_255_1_234
10
17.0507921
20
165.7165394
40
0.3538406
50
229.4223008
51
256.8556159
0
ARC
8
DEFAULT_255_1_234
10
17.0093314
20
165.6698736
40
0.2914296
50
181.818294
51
229.6455059
0
ARC
8
DEFAULT_255_1_234
10
17.113327
20
165.6829496
40
0.3959084
50
179.9755256
51
183.2323064
0
ARC
8
DEFAULT_255_1_234
10
17.0961016
20
165.6809037
40
0.2293034
50
179.4465117
51
196.2869258
0
ARC
8
DEFAULT_255_1_234
10
17.0473424
20
165.6675651
40
0.1787621
50
196.5661473
51
227.705904
0
ARC
8
DEFAULT_255_1_234
10
17.0637519
20
165.6859155
40
0.2033784
50
227.7652068
51
257.8762805
0
ARC
8
DEFAULT_255_1_234
10
17.0862489
20
165.7802156
40
0.3003081
50
257.4584385
51
270.426602
0
ARC
8
DEFAULT_255_1_234
10
17.0908055
20
165.8091996
40
0.329292
50
269.5962073
51
280.8789248
0
ARC
8
DEFAULT_255_1_234
10
17.1137584
20
165.6945685
40
0.2123908
50
280.6346389
51
299.8595945
0
ARC
8
DEFAULT_255_1_234
10
17.1328491
20
165.6583212
40
0.171457
50
300.3576302
51
314.5517981
0
ARC
8
DEFAULT_255_1_234
10
17.1245551
20
165.6643919
40
0.1816095
50
315.0728369
51
345.0431014
0
ARC
8
DEFAULT_255_1_234
10
17.0322365
20
165.6912841
40
0.2777492
50
344.5986631
51
357.9269593
0
ARC
8
DEFAULT_255_1_234
10
16.9426692
20
165.6974276
40
0.3674917
50
357.4748886
51
0.0231117
0
ARC
8
DEFAULT_255_1_234
10
17.0449801
20
165.6998679
40
0.2651907
50
359.5047933
51
13.4239635
0
ARC
8
DEFAULT_255_1_234
10
17.1316445
20
165.7220478
40
0.1757509
50
12.9498199
51
48.7551375
0
ARC
8
DEFAULT_255_1_234
10
17.1134179
20
165.69714
40
0.2065134
50
49.5088623
51
72.1836453
0
ARC
8
DEFAULT_255_1_234
10
17.0776331
20
165.5909291
40
0.3185836
50
71.9010081
51
84.3554254
0
ARC
8
DEFAULT_255_1_234
10
17.0614963
20
165.4548326
40
0.4556151
50
84.0193428
51
89.333121
0
LINE
8
DEFAULT_255_1_234
10
18.3960519
20
166.0662327
11
18.3960519
21
165.8734709
0
LINE
8
DEFAULT_255_1_234
10
17.6579351
20
165.8533916
11
17.6579351
21
166.0517755
0
LINE
8
DEFAULT_255_1_234
10
18.2474647
20
165.8333123
11
18.2474647
21
166.0766739
0
LINE
8
DEFAULT_255_1_234
10
17.8065223
20
166.0879184
11
17.8065223
21
165.8501789
0
ARC
8
DEFAULT_255_1_234
10
17.1713408
20
165.8685805
40
1.2247208
50
353.8441951
51
0.2287902
0
ARC
8
DEFAULT_255_1_234
10
17.6352912
20
165.8167806
40
0.7578929
50
344.4934747
51
353.9765454
0
ARC
8
DEFAULT_255_1_234
10
17.9345502
20
165.7316981
40
0.4467846
50
329.2803592
51
344.7472793
0
ARC
8
DEFAULT_255_1_234
10
18.0338327
20
165.6772018
40
0.3336173
50
324.9352394
51
328.6160465
0
ARC
8
DEFAULT_255_1_234
10
18.0715436
20
165.6508427
40
0.2876076
50
280.580143
51
324.9173126
0
ARC
8
DEFAULT_255_1_234
10
18.0314228
20
165.8179099
40
0.4592847
50
269.5977311
51
281.6734359
0
ARC
8
DEFAULT_255_1_234
10
18.0242134
20
165.8059173
40
0.4472986
50
256.6228859
51
270.51044
0
ARC
8
DEFAULT_255_1_234
10
17.9840112
20
165.6510877
40
0.2873874
50
215.8618325
51
257.2788573
0
ARC
8
DEFAULT_255_1_234
10
18.0861143
20
165.7195977
40
0.4102928
50
197.9693508
51
215.2623606
0
ARC
8
DEFAULT_255_1_234
10
18.3346259
20
165.8034709
40
0.6725652
50
187.8816417
51
198.2346507
0
ARC
8
DEFAULT_255_1_234
10
18.7304467
20
165.8606079
40
1.0724845
50
180.8976217
51
188.0055519
0
ARC
8
DEFAULT_255_1_234
10
19.0104655
20
165.8709777
40
1.3526448
50
180.7449369
51
181.1510016
0
ARC
8
DEFAULT_255_1_234
10
18.8527384
20
166.0566042
40
1.1948131
50
173.7675579
51
180.231553
0
ARC
8
DEFAULT_255_1_234
10
18.4009531
20
166.1076666
40
0.7401564
50
164.3058563
51
173.9002247
0
ARC
8
DEFAULT_255_1_234
10
18.10976
20
166.1915656
40
0.4371288
50
148.7922025
51
164.568378
0
ARC
8
DEFAULT_255_1_234
10
18.0146052
20
166.2446929
40
0.3282386
50
144.5883898
51
148.1176286
0
ARC
8
DEFAULT_255_1_234
10
17.980295
20
166.2686315
40
0.2864044
50
101.6440918
51
144.514236
0
ARC
8
DEFAULT_255_1_234
10
18.0228017
20
166.0997069
40
0.4604934
50
89.5284041
51
102.5819763
0
ARC
8
DEFAULT_255_1_234
10
18.0307104
20
166.0958018
40
0.464401
50
77.0437873
51
90.5081339
0
ARC
8
DEFAULT_255_1_234
10
18.0709106
20
166.2600615
40
0.2953195
50
48.2778575
51
77.4994676
0
ARC
8
DEFAULT_255_1_234
10
18.0781737
20
166.2729746
40
0.2808655
50
36.3142134
51
47.6305865
0
ARC
8
DEFAULT_255_1_234
10
17.9913044
20
166.2144515
40
0.3855453
50
18.2931786
51
35.6769206
0
ARC
8
DEFAULT_255_1_234
10
17.7369803
20
166.1271593
40
0.654423
50
8.024666
51
18.5605216
0
ARC
8
DEFAULT_255_1_234
10
17.3206723
20
166.0656792
40
1.0752407
50
1.1274072
51
8.1718305
0
ARC
8
DEFAULT_255_1_234
10
16.9970914
20
166.0529885
40
1.3990231
50
0.5424119
51
1.3863029
0
ARC
8
DEFAULT_255_1_234
10
17.1792292
20
166.0802342
40
1.0682415
50
359.8090433
51
4.9407866
0
ARC
8
DEFAULT_255_1_234
10
17.6002306
20
166.1178113
40
0.6455691
50
4.8362157
51
12.2904523
0
ARC
8
DEFAULT_255_1_234
10
17.875742
20
166.1791965
40
0.3633074
50
12.0805627
51
23.8173984
0
ARC
8
DEFAULT_255_1_234
10
17.9931126
20
166.2288919
40
0.2358723
50
24.2871213
51
31.3935614
0
ARC
8
DEFAULT_255_1_234
10
18.0455823
20
166.2632233
40
0.1732111
50
30.7407893
51
82.4657128
0
ARC
8
DEFAULT_255_1_234
10
18.0275957
20
166.1748691
40
0.263235
50
81.1060089
51
90.2184952
0
ARC
8
DEFAULT_255_1_234
10
18.0240256
20
166.2006924
40
0.2374236
50
89.3806855
51
105.6762551
0
ARC
8
DEFAULT_255_1_234
10
18.0056887
20
166.2673567
40
0.1682847
50
105.7981136
51
149.7388061
0
ARC
8
DEFAULT_255_1_234
10
18.1120965
20
166.203395
40
0.2924306
50
149.4208916
51
163.6286378
0
ARC
8
DEFAULT_255_1_234
10
18.3211853
20
166.139625
40
0.5110213
50
163.3763315
51
172.1410975
0
ARC
8
DEFAULT_255_1_234
10
18.6512572
20
166.0923518
40
0.8444586
50
172.0259487
51
178.0703232
0
ARC
8
DEFAULT_255_1_234
10
18.9542662
20
166.0779906
40
1.1477868
50
177.8631668
51
179.5044149
0
ARC
8
DEFAULT_255_1_234
10
18.8470066
20
165.8465389
40
1.0404907
50
179.7995573
51
185.2460446
0
ARC
8
DEFAULT_255_1_234
10
18.4427105
20
165.8082513
40
0.6343885
50
185.1411642
51
193.0079639
0
ARC
8
DEFAULT_255_1_234
10
18.1783578
20
165.7457641
40
0.3627568
50
192.7897626
51
205.2507664
0
ARC
8
DEFAULT_255_1_234
10
18.0737125
20
165.6990415
40
0.2481908
50
205.8005384
51
211.2537509
0
ARC
8
DEFAULT_255_1_234
10
18.0213565
20
165.663958
40
0.1852521
50
210.3789793
51
238.4008143
0
ARC
8
DEFAULT_255_1_234
10
18.0194087
20
165.6686376
40
0.1882621
50
239.6520629
51
265.9793761
0
ARC
8
DEFAULT_255_1_234
10
18.0279288
20
165.7358427
40
0.2559272
50
265.1315437
51
270.060332
0
ARC
8
DEFAULT_255_1_234
10
18.0308066
20
165.7034534
40
0.2235528
50
269.3314664
51
287.2178029
0
ARC
8
DEFAULT_255_1_234
10
18.0445918
20
165.6531279
40
0.1714108
50
287.7958004
51
329.080874
0
ARC
8
DEFAULT_255_1_234
10
17.9488375
20
165.712893
40
0.2842745
50
328.6634704
51
343.3325132
0
ARC
8
DEFAULT_255_1_234
10
17.7315395
20
165.7805863
40
0.5118644
50
343.0499468
51
351.9393422
0
ARC
8
DEFAULT_255_1_234
10
17.3848695
20
165.8316949
40
0.8622784
50
351.8069023
51
357.7959224
0
ARC
8
DEFAULT_255_1_234
10
17.0613251
20
165.8484721
40
1.1862365
50
357.5871873
51
359.2677531
0
LINE
8
DEFAULT_255_1_234
10
19.3197018
20
166.0662327
11
19.3197018
21
165.8734709
0
LINE
8
DEFAULT_255_1_234
10
18.581585
20
165.8533916
11
18.581585
21
166.0517755
0
LINE
8
DEFAULT_255_1_234
10
19.1711146
20
165.8333123
11
19.1711146
21
166.0766739
0
LINE
8
DEFAULT_255_1_234
10
18.7301722
20
166.0879184
11
18.7301722
21
165.8501789
0
ARC
8
DEFAULT_255_1_234
10
18.0949907
20
165.8685805
40
1.2247208
50
353.8441951
51
0.2287902
0
ARC
8
DEFAULT_255_1_234
10
18.5589411
20
165.8167806
40
0.7578929
50
344.4934747
51
353.9765454
0
ARC
8
DEFAULT_255_1_234
10
18.8582001
20
165.7316981
40
0.4467846
50
329.2803592
51
344.7472793
0
ARC
8
DEFAULT_255_1_234
10
18.9574826
20
165.6772018
40
0.3336173
50
324.9352394
51
328.6160465
0
ARC
8
DEFAULT_255_1_234
10
18.9951935
20
165.6508427
40
0.2876076
50
280.580143
51
324.9173126
0
ARC
8
DEFAULT_255_1_234
10
18.9550727
20
165.8179099
40
0.4592847
50
269.5977311
51
281.6734359
0
ARC
8
DEFAULT_255_1_234
10
18.9478633
20
165.8059173
40
0.4472986
50
256.6228859
51
270.51044
0
ARC
8
DEFAULT_255_1_234
10
18.9076611
20
165.6510877
40
0.2873874
50
215.8618325
51
257.2788573
0
ARC
8
DEFAULT_255_1_234
10
19.0097642
20
165.7195977
40
0.4102928
50
197.9693508
51
215.2623606
0
ARC
8
DEFAULT_255_1_234
10
19.2582758
20
165.8034709
40
0.6725652
50
187.8816417
51
198.2346507
0
ARC
8
DEFAULT_255_1_234
10
19.6540966
20
165.8606079
40
1.0724845
50
180.8976217
51
188.0055519
0
ARC
8
DEFAULT_255_1_234
10
19.9341154
20
165.8709777
40
1.3526448
50
180.7449369
51
181.1510016
0
ARC
8
DEFAULT_255_1_234
10
19.7763883
20
166.0566042
40
1.1948131
50
173.7675579
51
180.231553
0
ARC
8
DEFAULT_255_1_234
10
19.324603
20
166.1076666
40
0.7401564
50
164.3058563
51
173.9002247
0
ARC
8
DEFAULT_255_1_234
10
19.0334099
20
166.1915656
40
0.4371288
50
148.7922025
51
164.568378
0
ARC
8
DEFAULT_255_1_234
10
18.9382551
20
166.2446929
40
0.3282386
50
144.5883898
51
148.1176286
0
ARC
8
DEFAULT_255_1_234
10
18.9039449
20
166.2686315
40
0.2864044
50
101.6440918
51
144.514236
0
ARC
8
DEFAULT_255_1_234
10
18.9464516
20
166.0997069
40
0.4604934
50
89.5284041
51
102.5819763
0
ARC
8
DEFAULT_255_1_234
10
18.9543603
20
166.0958018
40
0.464401
50
77.0437873
51
90.5081339
0
ARC
8
DEFAULT_255_1_234
10
18.9945605
20
166.2600615
40
0.2953195
50
48.2778575
51
77.4994676
0
ARC
8
DEFAULT_255_1_234
10
19.0018236
20
166.2729746
40
0.2808655
50
36.3142134
51
47.6305865
0
ARC
8
DEFAULT_255_1_234
10
18.9149543
20
166.2144515
40
0.3855453
50
18.2931786
51
35.6769206
0
ARC
8
DEFAULT_255_1_234
10
18.6606302
20
166.1271593
40
0.654423
50
8.024666
51
18.5605216
0
ARC
8
DEFAULT_255_1_234
10
18.2443222
20
166.0656792
40
1.0752407
50
1.1274072
51
8.1718305
0
ARC
8
DEFAULT_255_1_234
10
17.9207413
20
166.0529885
40
1.3990231
50
0.5424119
51
1.3863029
0
ARC
8
DEFAULT_255_1_234
10
18.1028791
20
166.0802342
40
1.0682415
50
359.8090433
51
4.9407866
0
ARC
8
DEFAULT_255_1_234
10
18.5238805
20
166.1178113
40
0.6455691
50
4.8362157
51
12.2904523
0
ARC
8
DEFAULT_255_1_234
10
18.799392
20
166.1791965
40
0.3633074
50
12.0805627
51
23.8173984
0
ARC
8
DEFAULT_255_1_234
10
18.9167625
20
166.2288919
40
0.2358723
50
24.2871213
51
31.3935614
0
ARC
8
DEFAULT_255_1_234
10
18.9692322
20
166.2632233
40
0.1732111
50
30.7407893
51
82.4657128
0
ARC
8
DEFAULT_255_1_234
10
18.9512456
20
166.1748691
40
0.263235
50
81.1060089
51
90.2184952
0
ARC
8
DEFAULT_255_1_234
10
18.9476755
20
166.2006924
40
0.2374236
50
89.3806855
51
105.6762551
0
ARC
8
DEFAULT_255_1_234
10
18.9293386
20
166.2673567
40
0.1682847
50
105.7981136
51
149.7388061
0
ARC
8
DEFAULT_255_1_234
10
19.0357464
20
166.203395
40
0.2924306
50
149.4208916
51
163.6286378
0
ARC
8
DEFAULT_255_1_234
10
19.2448352
20
166.139625
40
0.5110213
50
163.3763315
51
172.1410975
0
ARC
8
DEFAULT_255_1_234
10
19.5749071
20
166.0923518
40
0.8444586
50
172.0259487
51
178.0703232
0
ARC
8
DEFAULT_255_1_234
10
19.8779161
20
166.0779906
40
1.1477868
50
177.8631668
51
179.5044149
0
ARC
8
DEFAULT_255_1_234
10
19.7706565
20
165.8465389
40
1.0404907
50
179.7995573
51
185.2460446
0
ARC
8
DEFAULT_255_1_234
10
19.3663604
20
165.8082513
40
0.6343885
50
185.1411642
51
193.0079639
0
ARC
8
DEFAULT_255_1_234
10
19.1020077
20
165.7457641
40
0.3627568
50
192.7897626
51
205.2507664
0
ARC
8
DEFAULT_255_1_234
10
18.9973624
20
165.6990415
40
0.2481908
50
205.8005384
51
211.2537509
0
ARC
8
DEFAULT_255_1_234
10
18.9450064
20
165.663958
40
0.1852521
50
210.3789793
51
238.4008143
0
ARC
8
DEFAULT_255_1_234
10
18.9430586
20
165.6686376
40
0.1882621
50
239.6520629
51
265.9793761
0
ARC
8
DEFAULT_255_1_234
10
18.9515787
20
165.7358427
40
0.2559272
50
265.1315437
51
270.060332
0
ARC
8
DEFAULT_255_1_234
10
18.9544565
20
165.7034534
40
0.2235528
50
269.3314664
51
287.2178029
0
ARC
8
DEFAULT_255_1_234
10
18.9682417
20
165.6531279
40
0.1714108
50
287.7958004
51
329.080874
0
ARC
8
DEFAULT_255_1_234
10
18.8724874
20
165.712893
40
0.2842745
50
328.6634704
51
343.3325132
0
ARC
8
DEFAULT_255_1_234
10
18.6551894
20
165.7805863
40
0.5118644
50
343.0499468
51
351.9393422
0
ARC
8
DEFAULT_255_1_234
10
18.3085194
20
165.8316949
40
0.8622784
50
351.8069023
51
357.7959224
0
ARC
8
DEFAULT_255_1_234
10
17.984975
20
165.8484721
40
1.1862365
50
357.5871873
51
359.2677531
0
LINE
8
DEFAULT_255_1_234
10
20.2433517
20
166.0662327
11
20.2433517
21
165.8734709
0
LINE
8
DEFAULT_255_1_234
10
19.5052349
20
165.8533916
11
19.5052349
21
166.0517755
0
LINE
8
DEFAULT_255_1_234
10
20.0947645
20
165.8333123
11
20.0947645
21
166.0766739
0
LINE
8
DEFAULT_255_1_234
10
19.6538221
20
166.0879184
11
19.6538221
21
165.8501789
0
ARC
8
DEFAULT_255_1_234
10
19.0186406
20
165.8685805
40
1.2247208
50
353.8441951
51
0.2287902
0
ARC
8
DEFAULT_255_1_234
10
19.482591
20
165.8167806
40
0.7578929
50
344.4934747
51
353.9765454
0
ARC
8
DEFAULT_255_1_234
10
19.78185
20
165.7316981
40
0.4467846
50
329.2803592
51
344.7472793
0
ARC
8
DEFAULT_255_1_234
10
19.8811325
20
165.6772018
40
0.3336173
50
324.9352394
51
328.6160465
0
ARC
8
DEFAULT_255_1_234
10
19.9188434
20
165.6508427
40
0.2876076
50
280.580143
51
324.9173126
0
ARC
8
DEFAULT_255_1_234
10
19.8787226
20
165.8179099
40
0.4592847
50
269.5977311
51
281.6734359
0
ARC
8
DEFAULT_255_1_234
10
19.8715132
20
165.8059173
40
0.4472986
50
256.6228859
51
270.51044
0
ARC
8
DEFAULT_255_1_234
10
19.831311
20
165.6510877
40
0.2873874
50
215.8618325
51
257.2788573
0
ARC
8
DEFAULT_255_1_234
10
19.9334141
20
165.7195977
40
0.4102928
50
197.9693508
51
215.2623606
0
ARC
8
DEFAULT_255_1_234
10
20.1819257
20
165.8034709
40
0.6725652
50
187.8816417
51
198.2346507
0
ARC
8
DEFAULT_255_1_234
10
20.5777465
20
165.8606079
40
1.0724845
50
180.8976217
51
188.0055519
0
ARC
8
DEFAULT_255_1_234
10
20.8577653
20
165.8709777
40
1.3526448
50
180.7449369
51
181.1510016
0
ARC
8
DEFAULT_255_1_234
10
20.7000382
20
166.0566042
40
1.1948131
50
173.7675579
51
180.231553
0
ARC
8
DEFAULT_255_1_234
10
20.2482529
20
166.1076666
40
0.7401564
50
164.3058563
51
173.9002247
0
ARC
8
DEFAULT_255_1_234
10
19.9570598
20
166.1915656
40
0.4371288
50
148.7922025
51
164.568378
0
ARC
8
DEFAULT_255_1_234
10
19.861905
20
166.2446929
40
0.3282386
50
144.5883898
51
148.1176286
0
ARC
8
DEFAULT_255_1_234
10
19.8275948
20
166.2686315
40
0.2864044
50
101.6440918
51
144.514236
0
ARC
8
DEFAULT_255_1_234
10
19.8701015
20
166.0997069
40
0.4604934
50
89.5284041
51
102.5819763
0
ARC
8
DEFAULT_255_1_234
10
19.8780102
20
166.0958018
40
0.464401
50
77.0437873
51
90.5081339
0
ARC
8
DEFAULT_255_1_234
10
19.9182104
20
166.2600615
40
0.2953195
50
48.2778575
51
77.4994676
0
ARC
8
DEFAULT_255_1_234
10
19.9254735
20
166.2729746
40
0.2808655
50
36.3142134
51
47.6305865
0
ARC
8
DEFAULT_255_1_234
10
19.8386042
20
166.2144515
40
0.3855453
50
18.2931786
51
35.6769206
0
ARC
8
DEFAULT_255_1_234
10
19.5842801
20
166.1271593
40
0.654423
50
8.024666
51
18.5605216
0
ARC
8
DEFAULT_255_1_234
10
19.1679721
20
166.0656792
40
1.0752407
50
1.1274072
51
8.1718305
0
ARC
8
DEFAULT_255_1_234
10
18.8443912
20
166.0529885
40
1.3990231
50
0.5424119
51
1.3863029
0
ARC
8
DEFAULT_255_1_234
10
19.026529
20
166.0802342
40
1.0682415
50
359.8090433
51
4.9407866
0
ARC
8
DEFAULT_255_1_234
10
19.4475304
20
166.1178113
40
0.6455691
50
4.8362157
51
12.2904523
0
ARC
8
DEFAULT_255_1_234
10
19.7230419
20
166.1791965
40
0.3633074
50
12.0805627
51
23.8173984
0
ARC
8
DEFAULT_255_1_234
10
19.8404124
20
166.2288919
40
0.2358723
50
24.2871213
51
31.3935614
0
ARC
8
DEFAULT_255_1_234
10
19.8928821
20
166.2632233
40
0.1732111
50
30.7407893
51
82.4657128
0
ARC
8
DEFAULT_255_1_234
10
19.8748955
20
166.1748691
40
0.263235
50
81.1060089
51
90.2184952
0
ARC
8
DEFAULT_255_1_234
10
19.8713254
20
166.2006924
40
0.2374236
50
89.3806855
51
105.6762551
0
ARC
8
DEFAULT_255_1_234
10
19.8529885
20
166.2673567
40
0.1682847
50
105.7981136
51
149.7388061
0
ARC
8
DEFAULT_255_1_234
10
19.9593963
20
166.203395
40
0.2924306
50
149.4208916
51
163.6286378
0
ARC
8
DEFAULT_255_1_234
10
20.1684851
20
166.139625
40
0.5110213
50
163.3763315
51
172.1410975
0
ARC
8
DEFAULT_255_1_234
10
20.498557
20
166.0923518
40
0.8444586
50
172.0259487
51
178.0703232
0
ARC
8
DEFAULT_255_1_234
10
20.801566
20
166.0779906
40
1.1477868
50
177.8631668
51
179.5044149
0
ARC
8
DEFAULT_255_1_234
10
20.6943064
20
165.8465389
40
1.0404907
50
179.7995573
51
185.2460446
0
ARC
8
DEFAULT_255_1_234
10
20.2900104
20
165.8082513
40
0.6343885
50
185.1411642
51
193.0079639
0
ARC
8
DEFAULT_255_1_234
10
20.0256576
20
165.7457641
40
0.3627568
50
192.7897626
51
205.2507664
0
ARC
8
DEFAULT_255_1_234
10
19.9210123
20
165.6990415
40
0.2481908
50
205.8005384
51
211.2537509
0
ARC
8
DEFAULT_255_1_234
10
19.8686564
20
165.663958
40
0.1852521
50
210.3789793
51
238.4008143
0
ARC
8
DEFAULT_255_1_234
10
19.8667085
20
165.6686376
40
0.1882621
50
239.6520629
51
265.9793761
0
ARC
8
DEFAULT_255_1_234
10
19.8752286
20
165.7358427
40
0.2559272
50
265.1315437
51
270.060332
0
ARC
8
DEFAULT_255_1_234
10
19.8781064
20
165.7034534
40
0.2235528
50
269.3314664
51
287.2178029
0
ARC
8
DEFAULT_255_1_234
10
19.8918916
20
165.6531279
40
0.1714108
50
287.7958004
51
329.080874
0
ARC
8
DEFAULT_255_1_234
10
19.7961373
20
165.712893
40
0.2842745
50
328.6634704
51
343.3325132
0
ARC
8
DEFAULT_255_1_234
10
19.5788393
20
165.7805863
40
0.5118644
50
343.0499468
51
351.9393422
0
ARC
8
DEFAULT_255_1_234
10
19.2321693
20
165.8316949
40
0.8622784
50
351.8069023
51
357.7959224
0
ARC
8
DEFAULT_255_1_234
10
18.9086249
20
165.8484721
40
1.1862365
50
357.5871873
51
359.2677531
0
ARC
8
DEFAULT_255_2_778
10
21.9705968
20
168.4064327
40
0.3998203
50
186.2132484
51
214.6493538
0
ARC
8
DEFAULT_255_2_778
10
21.8841482
20
168.3667342
40
0.306577
50
217.73315
51
266.8103771
0
ARC
8
DEFAULT_255_2_778
10
21.9236889
20
168.577346
40
0.5198043
50
263.7489618
51
266.7837018
0
ARC
8
DEFAULT_255_2_778
10
21.9002315
20
168.3832587
40
0.2400661
50
195.3205632
51
268.6379359
0
ARC
8
DEFAULT_255_2_778
10
22.1727069
20
168.5090098
40
0.5383454
50
193.3112816
51
200.5737177
0
ARC
8
DEFAULT_255_2_778
10
21.9557782
20
168.3562585
40
0.3083015
50
141.9315536
51
174.6395313
0
ARC
8
DEFAULT_255_2_778
10
21.8946342
20
168.3821429
40
0.2448175
50
90.025547
51
137.8738944
0
ARC
8
DEFAULT_255_2_778
10
21.8900516
20
168.4002521
40
0.3116405
50
89.1775175
51
162.365692
0
ARC
8
DEFAULT_255_2_778
10
22.1498498
20
168.268457
40
0.6009893
50
157.8900335
51
162.6116752
0
LINE
8
DEFAULT_255_2_778
10
18.967225
20
168.4509604
11
18.967225
21
168.3631604
0
LINE
8
DEFAULT_255_2_778
10
18.967225
20
168.3631604
11
21.573125
21
168.3631604
0
LINE
8
DEFAULT_255_2_778
10
21.894525
20
168.0583604
11
21.894525
21
168.1432604
0
LINE
8
DEFAULT_255_2_778
10
21.894525
20
168.6269604
11
21.894525
21
168.7118604
0
LINE
8
DEFAULT_255_2_778
10
21.576325
20
168.4480604
11
18.973525
21
168.4480604
0
ARC
8
DEFAULT_255_2_778
10
19.6924911
20
169.7365064
40
0.0240119
50
28.9725327
51
103.4850922
0
ARC
8
DEFAULT_255_2_778
10
19.6675258
20
169.5213978
40
0.2392435
50
85.3570436
51
90.3180147
0
ARC
8
DEFAULT_255_2_778
10
19.6830481
20
169.1242259
40
0.7359887
50
91.4445043
51
94.5082143
0
ARC
8
DEFAULT_255_2_778
10
19.6762883
20
169.3495799
40
0.510537
50
90.0204411
51
91.3236595
0
ARC
8
DEFAULT_255_2_778
10
19.6819035
20
169.6251894
40
0.234999
50
77.9191012
51
91.4136047
0
ARC
8
DEFAULT_255_2_778
10
19.7290393
20
169.8214469
40
0.0335995
50
19.4828986
51
86.5059996
0
ARC
8
DEFAULT_255_2_778
10
19.7399806
20
169.829061
40
0.0210433
50
359.8753665
51
9.8287108
0
ARC
8
DEFAULT_255_2_778
10
19.7114031
20
169.8339275
40
0.0498633
50
318.6549341
51
354.3463421
0
ARC
8
DEFAULT_255_2_778
10
19.5933
20
169.9216044
40
0.1968255
50
312.3913188
51
322.2071703
0
ARC
8
DEFAULT_255_2_778
10
19.7074994
20
169.7333784
40
0.0466808
50
7.8211356
51
66.6544263
0
ARC
8
DEFAULT_255_2_778
10
19.5739503
20
169.7055306
40
0.1830194
50
4.3516874
51
10.7699648
0
ARC
8
DEFAULT_255_2_778
10
19.7790881
20
169.7156912
40
0.0229506
50
170.6553415
51
230.4661874
0
ARC
8
DEFAULT_255_2_778
10
19.7669101
20
169.7061667
40
0.0085297
50
253.4430888
51
270.5900942
0
ARC
8
DEFAULT_255_2_778
10
19.6866504
20
169.803095
40
0.0341371
50
13.1090465
51
106.1583193
0
ARC
8
DEFAULT_255_2_778
10
19.6697504
20
169.6580182
40
0.1780193
50
87.6176468
51
90.0490737
0
ARC
8
DEFAULT_255_2_778
10
19.6795828
20
169.8548746
40
0.0666888
50
261.3891358
51
304.5653386
0
ARC
8
DEFAULT_255_2_778
10
19.7083184
20
169.8075951
40
0.0118802
50
319.9940947
51
0.6866831
0
ARC
8
DEFAULT_255_2_778
10
19.6912745
20
169.7794613
40
0.1602765
50
89.8843696
51
180.00852
0
ARC
8
DEFAULT_255_2_778
10
19.6921123
20
169.7796526
40
0.1600857
50
359.923006
51
90.1841118
0
ARC
8
DEFAULT_255_2_778
10
19.6920276
20
169.7792075
40
0.1601705
50
269.8462838
51
0.0822692
0
ARC
8
DEFAULT_255_2_778
10
19.6911681
20
169.7792074
40
0.1601705
50
179.9177057
51
270.1537517
0
ARC
8
DEFAULT_255_2_778
10
19.6944702
20
169.7805588
40
0.1256773
50
179.9900739
51
180.5112141
0
ARC
8
DEFAULT_255_2_778
10
19.6932324
20
169.7806978
40
0.1244397
50
135.616881
51
180.0539568
0
ARC
8
DEFAULT_255_2_778
10
19.6929982
20
169.7809377
40
0.1241046
50
90.5079979
51
135.6204406
0
ARC
8
DEFAULT_255_2_778
10
19.6907186
20
169.7809908
40
0.1240523
50
44.368794
51
89.4552913
0
ARC
8
DEFAULT_255_2_778
10
19.6904635
20
169.7806978
40
0.1244397
50
359.9460432
51
44.383119
0
ARC
8
DEFAULT_255_2_778
10
19.6892256
20
169.7805588
40
0.1256775
50
359.4887859
51
0.0099261
0
ARC
8
DEFAULT_255_2_778
10
19.6892212
20
169.7783161
40
0.1256817
50
359.9900717
51
0.5112118
0
ARC
8
DEFAULT_255_2_778
10
19.6902314
20
169.7781718
40
0.1246718
50
315.6604182
51
0.0563277
0
ARC
8
DEFAULT_255_2_778
10
19.6905411
20
169.778201
40
0.1244709
50
270.6245561
51
315.5511616
0
ARC
8
DEFAULT_255_2_778
10
19.6931761
20
169.7782548
40
0.1245239
50
224.4596468
51
269.4118891
0
ARC
8
DEFAULT_255_2_778
10
19.6934644
20
169.7781718
40
0.1246718
50
179.9436723
51
224.3395818
0
ARC
8
DEFAULT_255_2_778
10
19.6944746
20
169.7783161
40
0.1256819
50
179.4887882
51
180.0099283
0
LINE
8
DEFAULT_255_2_778
10
19.7671979
20
169.6979375
11
19.7262979
21
169.6979375
0
LINE
8
DEFAULT_255_2_778
10
19.7262979
20
169.6979375
11
19.7134979
21
169.7481375
0
LINE
8
DEFAULT_255_2_778
10
19.6661979
20
169.7606375
11
19.6661979
21
169.6979375
0
LINE
8
DEFAULT_255_2_778
10
19.6661979
20
169.6979375
11
19.6283979
21
169.6979375
0
LINE
8
DEFAULT_255_2_778
10
19.6283979
20
169.6979375
11
19.6251979
21
169.8579375
0
LINE
8
DEFAULT_255_2_778
10
19.7669979
20
169.6976375
11
19.7671979
21
169.6979375
0
LINE
8
DEFAULT_255_2_778
10
19.6695979
20
169.8360375
11
19.6695979
21
169.7889375
0
LINE
8
DEFAULT_255_2_778
10
19.5309979
20
169.7794375
11
19.5309979
21
169.7794375
0
LINE
8
DEFAULT_255_2_778
10
19.5687979
20
169.7794375
11
19.5687979
21
169.7794375
0
ARC
8
DEFAULT_255_2_778
10
19.5739995
20
168.7132562
40
0.4679169
50
114.816099
51
123.1671443
0
ARC
8
DEFAULT_255_2_778
10
19.524052
20
168.8221633
40
0.3481031
50
104.1803266
51
114.8776204
0
ARC
8
DEFAULT_255_2_778
10
19.5023429
20
168.9094534
40
0.2581547
50
90.3368173
51
104.2549448
0
ARC
8
DEFAULT_255_2_778
10
19.5036163
20
168.9835304
40
0.1840945
50
63.1258397
51
90.8686801
0
ARC
8
DEFAULT_255_2_778
10
19.5291143
20
169.0307442
40
0.1304613
50
15.1320717
51
63.7415875
0
ARC
8
DEFAULT_255_2_778
10
19.5491883
20
169.0386768
40
0.1090393
50
0.0473462
51
13.8618027
0
ARC
8
DEFAULT_255_2_778
10
19.5515456
20
169.0387625
40
0.1066819
50
356.2550712
51
0.0023505
0
ARC
8
DEFAULT_255_2_778
10
19.5419228
20
169.0412506
40
0.1164614
50
310.1750055
51
355.3427743
0
ARC
8
DEFAULT_255_2_778
10
19.4908137
20
169.0985087
40
0.1931944
50
288.8572085
51
310.8015881
0
ARC
8
DEFAULT_255_2_778
10
19.4433414
20
169.230877
40
0.3338085
50
275.3110996
51
289.2247685
0
ARC
8
DEFAULT_255_2_778
10
19.4242391
20
169.39378
40
0.4977958
50
269.8679804
51
275.7647658
0
ARC
8
DEFAULT_255_2_778
10
19.4233676
20
169.503531
40
0.6075455
50
267.4793058
51
269.9740161
0
ARC
8
DEFAULT_255_2_778
10
19.4257943
20
169.5638112
40
0.6678741
50
266.4216467
51
267.4987577
0
ARC
8
DEFAULT_255_2_778
10
19.422452
20
168.2720134
40
0.5604389
50
91.0217468
51
93.9229074
0
ARC
8
DEFAULT_255_2_778
10
19.421632
20
168.306433
40
0.5260103
50
90.0043513
51
90.9992991
0
ARC
8
DEFAULT_255_2_778
10
19.4248572
20
168.4100358
40
0.4224201
50
76.9825049
51
90.4428784
0
ARC
8
DEFAULT_255_2_778
10
19.4590596
20
168.5533148
40
0.275121
50
58.6325554
51
77.2011897
0
ARC
8
DEFAULT_255_2_778
10
19.5161406
20
168.6439596
40
0.1680195
50
29.9877642
51
59.1630288
0
ARC
8
DEFAULT_255_2_778
10
19.5599511
20
168.6713921
40
0.1163776
50
9.0489212
51
29.0705153
0
ARC
8
DEFAULT_255_2_778
10
19.5730912
20
168.6740276
40
0.1029877
50
0.0324126
51
8.7506937
0
ARC
8
DEFAULT_255_2_778
10
19.5688012
20
168.6759846
40
0.1072945
50
305.5021173
51
358.9859994
0
ARC
8
DEFAULT_255_2_778
10
19.5189388
20
168.7396115
40
0.1880848
50
283.9052409
51
306.6117621
0
ARC
8
DEFAULT_255_2_778
10
19.4842897
20
168.8691786
40
0.3221912
50
270.2533372
51
284.3492228
0
ARC
8
DEFAULT_255_2_778
10
19.4797621
20
168.9647522
40
0.4178041
50
269.9968243
51
270.8162745
0
ARC
8
DEFAULT_255_2_778
10
19.4811269
20
169.0381966
40
0.4912505
50
263.1637922
51
269.8381166
0
ARC
8
DEFAULT_255_2_778
10
19.4991981
20
169.1917433
40
0.6458567
50
257.6179181
51
263.1934389
0
ARC
8
DEFAULT_255_2_778
10
19.5387802
20
169.3735151
40
0.831888
50
252.9189114
51
257.6396732
0
ARC
8
DEFAULT_255_2_778
10
19.5797461
20
169.511657
40
0.9759703
50
251.5522315
51
253.0020903
0
ARC
8
DEFAULT_255_2_778
10
19.5248934
20
169.0632091
40
0.6169724
50
245.6907954
51
253.3086054
0
ARC
8
DEFAULT_255_2_778
10
19.4937986
20
168.9589052
40
0.5081326
50
253.2890695
51
262.3539513
0
ARC
8
DEFAULT_255_2_778
10
19.4835519
20
168.8861064
40
0.4346178
50
262.4158537
51
269.9226498
0
ARC
8
DEFAULT_255_2_778
10
19.4858877
20
168.8088156
40
0.3573384
50
269.531384
51
291.1392741
0
ARC
8
DEFAULT_255_2_778
10
19.5139103
20
168.7385904
40
0.2817342
50
290.9743163
51
319.8315111
0
ARC
8
DEFAULT_255_2_778
10
19.5703324
20
168.6922128
40
0.208706
50
319.5693811
51
352.147275
0
ARC
8
DEFAULT_255_2_778
10
19.6080843
20
168.6841331
40
0.170228
50
353.1052432
51
359.9694768
0
ARC
8
DEFAULT_255_2_778
10
19.619217
20
168.6840923
40
0.1590954
50
359.9820323
51
48.1680262
0
ARC
8
DEFAULT_255_2_778
10
19.5685344
20
168.6291109
40
0.2338675
50
47.8999999
51
68.5994477
0
ARC
8
DEFAULT_255_2_778
10
19.515911
20
168.5003112
40
0.3729934
50
68.2925482
51
81.2254538
0
ARC
8
DEFAULT_255_2_778
10
19.5841972
20
169.0168084
40
0.148307
50
265.5964328
51
269.9780427
0
ARC
8
DEFAULT_255_2_778
10
19.5760096
20
169.0234336
40
0.1551453
50
273.004087
51
349.8612615
0
ARC
8
DEFAULT_255_2_778
10
19.5123628
20
169.0525954
40
0.2236176
50
345.3721348
51
359.9751256
0
ARC
8
DEFAULT_255_2_778
10
19.5339585
20
169.0524983
40
0.2020219
50
4e-7
51
0.2280423
0
ARC
8
DEFAULT_255_2_778
10
19.5597555
20
169.0596481
40
0.1763376
50
357.9376831
51
63.2925076
0
ARC
8
DEFAULT_255_2_778
10
19.5460136
20
169.0181165
40
0.2197074
50
64.9591354
51
87.7288567
0
ARC
8
DEFAULT_255_2_778
10
19.538318
20
168.9402926
40
0.2978108
50
86.8427678
51
90.0256913
0
ARC
8
DEFAULT_255_2_778
10
19.5400484
20
168.8650446
40
0.3730632
50
90.2862735
51
99.8078285
0
ARC
8
DEFAULT_255_2_778
10
19.5660703
20
168.7108047
40
0.5294817
50
99.7394106
51
106.9636812
0
ARC
8
DEFAULT_255_2_778
10
19.623885
20
168.5185819
40
0.7302097
50
106.9021021
51
112.2967575
0
ARC
8
DEFAULT_255_2_778
10
19.7194539
20
168.2847038
40
0.9828604
50
112.2786278
51
116.8488609
0
LINE
8
DEFAULT_255_2_778
10
19.2755562
20
169.1616129
11
19.27541
21
169.1615392
0
LINE
8
DEFAULT_255_2_778
10
19.38411
20
168.8972392
11
19.38411
21
168.8311392
0
LINE
8
DEFAULT_255_2_778
10
19.27091
20
168.5858392
11
19.27091
21
168.5009392
0
LINE
8
DEFAULT_255_2_778
10
19.27541
20
169.1615392
11
19.32251
21
169.1001392
0
ARC
8
DEFAULT_255_2_778
10
21.6488206
20
168.8479013
40
0.5330281
50
158.8297779
51
180.8126209
0
ARC
8
DEFAULT_255_2_778
10
21.343991
20
168.9740829
40
0.2033429
50
124.0119958
51
160.9659866
0
ARC
8
DEFAULT_255_2_778
10
21.2740044
20
169.067462
40
0.0869831
50
90.4994457
51
120.2017555
0
ARC
8
DEFAULT_255_2_778
10
21.259695
20
169.0290586
40
0.1261132
50
24.6798401
51
83.8315083
0
ARC
8
DEFAULT_255_2_778
10
21.0022098
20
168.873952
40
0.4261556
50
6.130385
51
29.1785479
0
ARC
8
DEFAULT_255_2_778
10
20.8145698
20
168.8409702
40
0.6163766
50
359.941576
51
7.3161118
0
ARC
8
DEFAULT_255_2_778
10
20.8987917
20
168.8327366
40
0.5322088
50
338.8055679
51
0.8187669
0
ARC
8
DEFAULT_255_2_778
10
21.2030615
20
168.7066684
40
0.203082
50
303.9150541
51
340.932466
0
ARC
8
DEFAULT_255_2_778
10
21.2725052
20
168.6137902
40
0.0874515
50
270.4854298
51
300.1080748
0
ARC
8
DEFAULT_255_2_778
10
21.2868786
20
168.6520041
40
0.1263997
50
204.3281643
51
263.8084993
0
ARC
8
DEFAULT_255_2_778
10
21.5494907
20
168.8080123
40
0.4313014
50
185.613152
51
208.8453558
0
ARC
8
DEFAULT_255_2_778
10
21.7379678
20
168.8397819
40
0.6221217
50
179.9484445
51
186.8272745
0
ARC
8
DEFAULT_255_2_778
10
21.5393129
20
168.8444048
40
0.5243157
50
152.5254433
51
180.7827883
0
ARC
8
DEFAULT_255_2_778
10
21.3135207
20
168.9718837
40
0.2653266
50
108.4095367
51
154.4544086
0
ARC
8
DEFAULT_255_2_778
10
21.2764902
20
169.0506783
40
0.1791635
50
90.0140927
51
105.1293658
0
ARC
8
DEFAULT_255_2_778
10
21.2620587
20
168.9989205
40
0.231369
50
28.2822033
51
86.4348199
0
ARC
8
DEFAULT_255_2_778
10
21.0415486
20
168.8517258
40
0.4959362
50
2.837394
51
31.1881489
0
ARC
8
DEFAULT_255_2_778
10
20.9400984
20
168.8373304
40
0.5980477
50
359.9914968
51
3.7337628
0
ARC
8
DEFAULT_255_2_778
10
21.0133925
20
168.8301164
40
0.524802
50
332.6504535
51
0.7779361
0
ARC
8
DEFAULT_255_2_778
10
21.2392804
20
168.7031026
40
0.265965
50
288.44039
51
334.5981325
0
ARC
8
DEFAULT_255_2_778
10
21.2764066
20
168.6243438
40
0.1798021
50
270.0125899
51
285.1541198
0
ARC
8
DEFAULT_255_2_778
10
21.29065
20
168.6751186
40
0.2310141
50
208.1688806
51
266.4749618
0
ARC
8
DEFAULT_255_2_778
10
21.5126878
20
168.8225235
40
0.4969751
50
182.8019459
51
211.0671432
0
ARC
8
DEFAULT_255_2_778
10
21.6166146
20
168.8371537
40
0.6015684
50
179.9916184
51
183.7098813
0
LINE
8
DEFAULT_255_2_778
10
21.1158462
20
168.8403417
11
21.1158462
21
168.8403417
0
LINE
8
DEFAULT_255_2_778
10
21.0150462
20
168.8372417
11
21.0150462
21
168.8372417
0
ARC
8
DEFAULT_255_2_778
10
21.0564338
20
168.8479013
40
0.5330281
50
158.8297779
51
180.8126209
0
ARC
8
DEFAULT_255_2_778
10
20.7516043
20
168.9740829
40
0.2033429
50
124.0119958
51
160.9659866
0
ARC
8
DEFAULT_255_2_778
10
20.6816176
20
169.067462
40
0.0869831
50
90.4994457
51
120.2017555
0
ARC
8
DEFAULT_255_2_778
10
20.6673082
20
169.0290586
40
0.1261132
50
24.6798401
51
83.8315083
0
ARC
8
DEFAULT_255_2_778
10
20.4098231
20
168.873952
40
0.4261556
50
6.130385
51
29.1785479
0
ARC
8
DEFAULT_255_2_778
10
20.2221831
20
168.8409702
40
0.6163766
50
359.941576
51
7.3161118
0
ARC
8
DEFAULT_255_2_778
10
20.3064049
20
168.8327366
40
0.5322088
50
338.8055679
51
0.8187669
0
ARC
8
DEFAULT_255_2_778
10
20.6106747
20
168.7066684
40
0.203082
50
303.9150541
51
340.932466
0
ARC
8
DEFAULT_255_2_778
10
20.6801185
20
168.6137902
40
0.0874515
50
270.4854298
51
300.1080748
0
ARC
8
DEFAULT_255_2_778
10
20.6944918
20
168.6520041
40
0.1263997
50
204.3281643
51
263.8084993
0
ARC
8
DEFAULT_255_2_778
10
20.9571039
20
168.8080123
40
0.4313014
50
185.613152
51
208.8453558
0
ARC
8
DEFAULT_255_2_778
10
21.145581
20
168.8397819
40
0.6221217
50
179.9484445
51
186.8272745
0
ARC
8
DEFAULT_255_2_778
10
20.9469261
20
168.8444048
40
0.5243157
50
152.5254433
51
180.7827883
0
ARC
8
DEFAULT_255_2_778
10
20.7211339
20
168.9718837
40
0.2653266
50
108.4095367
51
154.4544086
0
ARC
8
DEFAULT_255_2_778
10
20.6841034
20
169.0506783
40
0.1791635
50
90.0140927
51
105.1293658
0
ARC
8
DEFAULT_255_2_778
10
20.6696719
20
168.9989205
40
0.231369
50
28.2822033
51
86.4348199
0
ARC
8
DEFAULT_255_2_778
10
20.4491618
20
168.8517258
40
0.4959362
50
2.837394
51
31.1881489
0
ARC
8
DEFAULT_255_2_778
10
20.3477116
20
168.8373304
40
0.5980477
50
359.9914968
51
3.7337628
0
ARC
8
DEFAULT_255_2_778
10
20.4210058
20
168.8301164
40
0.524802
50
332.6504535
51
0.7779361
0
ARC
8
DEFAULT_255_2_778
10
20.6468936
20
168.7031026
40
0.265965
50
288.44039
51
334.5981325
0
ARC
8
DEFAULT_255_2_778
10
20.6840199
20
168.6243438
40
0.1798021
50
270.0125899
51
285.1541198
0
ARC
8
DEFAULT_255_2_778
10
20.6982632
20
168.6751186
40
0.2310141
50
208.1688806
51
266.4749618
0
ARC
8
DEFAULT_255_2_778
10
20.920301
20
168.8225235
40
0.4969751
50
182.8019459
51
211.0671432
0
ARC
8
DEFAULT_255_2_778
10
21.0242279
20
168.8371537
40
0.6015684
50
179.9916184
51
183.7098813
0
LINE
8
DEFAULT_255_2_778
10
20.5234594
20
168.8403417
11
20.5234594
21
168.8403417
0
LINE
8
DEFAULT_255_2_778
10
20.4226594
20
168.8372417
11
20.4226594
21
168.8372417
0
ARC
8
DEFAULT_255_2_778
10
20.4640338
20
168.8479013
40
0.5330281
50
158.8297779
51
180.8126209
0
ARC
8
DEFAULT_255_2_778
10
20.1592043
20
168.9740829
40
0.2033429
50
124.0119958
51
160.9659866
0
ARC
8
DEFAULT_255_2_778
10
20.0892176
20
169.067462
40
0.0869831
50
90.4994457
51
120.2017555
0
ARC
8
DEFAULT_255_2_778
10
20.0749082
20
169.0290586
40
0.1261132
50
24.6798401
51
83.8315083
0
ARC
8
DEFAULT_255_2_778
10
19.8174231
20
168.873952
40
0.4261556
50
6.130385
51
29.1785479
0
ARC
8
DEFAULT_255_2_778
10
19.6297831
20
168.8409702
40
0.6163766
50
359.941576
51
7.3161118
0
ARC
8
DEFAULT_255_2_778
10
19.7140049
20
168.8327366
40
0.5322088
50
338.8055679
51
0.8187669
0
ARC
8
DEFAULT_255_2_778
10
20.0182747
20
168.7066684
40
0.203082
50
303.9150541
51
340.932466
0
ARC
8
DEFAULT_255_2_778
10
20.0877185
20
168.6137902
40
0.0874515
50
270.4854298
51
300.1080748
0
ARC
8
DEFAULT_255_2_778
10
20.1020918
20
168.6520041
40
0.1263997
50
204.3281643
51
263.8084993
0
ARC
8
DEFAULT_255_2_778
10
20.3647039
20
168.8080123
40
0.4313014
50
185.613152
51
208.8453558
0
ARC
8
DEFAULT_255_2_778
10
20.553181
20
168.8397819
40
0.6221217
50
179.9484445
51
186.8272745
0
ARC
8
DEFAULT_255_2_778
10
20.3542427
20
168.8444257
40
0.5240325
50
152.511927
51
180.7855003
0
ARC
8
DEFAULT_255_2_778
10
20.1281483
20
168.9723056
40
0.264594
50
107.9689651
51
154.4798484
0
ARC
8
DEFAULT_255_2_778
10
20.0919909
20
169.0501433
40
0.1796984
50
90.01006
51
104.6572928
0
ARC
8
DEFAULT_255_2_778
10
20.0777541
20
168.9992502
40
0.2310286
50
28.1748595
51
86.4748124
0
ARC
8
DEFAULT_255_2_778
10
19.8559078
20
168.8519241
40
0.4967862
50
2.8051578
51
31.0734515
0
ARC
8
DEFAULT_255_2_778
10
19.7523096
20
168.8373293
40
0.6010497
50
359.9916466
51
3.711491
0
ARC
8
DEFAULT_255_2_778
10
19.8283191
20
168.8301382
40
0.5250883
50
332.6639313
51
0.7751279
0
ARC
8
DEFAULT_255_2_778
10
20.0541076
20
168.703345
40
0.2664398
50
288.748604
51
334.5889087
0
ARC
8
DEFAULT_255_2_778
10
20.091909
20
168.6237814
40
0.1792398
50
270.0161048
51
285.4790874
0
ARC
8
DEFAULT_255_2_778
10
20.1063274
20
168.6755162
40
0.231421
50
208.2265906
51
266.4404307
0
ARC
8
DEFAULT_255_2_778
10
20.327262
20
168.8227124
40
0.4963409
50
182.827365
51
211.1367331
0
ARC
8
DEFAULT_255_2_778
10
20.4293456
20
168.8371562
40
0.5990863
50
179.9918267
51
183.7255174
0
LINE
8
DEFAULT_255_2_778
10
19.9310594
20
168.8403417
11
19.9310594
21
168.8403417
0
LINE
8
DEFAULT_255_2_778
10
19.8302594
20
168.8372417
11
19.8302594
21
168.8372417
0
ARC
8
DEFAULT_255_2_778
10
22.0340737
20
168.3894444
40
0.1933064
50
91.2007449
51
181.3742454
0
ARC
8
DEFAULT_255_2_778
10
22.0259721
20
168.3894444
40
0.1933064
50
358.6257546
51
88.7992551
0
ARC
8
DEFAULT_255_2_778
10
22.0260368
20
168.3801105
40
0.1932432
50
271.1819413
51
1.3930197
0
ARC
8
DEFAULT_255_2_778
10
22.0340093
20
168.3801106
40
0.1932434
50
178.6070028
51
268.8179775
0
LINE
8
DEFAULT_255_2_778
10
21.8408229
20
168.3848083
11
21.8408229
21
168.3848083
0
ARC
8
DEFAULT_255_2_778
10
22.5002079
20
168.3895071
40
0.1932422
50
91.1816293
51
181.3933249
0
ARC
8
DEFAULT_255_2_778
10
22.4921721
20
168.3894444
40
0.1933064
50
358.6257546
51
88.7992551
0
ARC
8
DEFAULT_255_2_778
10
22.4922368
20
168.3801105
40
0.1932432
50
271.1819413
51
1.3930197
0
ARC
8
DEFAULT_255_2_778
10
22.5001435
20
168.3800476
40
0.193179
50
178.5878493
51
268.8370891
0
LINE
8
DEFAULT_255_2_778
10
22.3070229
20
168.3848083
11
22.3070229
21
168.3848083
0
ARC
8
DEFAULT_255_2_778
10
22.9667079
20
168.4022071
40
0.1932422
50
91.1816293
51
181.3933249
0
ARC
8
DEFAULT_255_2_778
10
22.9586721
20
168.4021444
40
0.1933064
50
358.6257546
51
88.7992551
0
ARC
8
DEFAULT_255_2_778
10
22.9587368
20
168.3928105
40
0.1932432
50
271.1819413
51
1.3930197
0
ARC
8
DEFAULT_255_2_778
10
22.9666435
20
168.3927476
40
0.193179
50
178.5878493
51
268.8370891
0
LINE
8
DEFAULT_255_2_778
10
22.7735229
20
168.3975083
11
22.7735229
21
168.3975083
0
LINE
8
DEFAULT_255_2_778
10
21.8953365
20
168.141124
11
21.8662365
21
168.145924
0
LINE
8
DEFAULT_255_2_778
10
21.8662365
20
168.145924
11
21.8056365
21
168.155724
0
LINE
8
DEFAULT_255_2_778
10
21.8056365
20
168.155724
11
21.7296365
21
168.213924
0
LINE
8
DEFAULT_255_2_778
10
21.7296365
20
168.213924
11
21.6725365
21
168.289624
0
LINE
8
DEFAULT_255_2_778
10
21.6725365
20
168.289624
11
21.6473365
21
168.383024
0
LINE
8
DEFAULT_255_2_778
10
21.6473365
20
168.383024
11
21.6725365
21
168.476624
0
LINE
8
DEFAULT_255_2_778
10
21.6725365
20
168.476624
11
21.7291365
21
168.553424
0
LINE
8
DEFAULT_255_2_778
10
21.7291365
20
168.553424
11
21.8050365
21
168.612924
0
LINE
8
DEFAULT_255_2_778
10
21.8050365
20
168.612924
11
21.8662365
21
168.622924
0
LINE
8
DEFAULT_255_2_778
10
21.8662365
20
168.622924
11
21.8955365
21
168.627724
0
LINE
8
DEFAULT_255_2_778
10
21.8955365
20
168.058124
11
21.8543365
21
168.063624
0
LINE
8
DEFAULT_255_2_778
10
21.8543365
20
168.063624
11
21.7704365
21
168.075024
0
LINE
8
DEFAULT_255_2_778
10
21.7704365
20
168.075024
11
21.6680365
21
168.149624
0
LINE
8
DEFAULT_255_2_778
10
21.6680365
20
168.149624
11
21.5947365
21
168.248324
0
LINE
8
DEFAULT_255_2_778
10
21.5947365
20
168.248324
11
21.5730365
21
168.363924
0
ARC
8
DEFAULT_255_2_778
10
8.4839378
20
169.3808433
40
0.4373747
50
56.3665942
51
72.7074496
0
ARC
8
DEFAULT_255_2_778
10
8.5212053
20
169.4944036
40
0.3178747
50
73.036784
51
89.7973226
0
ARC
8
DEFAULT_255_2_778
10
8.5285513
20
169.4720167
40
0.3403165
50
91.0475309
51
125.5485458
0
ARC
8
DEFAULT_255_2_778
10
8.6942904
20
169.2231582
40
0.6392287
50
124.6669492
51
139.114563
0
ARC
8
DEFAULT_255_2_778
10
8.9357319
20
168.9997476
40
0.9680575
50
138.4713305
51
142.1157612
0
ARC
8
DEFAULT_255_2_778
10
8.5582787
20
169.0304798
40
0.5212765
50
117.7453356
51
135.8758074
0
ARC
8
DEFAULT_255_2_778
10
8.4611378
20
169.2128273
40
0.3146729
50
90.4656379
51
117.5483702
0
ARC
8
DEFAULT_255_2_778
10
8.4550272
20
169.1975634
40
0.3299454
50
64.3679478
51
89.3829577
0
ARC
8
DEFAULT_255_2_778
10
8.4227062
20
169.1159901
40
0.4175182
50
64.8738747
51
65.2115951
0
LINE
8
DEFAULT_255_2_778
10
8.1716896
20
169.5942008
11
8.1716896
21
169.7702008
0
LINE
8
DEFAULT_255_2_778
10
8.1716896
20
169.7702008
11
7.8313896
21
169.7702008
0
LINE
8
DEFAULT_255_2_778
10
7.8313896
20
169.7702008
11
7.8313896
21
168.5515008
0
LINE
8
DEFAULT_255_2_778
10
7.8313896
20
168.5515008
11
8.1967896
21
168.5515008
0
LINE
8
DEFAULT_255_2_778
10
8.1967896
20
168.5515008
11
8.1840896
21
169.3934008
0
LINE
8
DEFAULT_255_2_778
10
8.5999896
20
169.4940008
11
8.7261896
21
169.7450008
0
ARC
8
DEFAULT_255_2_778
10
12.3459297
20
168.9389166
40
0.1058286
50
290.4109967
51
338.4144294
0
ARC
8
DEFAULT_255_2_778
10
12.161995
20
169.308021
40
0.5177505
50
282.5203845
51
295.2483499
0
ARC
8
DEFAULT_255_2_778
10
12.2164596
20
169.1746179
40
0.3756367
50
270.2518229
51
277.9224239
0
ARC
8
DEFAULT_255_2_778
10
12.2019255
20
168.9621058
40
0.163922
50
191.9135594
51
275.6664103
0
ARC
8
DEFAULT_255_2_778
10
12.266424
20
169.0896972
40
0.6680449
50
207.8643513
51
221.7718618
0
ARC
8
DEFAULT_255_2_778
10
12.0489477
20
168.8832613
40
0.3684417
50
220.3588923
51
270.0277924
0
ARC
8
DEFAULT_255_2_778
10
12.0434926
20
169.0153085
40
0.5005206
50
270.6449322
51
287.6494066
0
ARC
8
DEFAULT_255_2_778
10
11.9529907
20
169.3112608
40
0.8099892
50
287.4026496
51
297.6988649
0
ARC
8
DEFAULT_255_2_778
10
11.7449905
20
169.7144576
40
1.2636684
50
297.5514274
51
304.3018591
0
LINE
8
DEFAULT_255_2_778
10
12.0415344
20
168.9282664
11
12.0351344
21
169.7762664
0
LINE
8
DEFAULT_255_2_778
10
12.0351344
20
169.7762664
11
11.6758344
21
169.7762664
0
LINE
8
DEFAULT_255_2_778
10
11.6758344
20
169.7762664
11
11.6758344
21
168.7774664
0
LINE
8
DEFAULT_255_2_778
10
12.4571344
20
168.6705664
11
12.4698344
21
168.5575664
0
LINE
8
DEFAULT_255_2_778
10
12.4698344
20
168.5575664
11
12.8101344
21
168.5575664
0
LINE
8
DEFAULT_255_2_778
10
12.8101344
20
168.5575664
11
12.8101344
21
169.7889664
0
LINE
8
DEFAULT_255_2_778
10
12.8101344
20
169.7889664
11
12.4444344
21
169.7889664
0
LINE
8
DEFAULT_255_2_778
10
12.4444344
20
169.7889664
11
12.4444344
21
168.8967664
0
LINE
8
DEFAULT_255_2_778
10
15.1797344
20
168.5512664
11
15.1797344
21
169.7826664
0
LINE
8
DEFAULT_255_2_778
10
15.1797344
20
169.7826664
11
15.5453344
21
169.7826664
0
LINE
8
DEFAULT_255_2_778
10
15.5453344
20
169.7826664
11
15.5453344
21
168.5512664
0
LINE
8
DEFAULT_255_2_778
10
15.5453344
20
168.5512664
11
15.1797344
21
168.5512664
0
ARC
8
DEFAULT_255_2_778
10
15.3647435
20
170.175366
40
0.1978332
50
90.7257917
51
180.9507563
0
ARC
8
DEFAULT_255_2_778
10
15.3597161
20
170.1754493
40
0.1977501
50
359.0247012
51
89.2694187
0
ARC
8
DEFAULT_255_2_778
10
15.3597161
20
170.1687174
40
0.1977501
50
270.7305813
51
0.9752988
0
ARC
8
DEFAULT_255_2_778
10
15.3647435
20
170.1688007
40
0.1978332
50
179.0492437
51
269.2742083
0
LINE
8
DEFAULT_255_2_778
10
15.1669375
20
170.1720833
11
15.1669375
21
170.1720833
0
LINE
8
DEFAULT_255_2_778
10
16.8727729
20
168.5479854
11
16.8727729
21
169.7793854
0
LINE
8
DEFAULT_255_2_778
10
16.8727729
20
169.7793854
11
17.2384729
21
169.7793854
0
LINE
8
DEFAULT_255_2_778
10
17.2384729
20
169.7793854
11
17.2384729
21
168.5479854
0
LINE
8
DEFAULT_255_2_778
10
17.2384729
20
168.5479854
11
16.8727729
21
168.5479854
0
ARC
8
DEFAULT_255_2_778
10
17.0581435
20
170.172166
40
0.1978332
50
90.7257917
51
180.9507563
0
ARC
8
DEFAULT_255_2_778
10
17.0531161
20
170.1722493
40
0.1977501
50
359.0247012
51
89.2694187
0
ARC
8
DEFAULT_255_2_778
10
17.0531161
20
170.1655174
40
0.1977501
50
270.7305813
51
0.9752988
0
ARC
8
DEFAULT_255_2_778
10
17.0581435
20
170.1656007
40
0.1978332
50
179.0492437
51
269.2742083
0
LINE
8
DEFAULT_255_2_778
10
16.8603375
20
170.1688833
11
16.8603375
21
170.1688833
0
ARC
8
DEFAULT_255_2_778
10
13.7517901
20
168.9609013
40
0.434232
50
284.0737984
51
307.1283935
0
ARC
8
DEFAULT_255_2_778
10
13.660277
20
169.2974778
40
0.7829896
50
272.5675489
51
284.5802087
0
ARC
8
DEFAULT_255_2_778
10
13.6343582
20
169.6563726
40
1.1427274
50
269.9523961
51
273.0596894
0
ARC
8
DEFAULT_255_2_778
10
13.6382461
20
170.0380502
40
1.5244123
50
264.3721605
51
269.8181894
0
ARC
8
DEFAULT_255_2_778
10
13.7027307
20
170.7098242
40
2.1992727
50
260.3040359
51
264.4165702
0
ARC
8
DEFAULT_255_2_778
10
13.7920328
20
171.2622479
40
2.75885
50
259.2299789
51
260.4081406
0
ARC
8
DEFAULT_255_2_778
10
13.5129832
20
169.1118106
40
0.6077178
50
188.8927198
51
247.0988028
0
ARC
8
DEFAULT_255_2_778
10
13.8555322
20
169.202954
40
0.9609548
50
185.1081288
51
191.1050073
0
ARC
8
DEFAULT_255_2_778
10
13.7233219
20
169.1304493
40
0.8250312
50
161.5072483
51
180.9066349
0
ARC
8
DEFAULT_255_2_778
10
13.474388
20
169.209195
40
0.5639907
50
120.4701872
51
161.0725957
0
ARC
8
DEFAULT_255_2_778
10
13.5600359
20
169.1424593
40
0.6661417
50
90.0499347
51
123.9108507
0
ARC
8
DEFAULT_255_2_778
10
13.5729457
20
168.9859303
40
0.8227812
50
89.9974966
51
90.9394619
0
ARC
8
DEFAULT_255_2_778
10
13.5669956
20
168.8248917
40
0.9838382
50
77.8335832
51
89.6513936
0
ARC
8
DEFAULT_255_2_778
10
13.4795112
20
168.4069877
40
1.4107957
50
69.8093959
51
77.9373312
0
ARC
8
DEFAULT_255_2_778
10
13.3759492
20
168.1052231
40
1.7297745
50
69.0266426
51
70.0397415
0
ARC
8
DEFAULT_255_2_778
10
13.5343166
20
168.1271487
40
1.4359408
50
73.9178594
51
79.2452957
0
ARC
8
DEFAULT_255_2_778
10
13.6318162
20
168.6474429
40
0.9065925
50
79.1629935
51
86.6049203
0
ARC
8
DEFAULT_255_2_778
10
13.6498447
20
168.8987653
40
0.654651
50
86.8774046
51
89.9568351
0
ARC
8
DEFAULT_255_2_778
10
13.6423726
20
169.1360348
40
0.4174572
50
88.9067133
51
108.0688095
0
ARC
8
DEFAULT_255_2_778
10
13.5851449
20
169.3097782
40
0.2345328
50
107.942404
51
152.2459688
0
ARC
8
DEFAULT_255_2_778
10
14.2992743
20
168.9795195
40
1.0210941
50
154.5072776
51
162.5682748
0
ARC
8
DEFAULT_255_2_778
10
13.9273295
20
169.0942637
40
0.6318603
50
162.3915767
51
174.8213024
0
ARC
8
DEFAULT_255_2_778
10
13.7621865
20
169.1130744
40
0.4657093
50
175.2922289
51
179.9490984
0
ARC
8
DEFAULT_255_2_778
10
13.6350307
20
169.1056851
40
0.338643
50
178.6796766
51
234.9381893
0
ARC
8
DEFAULT_255_2_778
10
13.632674
20
169.11735
40
0.3469445
50
236.3635337
51
264.9414885
0
ARC
8
DEFAULT_255_2_778
10
13.6587382
20
169.2928364
40
0.5241505
50
263.7947872
51
270.1188666
0
ARC
8
DEFAULT_255_2_778
10
13.6534653
20
169.5302235
40
0.7615633
50
270.4785196
51
281.0719661
0
ARC
8
DEFAULT_255_2_778
10
13.5691544
20
169.9840841
40
1.2231753
50
280.8649891
51
287.2606546
0
ARC
8
DEFAULT_255_2_778
10
14.6238917
20
170.8170098
40
2.2970478
50
276.5245429
51
279.5045514
0
ARC
8
DEFAULT_255_2_778
10
14.6892816
20
170.2393746
40
1.7157236
50
272.7759418
51
276.5469051
0
ARC
8
DEFAULT_255_2_778
10
14.7090708
20
169.8591172
40
1.3349546
50
270.0439674
51
272.7180028
0
ARC
8
DEFAULT_255_2_778
10
14.7004544
20
169.3909578
40
0.8668484
50
258.6359382
51
270.6372354
0
ARC
8
DEFAULT_255_2_778
10
14.6077963
20
168.9550325
40
0.4212409
50
235.5405817
51
259.3086539
0
ARC
8
DEFAULT_255_2_778
10
14.5467089
20
168.8477012
40
0.2983588
50
181.5929591
51
233.550276
0
ARC
8
DEFAULT_255_2_778
10
14.744928
20
168.8776621
40
0.4979343
50
179.9387066
51
184.4062155
0
ARC
8
DEFAULT_255_2_778
10
14.8384963
20
168.9737319
40
0.2332136
50
194.3846046
51
259.805052
0
ARC
8
DEFAULT_255_2_778
10
14.9431283
20
169.3389805
40
0.6124159
50
256.2164989
51
270.9014371
0
ARC
8
DEFAULT_255_2_778
10
14.9522592
20
169.7059208
40
0.9792806
50
270.0294815
51
272.249316
0
LINE
8
DEFAULT_255_2_778
10
15.5955939
20
169.7761948
11
15.9421939
21
169.7761948
0
LINE
8
DEFAULT_255_2_778
10
15.9421939
20
169.7761948
11
16.2130939
21
169.0348948
0
LINE
8
DEFAULT_255_2_778
10
16.2130939
20
169.0348948
11
16.4839939
21
169.7825948
0
LINE
8
DEFAULT_255_2_778
10
16.4839939
20
169.7825948
11
16.7927939
21
169.7825948
0
LINE
8
DEFAULT_255_2_778
10
16.7927939
20
169.7825948
11
16.2884939
21
168.5323948
0
LINE
8
DEFAULT_255_2_778
10
16.2884939
20
168.5323948
11
16.0677939
21
168.5323948
0
LINE
8
DEFAULT_255_2_778
10
16.0677939
20
168.5323948
11
15.5955939
21
169.7761948
0
LINE
8
DEFAULT_255_2_778
10
6.2181939
20
170.4045948
11
6.3001939
21
170.4045948
0
LINE
8
DEFAULT_255_2_778
10
6.3001939
20
170.4045948
11
6.3001939
21
168.4476948
0
LINE
8
DEFAULT_255_2_778
10
6.3001939
20
168.4476948
11
18.5069939
21
168.4445948
0
LINE
8
DEFAULT_255_2_778
10
18.5069939
20
168.4445948
11
18.5101939
21
168.3627948
0
LINE
8
DEFAULT_255_2_778
10
18.5101939
20
168.3627948
11
6.2181939
21
168.3627948
0
LINE
8
DEFAULT_255_2_778
10
6.2181939
20
168.3627948
11
6.2181939
21
170.3982948
0
LINE
8
DEFAULT_255_2_778
10
13.9381939
20
168.8157948
11
14.0138939
21
168.6146948
0
LINE
8
DEFAULT_255_2_778
10
13.9950939
20
169.7203948
11
13.9320939
21
169.5068948
0
LINE
8
DEFAULT_255_2_778
10
14.2469939
20
168.8781948
11
14.2469939
21
169.5689948
0
LINE
8
DEFAULT_255_2_778
10
14.2469939
20
169.5689948
11
14.0577939
21
169.5689948
0
LINE
8
DEFAULT_255_2_778
10
14.0577939
20
169.5689948
11
14.0577939
21
169.7825948
0
LINE
8
DEFAULT_255_2_778
10
14.0577939
20
169.7825948
11
14.2469939
21
169.7825948
0
LINE
8
DEFAULT_255_2_778
10
14.2469939
20
169.7825948
11
14.3855939
21
170.2849948
0
LINE
8
DEFAULT_255_2_778
10
14.3855939
20
170.2849948
11
14.5998939
21
170.2849948
0
LINE
8
DEFAULT_255_2_778
10
14.5998939
20
170.2849948
11
14.6125939
21
169.7825948
0
LINE
8
DEFAULT_255_2_778
10
14.6125939
20
169.7825948
11
14.9528939
21
169.7825948
0
LINE
8
DEFAULT_255_2_778
10
14.9528939
20
169.7825948
11
14.9528939
21
169.5689948
0
LINE
8
DEFAULT_255_2_778
10
14.9528939
20
169.5689948
11
14.6125939
21
169.5689948
0
LINE
8
DEFAULT_255_2_778
10
14.6125939
20
169.5689948
11
14.6125939
21
168.9157948
0
LINE
8
DEFAULT_255_2_778
10
14.9906939
20
168.7273948
11
15.0031939
21
168.5514948
0
ARC
8
DEFAULT_255_2_778
10
18.2773623
20
168.4107188
40
0.588729
50
314.1492215
51
331.9331811
0
ARC
8
DEFAULT_255_2_778
10
18.4149706
20
168.2704819
40
0.3922582
50
269.0327782
51
313.9945782
0
ARC
8
DEFAULT_255_2_778
10
18.4132762
20
168.4627141
40
0.5844552
50
255.6362987
51
269.5169802
0
ARC
8
DEFAULT_255_2_778
10
18.4884838
20
168.7661704
40
0.8970861
50
246.6814554
51
255.7910989
0
ARC
8
DEFAULT_255_2_778
10
18.6133117
20
169.0692814
40
1.2248623
50
243.4464445
51
246.9318311
0
ARC
8
DEFAULT_255_2_778
10
18.337299
20
168.4984468
40
0.3644339
50
238.6793577
51
269.7549067
0
ARC
8
DEFAULT_255_2_778
10
18.3337129
20
168.5328517
40
0.3988407
50
270.291204
51
286.0311052
0
ARC
8
DEFAULT_255_2_778
10
18.3184816
20
168.3551248
40
0.2408146
50
301.3744029
51
328.6018723
0
ARC
8
DEFAULT_255_2_778
10
17.8323748
20
168.6819545
40
0.8264122
50
326.8184964
51
337.3943856
0
ARC
8
DEFAULT_255_2_778
10
16.7747134
20
169.1400751
40
1.978979
50
336.9203071
51
342.1242923
0
ARC
8
DEFAULT_255_2_778
10
18.1004201
20
168.9440584
40
0.1954042
50
190.120766
51
263.958695
0
ARC
8
DEFAULT_255_2_778
10
18.1765701
20
169.2466775
40
0.5062622
50
258.9866291
51
270.5697296
0
ARC
8
DEFAULT_255_2_778
10
18.1794576
20
169.5641093
40
0.8236717
50
270.1493118
51
275.0745303
0
ARC
8
DEFAULT_255_2_778
10
18.1624298
20
169.7812074
40
1.0414275
50
274.9512067
51
276.4741818
0
ARC
8
DEFAULT_255_2_778
10
17.886645
20
171.0368897
40
2.5191229
50
276.512331
51
279.4178265
0
ARC
8
DEFAULT_255_2_778
10
17.9624852
20
170.3667793
40
1.844735
50
272.9000807
51
276.5325546
0
ARC
8
DEFAULT_255_2_778
10
17.9861545
20
169.924706
40
1.4020311
50
270.0526278
51
272.8480745
0
ARC
8
DEFAULT_255_2_778
10
17.9781162
20
169.4159763
40
0.8933496
50
259.5051122
51
270.5981508
0
ARC
8
DEFAULT_255_2_778
10
17.8879991
20
168.9550767
40
0.4237712
50
238.7045764
51
260.1348639
0
ARC
8
DEFAULT_255_2_778
10
17.8042044
20
168.8087066
40
0.2552092
50
181.2540346
51
237.7100784
0
LINE
8
DEFAULT_255_2_778
10
11.0900564
20
169.5068213
11
11.0900564
21
168.8785213
0
ARC
8
DEFAULT_255_2_778
10
10.4261476
20
170.0707238
40
1.3645958
50
292.82637
51
299.1123799
0
ARC
8
DEFAULT_255_2_778
10
10.6927129
20
169.4288896
40
0.6696238
50
282.4400197
51
293.1090634
0
ARC
8
DEFAULT_255_2_778
10
10.7657535
20
169.1040188
40
0.3366487
50
270.5781586
51
282.2114611
0
ARC
8
DEFAULT_255_2_778
10
10.7638219
20
168.9380025
40
0.1706983
50
241.3905381
51
271.7888651
0
ARC
8
DEFAULT_255_2_778
10
10.747728
20
168.9012111
40
0.1307392
50
222.8359183
51
239.8616768
0
ARC
8
DEFAULT_255_2_778
10
10.8384234
20
169.0255377
40
0.2833169
50
195.5790395
51
228.8136819
0
ARC
8
DEFAULT_255_2_778
10
11.2237911
20
169.1493199
40
0.6879504
50
182.8967157
51
196.8898295
0
ARC
8
DEFAULT_255_2_778
10
11.7306858
20
169.1914695
40
1.1964408
50
179.9092738
51
183.6859184
0
ARC
8
DEFAULT_255_2_778
10
12.0984338
20
169.1918685
40
1.564188
50
177.2644099
51
179.9452207
0
ARC
8
DEFAULT_255_2_778
10
10.9853029
20
169.2456643
40
0.4497586
50
177.2655023
51
177.3418803
0
ARC
8
DEFAULT_255_2_778
10
11.0005314
20
169.2023533
40
0.4689689
50
149.0265023
51
172.0616653
0
ARC
8
DEFAULT_255_2_778
10
10.8347129
20
169.292706
40
0.2804063
50
88.5402025
51
147.4185874
0
ARC
8
DEFAULT_255_2_778
10
10.765833
20
168.7427465
40
0.833748
50
72.0191589
51
84.7683475
0
ARC
8
DEFAULT_255_2_778
10
10.8835174
20
169.1216106
40
0.4370876
50
61.8010517
51
71.3613167
0
ARC
8
DEFAULT_255_2_778
10
10.4736514
20
169.7910849
40
1.2921636
50
287.0718407
51
298.4918193
0
ARC
8
DEFAULT_255_2_778
10
10.6329455
20
169.2675683
40
0.744952
50
270.6824619
51
287.1805816
0
ARC
8
DEFAULT_255_2_778
10
10.6417292
20
169.1013517
40
0.5786826
50
267.7347632
51
270.0088495
0
ARC
8
DEFAULT_255_2_778
10
10.6222828
20
168.9423284
40
0.4192211
50
203.9093897
51
269.5317059
0
ARC
8
DEFAULT_255_2_778
10
11.0897602
20
169.2016638
40
0.9528801
50
192.6009015
51
206.7737237
0
ARC
8
DEFAULT_255_2_778
10
11.4915698
20
169.3099942
40
1.3687639
50
192.6165694
51
193.3570279
0
ARC
8
DEFAULT_255_2_778
10
11.1913353
20
169.2043735
40
1.0533763
50
182.6397763
51
190.5768818
0
ARC
8
DEFAULT_255_2_778
10
11.0376686
20
169.1947963
40
0.899435
50
180.0132575
51
182.4811747
0
ARC
8
DEFAULT_255_2_778
10
10.8120158
20
169.2106787
40
0.6739744
50
136.7445348
51
181.3680168
0
ARC
8
DEFAULT_255_2_778
10
10.662935
20
169.2991022
40
0.5062158
50
89.2409074
51
132.4668673
0
ARC
8
DEFAULT_255_2_778
10
10.6695554
20
169.1891706
40
0.6161029
50
87.804633
51
89.9919934
0
ARC
8
DEFAULT_255_2_778
10
10.680803
20
168.6474251
40
1.1574622
50
70.3133819
51
89.3884771
0
ARC
8
DEFAULT_255_2_778
10
10.5904169
20
168.343122
40
1.4745303
50
70.1933816
51
70.9898699
0
ARC
8
DEFAULT_255_2_778
10
9.3624696
20
169.1732942
40
0.1950108
50
91.6788031
51
181.813939
0
ARC
8
DEFAULT_255_2_778
10
9.3510433
20
169.1732942
40
0.1950108
50
358.186061
51
88.3211969
0
ARC
8
DEFAULT_255_2_778
10
9.3510433
20
169.1609484
40
0.1950108
50
271.6788031
51
1.813939
0
ARC
8
DEFAULT_255_2_778
10
9.3624696
20
169.1609484
40
0.1950108
50
178.186061
51
268.3211969
0
ARC
8
DEFAULT_255_2_778
10
9.5083893
20
169.1738546
40
0.4667814
50
145.0334623
51
180.8265163
0
ARC
8
DEFAULT_255_2_778
10
9.3653444
20
169.2815342
40
0.2879151
50
91.7092739
51
146.2799614
0
ARC
8
DEFAULT_255_2_778
10
9.3415333
20
169.2646136
40
0.3050877
50
23.4934874
51
87.1398977
0
ARC
8
DEFAULT_255_2_778
10
9.1870608
20
169.1707144
40
0.484809
50
359.5753549
51
26.3944218
0
ARC
8
DEFAULT_255_2_778
10
9.2053251
20
169.1603715
40
0.4665802
50
325.0256173
51
0.8288991
0
ARC
8
DEFAULT_255_2_778
10
9.3481982
20
169.0528215
40
0.2879274
50
271.7032906
51
326.2656695
0
ARC
8
DEFAULT_255_2_778
10
9.3719326
20
169.0697077
40
0.3050641
50
203.5053918
51
267.1485008
0
ARC
8
DEFAULT_255_2_778
10
9.5262703
20
169.1635158
40
0.4846274
50
179.5737352
51
206.399488
0
ARC
8
DEFAULT_255_2_778
10
9.3457714
20
169.1482876
40
0.6699322
50
95.9543621
51
178.9279918
0
ARC
8
DEFAULT_255_2_778
10
9.3689297
20
169.0794797
40
0.7409416
50
89.9824665
51
97.1836307
0
ARC
8
DEFAULT_255_2_778
10
9.3734037
20
169.109749
40
0.710685
50
48.754652
51
90.3424168
0
ARC
8
DEFAULT_255_2_778
10
9.4191906
20
169.1592682
40
0.6432677
50
0.1383337
51
48.9131618
0
ARC
8
DEFAULT_255_2_778
10
9.3926363
20
169.173368
40
0.6699376
50
275.9481082
51
358.9268911
0
ARC
8
DEFAULT_255_2_778
10
9.3693839
20
169.2425136
40
0.7412923
50
269.9824166
51
277.18192
0
ARC
8
DEFAULT_255_2_778
10
9.3648797
20
169.2115078
40
0.7102994
50
228.4135848
51
270.3449845
0
ARC
8
DEFAULT_255_2_778
10
9.3190178
20
169.1623099
40
0.6430631
50
180.1326312
51
228.5603801
0
ARC
8
DEFAULT_255_2_778
10
6.8108339
20
169.8578423
40
0.4410946
50
358.399361
51
20.0218069
0
ARC
8
DEFAULT_255_2_778
10
7.0253177
20
169.9339374
40
0.2135292
50
20.5419455
51
86.7410997
0
ARC
8
DEFAULT_255_2_778
10
6.9405407
20
169.8940724
40
0.314934
50
287.9227005
51
351.1869993
0
ARC
8
DEFAULT_255_2_778
10
7.0384907
20
169.8426459
40
0.6187549
50
4.9300483
51
29.901288
0
ARC
8
DEFAULT_255_2_778
10
7.1431875
20
169.8837073
40
0.5077965
50
31.774244
51
73.6174038
0
ARC
8
DEFAULT_255_2_778
10
7.0079481
20
169.5024064
40
0.9120309
50
72.2224415
51
84.9672302
0
ARC
8
DEFAULT_255_2_778
10
6.9734901
20
170.2659382
40
0.9424937
50
276.9758239
51
292.3160184
0
ARC
8
DEFAULT_255_2_778
10
7.1528558
20
169.8583093
40
0.4974119
50
291.0316637
51
353.5367683
0
ARC
8
DEFAULT_255_2_778
10
6.8831249
20
169.9135383
40
0.7720348
50
351.7170585
51
358.6850323
0
LINE
8
DEFAULT_255_2_778
10
18.0657564
20
167.9736213
11
18.1478564
21
168.1871213
0
LINE
8
DEFAULT_255_2_778
10
18.6581564
20
168.5326213
11
18.2295564
21
169.5629213
0
LINE
8
DEFAULT_255_2_778
10
18.2295564
20
169.5629213
11
17.9080564
21
169.5629213
0
LINE
8
DEFAULT_255_2_778
10
17.9080564
20
169.5629213
11
17.9080564
21
168.9097213
0
LINE
8
DEFAULT_255_2_778
10
18.2798564
20
168.7464213
11
18.2988564
21
168.5517213
0
LINE
8
DEFAULT_255_2_778
10
17.5490564
20
168.8031213
11
17.5363564
21
169.5695213
0
LINE
8
DEFAULT_255_2_778
10
17.5363564
20
169.5695213
11
17.3471564
21
169.5695213
0
LINE
8
DEFAULT_255_2_778
10
17.3471564
20
169.5695213
11
17.3471564
21
169.7831213
0
LINE
8
DEFAULT_255_2_778
10
17.3471564
20
169.7831213
11
17.5487564
21
169.7831213
0
LINE
8
DEFAULT_255_2_778
10
17.5487564
20
169.7831213
11
17.6747564
21
170.2855213
0
LINE
8
DEFAULT_255_2_778
10
17.6747564
20
170.2855213
11
17.8890564
21
170.2855213
0
LINE
8
DEFAULT_255_2_778
10
17.8890564
20
170.2855213
11
17.9017564
21
169.7831213
0
LINE
8
DEFAULT_255_2_778
10
17.9017564
20
169.7831213
11
18.5319564
21
169.7831213
0
LINE
8
DEFAULT_255_2_778
10
18.5319564
20
169.7831213
11
18.8343564
21
168.9539213
0
LINE
8
DEFAULT_255_2_778
10
18.8343564
20
168.9539213
11
19.1368564
21
169.7831213
0
LINE
8
DEFAULT_255_2_778
10
19.1368564
20
169.7831213
11
19.4519564
21
169.7831213
0
LINE
8
DEFAULT_255_2_778
10
19.4519564
20
169.7831213
11
18.7965564
21
168.1371213
0
LINE
8
DEFAULT_255_2_778
10
11.0900564
20
169.5068213
11
11.0900564
21
169.5068213
0
LINE
8
DEFAULT_255_2_778
10
11.0900564
20
169.7302213
11
11.0900564
21
170.4826213
0
LINE
8
DEFAULT_255_2_778
10
11.0900564
20
170.4826213
11
11.4538564
21
170.5239213
0
LINE
8
DEFAULT_255_2_778
10
11.4538564
20
170.5239213
11
11.4538564
21
168.5562213
0
LINE
8
DEFAULT_255_2_778
10
11.4538564
20
168.5562213
11
11.0982564
21
168.5562213
0
LINE
8
DEFAULT_255_2_778
10
11.0982564
20
168.5562213
11
11.0900564
21
168.6554213
0
LINE
8
DEFAULT_255_2_778
10
11.0900564
20
169.7304213
11
11.0900564
21
169.7302213
0
LINE
8
DEFAULT_255_2_778
10
9.1675564
20
169.1671213
11
9.1675564
21
169.1671213
0
LINE
8
DEFAULT_255_2_778
10
9.0416564
20
169.1671213
11
9.0416564
21
169.1671213
0
LINE
8
DEFAULT_255_2_778
10
8.6759564
20
169.1608213
11
8.6759564
21
169.1608213
0
LINE
8
DEFAULT_255_2_778
10
7.0374564
20
170.1471213
11
6.7728564
21
170.1471213
0
LINE
8
DEFAULT_255_2_778
10
6.7728564
20
170.1471213
11
6.7728564
21
169.5944213
0
LINE
8
DEFAULT_255_2_778
10
6.7728564
20
169.5944213
11
7.0374564
21
169.5944213
0
LINE
8
DEFAULT_255_2_778
10
7.2517564
20
169.8458213
11
7.2517564
21
169.8455213
0
LINE
8
DEFAULT_255_2_778
10
7.0879564
20
170.4109213
11
6.3820564
21
170.4109213
0
LINE
8
DEFAULT_255_2_778
10
6.3820564
20
170.4109213
11
6.3820564
21
168.5514213
0
LINE
8
DEFAULT_255_2_778
10
6.3820564
20
168.5514213
11
6.7728564
21
168.5514213
0
LINE
8
DEFAULT_255_2_778
10
6.7728564
20
168.5514213
11
6.7728564
21
169.3304213
0
LINE
8
DEFAULT_255_2_778
10
6.7728564
20
169.3304213
11
7.0879564
21
169.3304213
0
LINE
8
DEFAULT_255_2_778
10
7.6549564
20
169.8958213
11
7.6549564
21
169.8958213
0
LINE
8
DEFAULT_255_1_234
10
4.4347265
20
164.3590276
11
4.4347265
21
164.0176788
0
LINE
8
DEFAULT_255_1_234
10
4.4347265
20
164.0176788
11
4.760815
21
164.0176788
0
LINE
8
DEFAULT_255_1_234
10
4.760815
20
164.0176788
11
4.760815
21
163.8771233
0
LINE
8
DEFAULT_255_1_234
10
4.760815
20
163.8771233
11
4.4347265
21
163.8771233
0
LINE
8
DEFAULT_255_1_234
10
4.4347265
20
163.8771233
11
4.4347265
21
163.5076634
0
LINE
8
DEFAULT_255_1_234
10
4.4347265
20
163.5076634
11
4.2853361
21
163.5076634
0
LINE
8
DEFAULT_255_1_234
10
4.2853361
20
163.5076634
11
4.2853361
21
163.8771233
0
LINE
8
DEFAULT_255_1_234
10
4.2853361
20
163.8771233
11
3.9592476
21
163.8771233
0
LINE
8
DEFAULT_255_1_234
10
3.9592476
20
163.8771233
11
3.9592476
21
164.0176788
0
LINE
8
DEFAULT_255_1_234
10
3.9592476
20
164.0176788
11
4.2853361
21
164.0176788
0
LINE
8
DEFAULT_255_1_234
10
4.2853361
20
164.0176788
11
4.2853361
21
164.3590276
0
LINE
8
DEFAULT_255_1_234
10
4.2853361
20
164.3590276
11
4.4347265
21
164.3590276
0
LINE
8
DEFAULT_255_1_234
10
24.2451663
20
163.9478026
11
24.2451663
21
163.8265234
0
LINE
8
DEFAULT_255_1_234
10
24.2451663
20
163.8265234
11
23.8532174
21
163.8265234
0
LINE
8
DEFAULT_255_1_234
10
23.8532174
20
163.8265234
11
23.8532174
21
163.9478026
0
LINE
8
DEFAULT_255_1_234
10
23.8532174
20
163.9478026
11
24.2451663
21
163.9478026
0
LINE
8
DEFAULT_255_1_234
10
22.0689879
20
5.8098211
11
22.0689879
21
4.6404
0
LINE
8
DEFAULT_255_1_234
10
22.0689879
20
4.6404
11
21.9139753
21
4.6404
0
LINE
8
DEFAULT_255_1_234
10
21.9139753
20
4.6404
11
21.3252489
21
5.541561
0
LINE
8
DEFAULT_255_1_234
10
21.3252489
20
5.541561
11
21.3252489
21
4.6404
0
LINE
8
DEFAULT_255_1_234
10
21.3252489
20
4.6404
11
21.1702364
21
4.6404
0
LINE
8
DEFAULT_255_1_234
10
21.1702364
20
4.6404
11
21.1702364
21
5.8098211
0
LINE
8
DEFAULT_255_1_234
10
21.1702364
20
5.8098211
11
21.3252489
21
5.8098211
0
LINE
8
DEFAULT_255_1_234
10
21.3252489
20
5.8098211
11
21.9155817
21
4.9046442
0
LINE
8
DEFAULT_255_1_234
10
21.9155817
20
4.9046442
11
21.9155817
21
5.8098211
0
LINE
8
DEFAULT_255_1_234
10
21.9155817
20
5.8098211
11
22.0689879
21
5.8098211
0
LINE
8
DEFAULT_255_1_234
10
23.2424249
20
5.2612534
11
23.2424249
21
5.1873614
0
LINE
8
DEFAULT_255_1_234
10
22.3019083
20
5.1769201
11
22.3019083
21
5.2612534
0
LINE
8
DEFAULT_255_1_234
10
23.0890187
20
5.1761169
11
23.0890187
21
5.2628597
0
LINE
8
DEFAULT_255_1_234
10
22.4553145
20
5.273301
11
22.4553145
21
5.1873614
0
ARC
8
DEFAULT_255_1_234
10
22.3782275
20
5.1834015
40
0.8642064
50
350.487711
51
0.2625388
0
ARC
8
DEFAULT_255_1_234
10
22.6075516
20
5.1439578
40
0.631518
50
336.0277639
51
350.5787438
0
ARC
8
DEFAULT_255_1_234
10
22.742034
20
5.0831892
40
0.4839466
50
319.8877444
51
336.1328423
0
ARC
8
DEFAULT_255_1_234
10
22.802298
20
5.034958
40
0.4067874
50
302.4806467
51
319.6143626
0
ARC
8
DEFAULT_255_1_234
10
22.7907991
20
5.0571202
40
0.4316636
50
275.8195682
51
302.1884709
0
ARC
8
DEFAULT_255_1_234
10
22.7741624
20
5.1713665
40
0.5470306
50
269.9171439
51
276.3397983
0
ARC
8
DEFAULT_255_1_234
10
22.7696834
20
5.1027681
40
0.4784458
50
252.5219675
51
270.4416499
0
ARC
8
DEFAULT_255_1_234
10
22.7553093
20
5.0488592
40
0.422716
50
237.5352116
51
252.1857531
0
ARC
8
DEFAULT_255_1_234
10
22.7642289
20
5.0602363
40
0.4371052
50
209.063312
51
237.3492538
0
ARC
8
DEFAULT_255_1_234
10
22.8512137
20
5.1148685
40
0.5397041
50
205.1183774
51
209.6470015
0
ARC
8
DEFAULT_255_1_234
10
22.9309174
20
5.148683
40
0.6262326
50
188.7215458
51
204.8240747
0
ARC
8
DEFAULT_255_1_234
10
23.1306702
20
5.1823067
40
0.8287794
50
180.3723947
51
188.9252049
0
ARC
8
DEFAULT_255_1_234
10
23.1279453
20
5.2652402
40
0.8260467
50
169.5253763
51
180.2765336
0
ARC
8
DEFAULT_255_1_234
10
22.9376902
20
5.3002309
40
0.6326007
50
155.8315255
51
169.5089989
0
ARC
8
DEFAULT_255_1_234
10
22.8096404
20
5.3596348
40
0.4914567
50
139.6258461
51
156.0379525
0
ARC
8
DEFAULT_255_1_234
10
22.7506737
20
5.4070799
40
0.4158054
50
122.6416387
51
139.3430715
0
ARC
8
DEFAULT_255_1_234
10
22.7607357
20
5.3887451
40
0.4366739
50
93.0223692
51
122.455762
0
ARC
8
DEFAULT_255_1_234
10
22.7715353
20
5.2922709
40
0.5336137
50
89.975342
51
93.6341897
0
ARC
8
DEFAULT_255_1_234
10
22.7754133
20
5.3321242
40
0.4937738
50
73.746375
51
90.4233405
0
ARC
8
DEFAULT_255_1_234
10
22.7929711
20
5.4001287
40
0.4235786
50
57.662753
51
73.4518111
0
ARC
8
DEFAULT_255_1_234
10
22.7921718
20
5.4022832
40
0.4221899
50
29.1440151
51
57.414694
0
ARC
8
DEFAULT_255_1_234
10
22.6986912
20
5.3439005
40
0.5322966
50
24.0982783
51
29.7323517
0
ARC
8
DEFAULT_255_1_234
10
22.5953188
20
5.3010399
40
0.6441673
50
8.6655297
51
23.8241346
0
ARC
8
DEFAULT_255_1_234
10
22.3718926
20
5.2645854
40
0.8705386
50
359.7806941
51
8.8218784
0
ARC
8
DEFAULT_255_1_234
10
22.2571924
20
5.2671345
40
0.8318373
50
359.7055579
51
8.036044
0
ARC
8
DEFAULT_255_1_234
10
22.557193
20
5.3108239
40
0.5286768
50
7.8928306
51
20.2962107
0
ARC
8
DEFAULT_255_1_234
10
22.71995
20
5.3708395
40
0.3552073
50
20.3231126
51
36.4992797
0
ARC
8
DEFAULT_255_1_234
10
22.7885046
20
5.4236402
40
0.2686974
50
36.1437156
51
85.6627023
0
ARC
8
DEFAULT_255_1_234
10
22.7722592
20
5.3196221
40
0.373739
50
84.3852322
51
90.0757696
0
ARC
8
DEFAULT_255_1_234
10
22.7680265
20
5.3856839
40
0.3076997
50
89.3038458
51
109.9045693
0
ARC
8
DEFAULT_255_1_234
10
22.7587656
20
5.4239062
40
0.2686424
50
110.8228367
51
143.9179474
0
ARC
8
DEFAULT_255_1_234
10
22.8521316
20
5.3526236
40
0.3860887
50
143.5289163
51
163.2980757
0
ARC
8
DEFAULT_255_1_234
10
23.0429137
20
5.2926433
40
0.5860659
50
163.0418846
51
174.3140048
0
ARC
8
DEFAULT_255_1_234
10
23.2833249
20
5.2648854
40
0.8280531
50
174.0509143
51
179.4176892
0
ARC
8
DEFAULT_255_1_234
10
23.2328988
20
5.1831954
40
0.7775954
50
179.6930361
51
188.7906598
0
ARC
8
DEFAULT_255_1_234
10
22.9665467
20
5.1405935
40
0.5078633
50
188.6331305
51
202.5629587
0
ARC
8
DEFAULT_255_1_234
10
22.8411058
20
5.0901996
40
0.3726913
50
202.8081362
51
216.1193925
0
ARC
8
DEFAULT_255_1_234
10
22.7601629
20
5.0250676
40
0.2689577
50
215.0755913
51
264.6379694
0
ARC
8
DEFAULT_255_1_234
10
22.7728578
20
5.1081513
40
0.3528978
50
263.846392
51
270.0833719
0
ARC
8
DEFAULT_255_1_234
10
22.7769969
20
5.0823374
40
0.3271036
50
269.3649385
51
287.5152008
0
ARC
8
DEFAULT_255_1_234
10
22.7948126
20
5.0176238
40
0.2600406
50
288.0630309
51
323.8113348
0
ARC
8
DEFAULT_255_1_234
10
22.7076968
20
5.0826049
40
0.3687189
50
323.6547608
51
342.6590488
0
ARC
8
DEFAULT_255_1_234
10
22.5045583
20
5.1486952
40
0.5823286
50
342.4091907
51
353.6451149
0
ARC
8
DEFAULT_255_1_234
10
22.2214094
20
5.183919
40
0.8676442
50
353.4029884
51
359.4847795
0
ARC
8
DEFAULT_255_1_234
10
23.8621649
20
5.5020703
40
0.2822356
50
338.8763615
51
0.5166041
0
ARC
8
DEFAULT_255_1_234
10
23.8790304
20
5.4975208
40
0.2648703
50
325.8412414
51
338.4795939
0
ARC
8
DEFAULT_255_1_234
10
23.8399671
20
5.5246042
40
0.3124019
50
296.7586019
51
325.753654
0
ARC
8
DEFAULT_255_1_234
10
23.811178
20
5.5730789
40
0.368668
50
296.0902311
51
297.3618122
0
ARC
8
DEFAULT_255_1_234
10
23.8369237
20
4.9176041
40
0.3518806
50
47.9009248
51
67.1946869
0
ARC
8
DEFAULT_255_1_234
10
23.8565479
20
4.9422395
40
0.320451
50
35.236241
51
47.551371
0
ARC
8
DEFAULT_255_1_234
10
23.8827097
20
4.9596993
40
0.2890103
50
359.2759738
51
35.4014081
0
ARC
8
DEFAULT_255_1_234
10
23.8082128
20
4.9523826
40
0.3635026
50
343.1294516
51
0.5776525
0
ARC
8
DEFAULT_255_1_234
10
23.8806673
20
4.932433
40
0.2883832
50
310.8497458
51
342.744803
0
ARC
8
DEFAULT_255_1_234
10
23.8388787
20
4.9801294
40
0.3517954
50
281.5473923
51
310.9169905
0
ARC
8
DEFAULT_255_1_234
10
23.8032236
20
5.1354084
40
0.5110832
50
269.6192722
51
281.9789957
0
ARC
8
DEFAULT_255_1_234
10
23.7960025
20
5.1354828
40
0.5111606
50
257.4584469
51
270.4287458
0
ARC
8
DEFAULT_255_1_234
10
23.7579168
20
4.9751344
40
0.3463762
50
228.7553743
51
257.8484423
0
ARC
8
DEFAULT_255_1_234
10
23.7269366
20
4.9378442
40
0.297916
50
184.0104442
51
228.5071787
0
ARC
8
DEFAULT_255_1_234
10
23.843231
20
4.9555512
40
0.4152734
50
179.9315461
51
185.3254504
0
ARC
8
DEFAULT_255_1_234
10
23.7255956
20
4.9592992
40
0.2976554
50
145.6795913
51
180.6259649
0
ARC
8
DEFAULT_255_1_234
10
23.7419306
20
4.9478929
40
0.3175776
50
115.5537925
51
145.6416199
0
ARC
8
DEFAULT_255_1_234
10
23.7760236
20
4.8868028
40
0.3874232
50
113.2437915
51
116.2054627
0
ARC
8
DEFAULT_255_1_234
10
23.7607448
20
5.526658
40
0.3154751
50
222.9548379
51
244.1372485
0
ARC
8
DEFAULT_255_1_234
10
23.7485524
20
5.5129834
40
0.2972382
50
213.3439227
51
222.6271327
0
ARC
8
DEFAULT_255_1_234
10
23.7293458
20
5.4999308
40
0.274019
50
180.4316517
51
213.2713999
0
ARC
8
DEFAULT_255_1_234
10
23.7868459
20
5.504611
40
0.33158
50
179.9992944
51
181.1655061
0
ARC
8
DEFAULT_255_1_234
10
23.8277876
20
5.5080561
40
0.3725376
50
164.6186108
51
180.5292368
0
ARC
8
DEFAULT_255_1_234
10
23.7379739
20
5.5322101
40
0.2795349
50
132.2454369
51
164.5092287
0
ARC
8
DEFAULT_255_1_234
10
23.7666843
20
5.4997028
40
0.3229019
50
100.7052766
51
132.1387266
0
ARC
8
DEFAULT_255_1_234
10
23.7971816
20
5.3619086
40
0.4639835
50
89.6732617
51
101.2449487
0
ARC
8
DEFAULT_255_1_234
10
23.8034014
20
5.379399
40
0.4464999
50
76.2876631
51
90.4586123
0
ARC
8
DEFAULT_255_1_234
10
23.8340245
20
5.501622
40
0.3205023
50
47.8240157
51
76.4266918
0
ARC
8
DEFAULT_255_1_234
10
23.8562795
20
5.527659
40
0.2862661
50
6.9168658
51
47.6261438
0
ARC
8
DEFAULT_255_1_234
10
23.7376198
20
5.505737
40
0.4067708
50
359.8419705
51
7.9694496
0
ARC
8
DEFAULT_255_1_234
10
23.7718095
20
4.9616925
40
0.2513121
50
359.4454068
51
16.9256425
0
ARC
8
DEFAULT_255_1_234
10
23.8186906
20
4.9746033
40
0.2027071
50
17.292259
51
45.462717
0
ARC
8
DEFAULT_255_1_234
10
23.8132842
20
4.9699434
40
0.2098212
50
45.3028762
51
83.1921472
0
ARC
8
DEFAULT_255_1_234
10
23.7989526
20
4.8897895
40
0.2911472
50
82.2614531
51
90.143954
0
ARC
8
DEFAULT_255_1_234
10
23.7958647
20
4.913095
40
0.2678513
50
89.4959189
51
104.8579811
0
ARC
8
DEFAULT_255_1_234
10
23.7781905
20
4.980089
40
0.1985654
50
104.8855873
51
135.2448349
0
ARC
8
DEFAULT_255_1_234
10
23.7831678
20
4.9756336
40
0.2052373
50
135.3398955
51
172.104394
0
ARC
8
DEFAULT_255_1_234
10
23.8638736
20
4.9601925
40
0.2873299
50
171.2651929
51
180.1859362
0
ARC
8
DEFAULT_255_1_234
10
23.8469438
20
4.9569733
40
0.2704083
50
179.515471
51
193.6466734
0
ARC
8
DEFAULT_255_1_234
10
23.7653206
20
4.9361777
40
0.1861855
50
193.3540587
51
225.8256931
0
ARC
8
DEFAULT_255_1_234
10
23.7693964
20
4.9432524
40
0.1941102
50
226.418029
51
255.8553723
0
ARC
8
DEFAULT_255_1_234
10
23.7950396
20
5.0368998
40
0.2911917
50
255.4655572
51
268.7985967
0
ARC
8
DEFAULT_255_1_234
10
23.7997588
20
5.1207491
40
0.3751331
50
268.3464808
51
270.0104874
0
ARC
8
DEFAULT_255_1_234
10
23.8020976
20
5.0523138
40
0.3067064
50
269.575914
51
282.0823146
0
ARC
8
DEFAULT_255_1_234
10
23.8245885
20
4.9528803
40
0.2047712
50
281.7522535
51
306.6056425
0
ARC
8
DEFAULT_255_1_234
10
23.8344312
20
4.9367487
40
0.1859604
50
307.1350025
51
314.0277951
0
ARC
8
DEFAULT_255_1_234
10
23.8308396
20
4.9393766
40
0.1903475
50
314.2553419
51
350.169324
0
ARC
8
DEFAULT_255_1_234
10
23.7456864
20
4.9578409
40
0.2774269
50
349.4145679
51
0.2930737
0
ARC
8
DEFAULT_255_1_234
10
23.7977297
20
5.4737353
40
0.2300764
50
89.477591
51
105.729794
0
ARC
8
DEFAULT_255_1_234
10
23.7841211
20
5.5242637
40
0.1777519
50
105.922966
51
135.1662921
0
ARC
8
DEFAULT_255_1_234
10
23.7861713
20
5.5228419
40
0.1802087
50
135.3053131
51
168.9882338
0
ARC
8
DEFAULT_255_1_234
10
23.8689286
20
5.5038721
40
0.2650806
50
168.3802067
51
180.3602358
0
ARC
8
DEFAULT_255_1_234
10
23.8460865
20
5.5001041
40
0.2422425
50
179.5029707
51
194.9126783
0
ARC
8
DEFAULT_255_1_234
10
23.7875526
20
5.484711
40
0.1817188
50
194.9722181
51
224.1943972
0
ARC
8
DEFAULT_255_1_234
10
23.7847394
20
5.4824169
40
0.1781027
50
224.2961434
51
262.0157375
0
ARC
8
DEFAULT_255_1_234
10
23.7989636
20
5.5555661
40
0.2525492
50
261.1250369
51
270.1959853
0
ARC
8
DEFAULT_255_1_234
10
23.8019391
20
5.5368339
40
0.233825
50
269.4825617
51
285.0988277
0
ARC
8
DEFAULT_255_1_234
10
23.817355
20
5.478999
40
0.1739712
50
285.1585659
51
315.9484648
0
ARC
8
DEFAULT_255_1_234
10
23.8084562
20
5.4871886
40
0.1860616
50
316.0412958
51
351.9162715
0
ARC
8
DEFAULT_255_1_234
10
23.7351517
20
5.5013245
40
0.2606517
50
351.1056823
51
0.1936567
0
ARC
8
DEFAULT_255_1_234
10
23.7614346
20
5.5043369
40
0.234377
50
359.4789506
51
16.0679113
0
ARC
8
DEFAULT_255_1_234
10
23.8090305
20
5.517181
40
0.1850875
50
16.3251951
51
44.791304
0
ARC
8
DEFAULT_255_1_234
10
23.8072586
20
5.5172339
40
0.186312
50
44.3958661
51
88.2498933
0
ARC
8
DEFAULT_255_1_234
10
23.799914
20
5.4561154
40
0.2476868
50
86.9833827
51
90.0200148
0
LINE
8
DEFAULT_255_1_234
10
23.186823
20
12.9489663
11
23.3418355
21
12.9489663
0
LINE
8
DEFAULT_255_1_234
10
22.4414777
20
13.1079947
11
22.4414777
21
13.2204391
0
LINE
8
DEFAULT_255_1_234
10
23.3418355
20
13.3714357
11
23.186823
21
13.3714357
0
LINE
8
DEFAULT_255_1_234
10
22.5964902
20
13.2164232
11
22.5964902
21
13.1031757
0
ARC
8
DEFAULT_255_1_234
10
22.7937742
20
13.0086846
40
0.5513052
50
340.1774281
51
353.7814284
0
ARC
8
DEFAULT_255_1_234
10
22.9509095
20
12.9501582
40
0.3836379
50
311.4558989
51
340.4421614
0
ARC
8
DEFAULT_255_1_234
10
22.9475763
20
12.9612528
40
0.3941894
50
282.4333181
51
310.7513653
0
ARC
8
DEFAULT_255_1_234
10
22.9036502
20
13.1427679
40
0.5809175
50
269.9358511
51
282.809604
0
ARC
8
DEFAULT_255_1_234
10
22.8984568
20
13.2885212
40
0.7266847
50
270.0021091
51
270.3581957
0
ARC
8
DEFAULT_255_1_234
10
22.8931985
20
13.0284585
40
0.4666519
50
250.7884749
51
270.6489167
0
ARC
8
DEFAULT_255_1_234
10
22.876382
20
12.9647319
40
0.4009729
50
219.3627325
51
250.0611886
0
ARC
8
DEFAULT_255_1_234
10
22.9593031
20
13.0352042
40
0.5097822
50
193.5479632
51
219.5756669
0
ARC
8
DEFAULT_255_1_234
10
23.1964652
20
13.0967919
40
0.7547848
50
181.1218675
51
193.87563
0
ARC
8
DEFAULT_255_1_234
10
23.4034833
20
13.107858
40
0.9620055
50
179.9918545
51
181.5394234
0
ARC
8
DEFAULT_255_1_234
10
23.2183935
20
13.2241788
40
0.7769248
50
169.5837241
51
180.2757934
0
ARC
8
DEFAULT_255_1_234
10
23.0346873
20
13.2581229
40
0.590109
50
155.0365899
51
169.6003176
0
ARC
8
DEFAULT_255_1_234
10
22.9211337
20
13.3128677
40
0.4640625
50
136.783148
51
155.2472683
0
ARC
8
DEFAULT_255_1_234
10
22.8821814
20
13.3459562
40
0.4130255
50
121.7633186
51
136.428115
0
ARC
8
DEFAULT_255_1_234
10
22.8956776
20
13.3210227
40
0.4413323
50
95.6459699
51
121.5490577
0
ARC
8
DEFAULT_255_1_234
10
22.9114058
20
13.2101949
40
0.55319
50
89.924208
51
96.1377933
0
ARC
8
DEFAULT_255_1_234
10
22.9164491
20
13.2220542
40
0.5413475
50
76.6779277
51
90.4563316
0
ARC
8
DEFAULT_255_1_234
10
22.9558114
20
13.3811114
40
0.3775041
50
47.485847
51
76.9287264
0
ARC
8
DEFAULT_255_1_234
10
22.9411087
20
13.3711159
40
0.3948286
50
16.5424086
51
46.8933463
0
ARC
8
DEFAULT_255_1_234
10
22.7803244
20
13.3182861
40
0.564021
50
5.4072051
51
17.0365086
0
ARC
8
DEFAULT_255_1_234
10
22.6364261
20
13.2951679
40
0.5556559
50
7.8891745
51
15.9239216
0
ARC
8
DEFAULT_255_1_234
10
22.8351274
20
13.3528631
40
0.3487515
50
15.7653144
51
27.9410532
0
ARC
8
DEFAULT_255_1_234
10
22.9455492
20
13.411979
40
0.2235026
50
27.8166557
51
46.4008329
0
ARC
8
DEFAULT_255_1_234
10
22.9505135
20
13.4114082
40
0.2205286
50
47.4371857
51
75.0698205
0
ARC
8
DEFAULT_255_1_234
10
22.9196529
20
13.3039765
40
0.3322915
50
74.7008593
51
87.8124495
0
ARC
8
DEFAULT_255_1_234
10
22.9123217
20
13.1983844
40
0.4380987
50
87.3814673
51
90.0240855
0
ARC
8
DEFAULT_255_1_234
10
22.908476
20
13.3161291
40
0.3203749
50
89.3451631
51
108.5745436
0
ARC
8
DEFAULT_255_1_234
10
22.8947865
20
13.3674908
40
0.2673494
50
109.2998449
51
143.3037509
0
ARC
8
DEFAULT_255_1_234
10
22.9709938
20
13.3088881
40
0.3634757
50
143.0753173
51
163.1916937
0
ARC
8
DEFAULT_255_1_234
10
23.1661666
20
13.2472967
40
0.5681262
50
162.9373603
51
174.6208611
0
ARC
8
DEFAULT_255_1_234
10
23.4287708
20
13.218501
40
0.8322832
50
174.3419979
51
180.1430411
0
ARC
8
DEFAULT_255_1_234
10
23.3356864
20
13.0990698
40
0.7392076
50
179.6817502
51
189.150529
0
ARC
8
DEFAULT_255_1_234
10
23.0856112
20
13.057419
40
0.4856932
50
188.9910863
51
203.5773039
0
ARC
8
DEFAULT_255_1_234
10
22.9776445
20
13.0126211
40
0.3688271
50
203.9077269
51
215.1312379
0
ARC
8
DEFAULT_255_1_234
10
22.8853539
20
12.9410941
40
0.2522457
50
213.9071664
51
263.8849284
0
ARC
8
DEFAULT_255_1_234
10
22.8978868
20
13.0195518
40
0.3316174
50
263.1758525
51
270.1031083
0
ARC
8
DEFAULT_255_1_234
10
22.901096
20
13.1442365
40
0.4563091
50
269.6719807
51
279.0609165
0
ARC
8
DEFAULT_255_1_234
10
22.9277728
20
12.9829907
40
0.2928759
50
278.8750225
51
293.6346586
0
ARC
8
DEFAULT_255_1_234
10
22.9597936
20
12.90779
40
0.2111472
50
293.8553404
51
310.0518804
0
ARC
8
DEFAULT_255_1_234
10
22.960279
20
12.9015516
40
0.2060917
50
311.0646779
51
332.0108348
0
ARC
8
DEFAULT_255_1_234
10
22.8410517
20
12.9672978
40
0.3422352
50
331.6588543
51
343.2878891
0
ARC
8
DEFAULT_255_1_234
10
22.6348032
20
13.0306798
40
0.5580003
50
343.1446044
51
351.010618
0
ARC
8
DEFAULT_255_1_234
10
22.4806678
20
13.0587871
40
0.7146438
50
350.7157277
51
351.1602153
0
ARC
8
DEFAULT_255_1_234
10
23.9406931
20
13.4395703
40
0.2822356
50
338.8763615
51
0.5166041
0
ARC
8
DEFAULT_255_1_234
10
23.9575585
20
13.4350208
40
0.2648703
50
325.8412414
51
338.4795939
0
ARC
8
DEFAULT_255_1_234
10
23.9184953
20
13.4621042
40
0.3124019
50
296.7586019
51
325.753654
0
ARC
8
DEFAULT_255_1_234
10
23.8897062
20
13.5105789
40
0.368668
50
296.0902311
51
297.3618122
0
ARC
8
DEFAULT_255_1_234
10
23.9154519
20
12.8551041
40
0.3518806
50
47.9009248
51
67.1946869
0
ARC
8
DEFAULT_255_1_234
10
23.9350761
20
12.8797395
40
0.320451
50
35.236241
51
47.551371
0
ARC
8
DEFAULT_255_1_234
10
23.9612379
20
12.8971993
40
0.2890103
50
359.2759738
51
35.4014081
0
ARC
8
DEFAULT_255_1_234
10
23.886741
20
12.8898826
40
0.3635026
50
343.1294516
51
0.5776525
0
ARC
8
DEFAULT_255_1_234
10
23.9591955
20
12.869933
40
0.2883832
50
310.8497458
51
342.744803
0
ARC
8
DEFAULT_255_1_234
10
23.9174068
20
12.9176294
40
0.3517954
50
281.5473923
51
310.9169905
0
ARC
8
DEFAULT_255_1_234
10
23.8817518
20
13.0729084
40
0.5110832
50
269.6192722
51
281.9789957
0
ARC
8
DEFAULT_255_1_234
10
23.8745307
20
13.0729828
40
0.5111606
50
257.4584469
51
270.4287458
0
ARC
8
DEFAULT_255_1_234
10
23.836445
20
12.9126344
40
0.3463762
50
228.7553743
51
257.8484423
0
ARC
8
DEFAULT_255_1_234
10
23.8054648
20
12.8753442
40
0.297916
50
184.0104442
51
228.5071787
0
ARC
8
DEFAULT_255_1_234
10
23.9217592
20
12.8930512
40
0.4152734
50
179.9315461
51
185.3254504
0
ARC
8
DEFAULT_255_1_234
10
23.8041238
20
12.8967992
40
0.2976554
50
145.6795913
51
180.6259649
0
ARC
8
DEFAULT_255_1_234
10
23.8204587
20
12.8853929
40
0.3175776
50
115.5537925
51
145.6416199
0
ARC
8
DEFAULT_255_1_234
10
23.8545518
20
12.8243028
40
0.3874232
50
113.2437915
51
116.2054627
0
ARC
8
DEFAULT_255_1_234
10
23.839273
20
13.464158
40
0.3154751
50
222.9548379
51
244.1372485
0
ARC
8
DEFAULT_255_1_234
10
23.8270805
20
13.4504834
40
0.2972382
50
213.3439227
51
222.6271327
0
ARC
8
DEFAULT_255_1_234
10
23.807874
20
13.4374308
40
0.274019
50
180.4316517
51
213.2713999
0
ARC
8
DEFAULT_255_1_234
10
23.8653741
20
13.442111
40
0.33158
50
179.9992944
51
181.1655061
0
ARC
8
DEFAULT_255_1_234
10
23.9063158
20
13.4455561
40
0.3725376
50
164.6186108
51
180.5292368
0
ARC
8
DEFAULT_255_1_234
10
23.8165021
20
13.4697101
40
0.2795349
50
132.2454369
51
164.5092287
0
ARC
8
DEFAULT_255_1_234
10
23.8452125
20
13.4372028
40
0.3229019
50
100.7052766
51
132.1387266
0
ARC
8
DEFAULT_255_1_234
10
23.8757097
20
13.2994086
40
0.4639835
50
89.6732617
51
101.2449487
0
ARC
8
DEFAULT_255_1_234
10
23.8819295
20
13.316899
40
0.4464999
50
76.2876631
51
90.4586123
0
ARC
8
DEFAULT_255_1_234
10
23.9125527
20
13.439122
40
0.3205023
50
47.8240157
51
76.4266918
0
ARC
8
DEFAULT_255_1_234
10
23.9348077
20
13.465159
40
0.2862661
50
6.9168658
51
47.6261438
0
ARC
8
DEFAULT_255_1_234
10
23.816148
20
13.443237
40
0.4067708
50
359.8419705
51
7.9694496
0
ARC
8
DEFAULT_255_1_234
10
23.8503377
20
12.8991925
40
0.2513121
50
359.4454068
51
16.9256425
0
ARC
8
DEFAULT_255_1_234
10
23.8972188
20
12.9121033
40
0.2027071
50
17.292259
51
45.462717
0
ARC
8
DEFAULT_255_1_234
10
23.8918124
20
12.9074434
40
0.2098212
50
45.3028762
51
83.1921472
0
ARC
8
DEFAULT_255_1_234
10
23.8774808
20
12.8272895
40
0.2911472
50
82.2614531
51
90.143954
0
ARC
8
DEFAULT_255_1_234
10
23.8743928
20
12.850595
40
0.2678513
50
89.4959189
51
104.8579811
0
ARC
8
DEFAULT_255_1_234
10
23.8567187
20
12.917589
40
0.1985654
50
104.8855873
51
135.2448349
0
ARC
8
DEFAULT_255_1_234
10
23.861696
20
12.9131336
40
0.2052373
50
135.3398955
51
172.104394
0
ARC
8
DEFAULT_255_1_234
10
23.9424018
20
12.8976925
40
0.2873299
50
171.2651929
51
180.1859362
0
ARC
8
DEFAULT_255_1_234
10
23.9254719
20
12.8944733
40
0.2704083
50
179.515471
51
193.6466734
0
ARC
8
DEFAULT_255_1_234
10
23.8438488
20
12.8736777
40
0.1861855
50
193.3540587
51
225.8256931
0
ARC
8
DEFAULT_255_1_234
10
23.8479246
20
12.8807524
40
0.1941102
50
226.418029
51
255.8553723
0
ARC
8
DEFAULT_255_1_234
10
23.8735678
20
12.9743998
40
0.2911917
50
255.4655572
51
268.7985967
0
ARC
8
DEFAULT_255_1_234
10
23.878287
20
13.0582491
40
0.3751331
50
268.3464808
51
270.0104874
0
ARC
8
DEFAULT_255_1_234
10
23.8806258
20
12.9898138
40
0.3067064
50
269.575914
51
282.0823146
0
ARC
8
DEFAULT_255_1_234
10
23.9031167
20
12.8903803
40
0.2047712
50
281.7522535
51
306.6056425
0
ARC
8
DEFAULT_255_1_234
10
23.9129593
20
12.8742487
40
0.1859604
50
307.1350025
51
314.0277951
0
ARC
8
DEFAULT_255_1_234
10
23.9093677
20
12.8768766
40
0.1903475
50
314.2553419
51
350.169324
0
ARC
8
DEFAULT_255_1_234
10
23.8242146
20
12.8953409
40
0.2774269
50
349.4145679
51
0.2930737
0
ARC
8
DEFAULT_255_1_234
10
23.8762579
20
13.4112353
40
0.2300764
50
89.477591
51
105.729794
0
ARC
8
DEFAULT_255_1_234
10
23.8626493
20
13.4617637
40
0.1777519
50
105.922966
51
135.1662921
0
ARC
8
DEFAULT_255_1_234
10
23.8646995
20
13.4603419
40
0.1802087
50
135.3053131
51
168.9882338
0
ARC
8
DEFAULT_255_1_234
10
23.9474568
20
13.4413721
40
0.2650806
50
168.3802067
51
180.3602358
0
ARC
8
DEFAULT_255_1_234
10
23.9246147
20
13.4376041
40
0.2422425
50
179.5029707
51
194.9126783
0
ARC
8
DEFAULT_255_1_234
10
23.8660808
20
13.422211
40
0.1817188
50
194.9722181
51
224.1943972
0
ARC
8
DEFAULT_255_1_234
10
23.8632675
20
13.4199169
40
0.1781027
50
224.2961434
51
262.0157375
0
ARC
8
DEFAULT_255_1_234
10
23.8774918
20
13.4930661
40
0.2525492
50
261.1250369
51
270.1959853
0
ARC
8
DEFAULT_255_1_234
10
23.8804673
20
13.4743339
40
0.233825
50
269.4825617
51
285.0988277
0
ARC
8
DEFAULT_255_1_234
10
23.8958832
20
13.416499
40
0.1739712
50
285.1585659
51
315.9484648
0
ARC
8
DEFAULT_255_1_234
10
23.8869844
20
13.4246886
40
0.1860616
50
316.0412958
51
351.9162715
0
ARC
8
DEFAULT_255_1_234
10
23.8136799
20
13.4388245
40
0.2606517
50
351.1056823
51
0.1936567
0
ARC
8
DEFAULT_255_1_234
10
23.8399628
20
13.4418369
40
0.234377
50
359.4789506
51
16.0679113
0
ARC
8
DEFAULT_255_1_234
10
23.8875587
20
13.454681
40
0.1850875
50
16.3251951
51
44.791304
0
ARC
8
DEFAULT_255_1_234
10
23.8857868
20
13.4547339
40
0.186312
50
44.3958661
51
88.2498933
0
ARC
8
DEFAULT_255_1_234
10
23.8784422
20
13.3936154
40
0.2476868
50
86.9833827
51
90.0200148
0
LINE
8
DEFAULT_255_1_234
10
22.1331879
20
21.6848211
11
22.1331879
21
20.5154
0
LINE
8
DEFAULT_255_1_234
10
22.1331879
20
20.5154
11
21.9781753
21
20.5154
0
LINE
8
DEFAULT_255_1_234
10
21.9781753
20
20.5154
11
21.3894489
21
21.416561
0
LINE
8
DEFAULT_255_1_234
10
21.3894489
20
21.416561
11
21.3894489
21
20.5154
0
LINE
8
DEFAULT_255_1_234
10
21.3894489
20
20.5154
11
21.2344364
21
20.5154
0
LINE
8
DEFAULT_255_1_234
10
21.2344364
20
20.5154
11
21.2344364
21
21.6848211
0
LINE
8
DEFAULT_255_1_234
10
21.2344364
20
21.6848211
11
21.3894489
21
21.6848211
0
LINE
8
DEFAULT_255_1_234
10
21.3894489
20
21.6848211
11
21.9797817
21
20.7796442
0
LINE
8
DEFAULT_255_1_234
10
21.9797817
20
20.7796442
11
21.9797817
21
21.6848211
0
LINE
8
DEFAULT_255_1_234
10
21.9797817
20
21.6848211
11
22.1331879
21
21.6848211
0
LINE
8
DEFAULT_255_1_234
10
23.1122568
20
20.8864663
11
23.2672693
21
20.8864663
0
LINE
8
DEFAULT_255_1_234
10
22.3669115
20
21.0454947
11
22.3669115
21
21.1579391
0
LINE
8
DEFAULT_255_1_234
10
23.2672693
20
21.3089357
11
23.1122568
21
21.3089357
0
LINE
8
DEFAULT_255_1_234
10
22.521924
20
21.1539232
11
22.521924
21
21.0406757
0
ARC
8
DEFAULT_255_1_234
10
22.719208
20
20.9461846
40
0.5513052
50
340.1774281
51
353.7814284
0
ARC
8
DEFAULT_255_1_234
10
22.8763432
20
20.8876582
40
0.3836379
50
311.4558989
51
340.4421614
0
ARC
8
DEFAULT_255_1_234
10
22.8730101
20
20.8987528
40
0.3941894
50
282.4333181
51
310.7513653
0
ARC
8
DEFAULT_255_1_234
10
22.829084
20
21.0802679
40
0.5809175
50
269.9358511
51
282.809604
0
ARC
8
DEFAULT_255_1_234
10
22.8238906
20
21.2260212
40
0.7266847
50
270.0021091
51
270.3581957
0
ARC
8
DEFAULT_255_1_234
10
22.8186323
20
20.9659585
40
0.4666519
50
250.7884749
51
270.6489167
0
ARC
8
DEFAULT_255_1_234
10
22.8018158
20
20.9022319
40
0.4009729
50
219.3627325
51
250.0611886
0
ARC
8
DEFAULT_255_1_234
10
22.8847369
20
20.9727042
40
0.5097822
50
193.5479632
51
219.5756669
0
ARC
8
DEFAULT_255_1_234
10
23.1218989
20
21.0342919
40
0.7547848
50
181.1218675
51
193.87563
0
ARC
8
DEFAULT_255_1_234
10
23.3289171
20
21.045358
40
0.9620055
50
179.9918545
51
181.5394234
0
ARC
8
DEFAULT_255_1_234
10
23.1438273
20
21.1616788
40
0.7769248
50
169.5837241
51
180.2757934
0
ARC
8
DEFAULT_255_1_234
10
22.9601211
20
21.1956229
40
0.590109
50
155.0365899
51
169.6003176
0
ARC
8
DEFAULT_255_1_234
10
22.8465675
20
21.2503677
40
0.4640625
50
136.783148
51
155.2472683
0
ARC
8
DEFAULT_255_1_234
10
22.8076152
20
21.2834562
40
0.4130255
50
121.7633186
51
136.428115
0
ARC
8
DEFAULT_255_1_234
10
22.8211114
20
21.2585227
40
0.4413323
50
95.6459699
51
121.5490577
0
ARC
8
DEFAULT_255_1_234
10
22.8368396
20
21.1476949
40
0.55319
50
89.924208
51
96.1377933
0
ARC
8
DEFAULT_255_1_234
10
22.8418828
20
21.1595542
40
0.5413475
50
76.6779277
51
90.4563316
0
ARC
8
DEFAULT_255_1_234
10
22.8812452
20
21.3186114
40
0.3775041
50
47.485847
51
76.9287264
0
ARC
8
DEFAULT_255_1_234
10
22.8665425
20
21.3086159
40
0.3948286
50
16.5424086
51
46.8933463
0
ARC
8
DEFAULT_255_1_234
10
22.7057582
20
21.2557861
40
0.564021
50
5.4072051
51
17.0365086
0
ARC
8
DEFAULT_255_1_234
10
22.5618599
20
21.2326679
40
0.5556559
50
7.8891745
51
15.9239216
0
ARC
8
DEFAULT_255_1_234
10
22.7605612
20
21.2903631
40
0.3487515
50
15.7653144
51
27.9410532
0
ARC
8
DEFAULT_255_1_234
10
22.870983
20
21.349479
40
0.2235026
50
27.8166557
51
46.4008329
0
ARC
8
DEFAULT_255_1_234
10
22.8759473
20
21.3489082
40
0.2205286
50
47.4371857
51
75.0698205
0
ARC
8
DEFAULT_255_1_234
10
22.8450867
20
21.2414765
40
0.3322915
50
74.7008593
51
87.8124495
0
ARC
8
DEFAULT_255_1_234
10
22.8377555
20
21.1358844
40
0.4380987
50
87.3814673
51
90.0240855
0
ARC
8
DEFAULT_255_1_234
10
22.8339098
20
21.2536291
40
0.3203749
50
89.3451631
51
108.5745436
0
ARC
8
DEFAULT_255_1_234
10
22.8202203
20
21.3049908
40
0.2673494
50
109.2998449
51
143.3037509
0
ARC
8
DEFAULT_255_1_234
10
22.8964276
20
21.2463881
40
0.3634757
50
143.0753173
51
163.1916937
0
ARC
8
DEFAULT_255_1_234
10
23.0916003
20
21.1847967
40
0.5681262
50
162.9373603
51
174.6208611
0
ARC
8
DEFAULT_255_1_234
10
23.3542046
20
21.156001
40
0.8322832
50
174.3419979
51
180.1430411
0
ARC
8
DEFAULT_255_1_234
10
23.2611202
20
21.0365698
40
0.7392076
50
179.6817502
51
189.150529
0
ARC
8
DEFAULT_255_1_234
10
23.011045
20
20.994919
40
0.4856932
50
188.9910863
51
203.5773039
0
ARC
8
DEFAULT_255_1_234
10
22.9030783
20
20.9501211
40
0.3688271
50
203.9077269
51
215.1312379
0
ARC
8
DEFAULT_255_1_234
10
22.8107877
20
20.8785941
40
0.2522457
50
213.9071664
51
263.8849284
0
ARC
8
DEFAULT_255_1_234
10
22.8233206
20
20.9570518
40
0.3316174
50
263.1758525
51
270.1031083
0
ARC
8
DEFAULT_255_1_234
10
22.8265297
20
21.0817365
40
0.4563091
50
269.6719807
51
279.0609165
0
ARC
8
DEFAULT_255_1_234
10
22.8532066
20
20.9204907
40
0.2928759
50
278.8750225
51
293.6346586
0
ARC
8
DEFAULT_255_1_234
10
22.8852274
20
20.84529
40
0.2111472
50
293.8553404
51
310.0518804
0
ARC
8
DEFAULT_255_1_234
10
22.8857128
20
20.8390516
40
0.2060917
50
311.0646779
51
332.0108348
0
ARC
8
DEFAULT_255_1_234
10
22.7664854
20
20.9047978
40
0.3422352
50
331.6588543
51
343.2878891
0
ARC
8
DEFAULT_255_1_234
10
22.5602369
20
20.9681798
40
0.5580003
50
343.1446044
51
351.010618
0
ARC
8
DEFAULT_255_1_234
10
22.4061016
20
20.9962871
40
0.7146438
50
350.7157277
51
351.1602153
0
ARC
8
DEFAULT_255_1_234
10
23.8661269
20
21.3770703
40
0.2822356
50
338.8763615
51
0.5166041
0
ARC
8
DEFAULT_255_1_234
10
23.8829923
20
21.3725208
40
0.2648703
50
325.8412414
51
338.4795939
0
ARC
8
DEFAULT_255_1_234
10
23.8439291
20
21.3996042
40
0.3124019
50
296.7586019
51
325.753654
0
ARC
8
DEFAULT_255_1_234
10
23.8151399
20
21.4480789
40
0.368668
50
296.0902311
51
297.3618122
0
ARC
8
DEFAULT_255_1_234
10
23.8408857
20
20.7926041
40
0.3518806
50
47.9009248
51
67.1946869
0
ARC
8
DEFAULT_255_1_234
10
23.8605099
20
20.8172395
40
0.320451
50
35.236241
51
47.551371
0
ARC
8
DEFAULT_255_1_234
10
23.8866717
20
20.8346993
40
0.2890103
50
359.2759738
51
35.4014081
0
ARC
8
DEFAULT_255_1_234
10
23.8121748
20
20.8273826
40
0.3635026
50
343.1294516
51
0.5776525
0
ARC
8
DEFAULT_255_1_234
10
23.8846293
20
20.807433
40
0.2883832
50
310.8497458
51
342.744803
0
ARC
8
DEFAULT_255_1_234
10
23.8428406
20
20.8551294
40
0.3517954
50
281.5473923
51
310.9169905
0
ARC
8
DEFAULT_255_1_234
10
23.8071856
20
21.0104084
40
0.5110832
50
269.6192722
51
281.9789957
0
ARC
8
DEFAULT_255_1_234
10
23.7999645
20
21.0104828
40
0.5111606
50
257.4584469
51
270.4287458
0
ARC
8
DEFAULT_255_1_234
10
23.7618788
20
20.8501344
40
0.3463762
50
228.7553743
51
257.8484423
0
ARC
8
DEFAULT_255_1_234
10
23.7308986
20
20.8128442
40
0.297916
50
184.0104442
51
228.5071787
0
ARC
8
DEFAULT_255_1_234
10
23.847193
20
20.8305512
40
0.4152734
50
179.9315461
51
185.3254504
0
ARC
8
DEFAULT_255_1_234
10
23.7295576
20
20.8342992
40
0.2976554
50
145.6795913
51
180.6259649
0
ARC
8
DEFAULT_255_1_234
10
23.7458925
20
20.8228929
40
0.3175776
50
115.5537925
51
145.6416199
0
ARC
8
DEFAULT_255_1_234
10
23.7799855
20
20.7618028
40
0.3874232
50
113.2437915
51
116.2054627
0
ARC
8
DEFAULT_255_1_234
10
23.7647068
20
21.401658
40
0.3154751
50
222.9548379
51
244.1372485
0
ARC
8
DEFAULT_255_1_234
10
23.7525143
20
21.3879834
40
0.2972382
50
213.3439227
51
222.6271327
0
ARC
8
DEFAULT_255_1_234
10
23.7333078
20
21.3749308
40
0.274019
50
180.4316517
51
213.2713999
0
ARC
8
DEFAULT_255_1_234
10
23.7908079
20
21.379611
40
0.33158
50
179.9992944
51
181.1655061
0
ARC
8
DEFAULT_255_1_234
10
23.8317496
20
21.3830561
40
0.3725376
50
164.6186108
51
180.5292368
0
ARC
8
DEFAULT_255_1_234
10
23.7419359
20
21.4072101
40
0.2795349
50
132.2454369
51
164.5092287
0
ARC
8
DEFAULT_255_1_234
10
23.7706463
20
21.3747028
40
0.3229019
50
100.7052766
51
132.1387266
0
ARC
8
DEFAULT_255_1_234
10
23.8011435
20
21.2369086
40
0.4639835
50
89.6732617
51
101.2449487
0
ARC
8
DEFAULT_255_1_234
10
23.8073633
20
21.254399
40
0.4464999
50
76.2876631
51
90.4586123
0
ARC
8
DEFAULT_255_1_234
10
23.8379865
20
21.376622
40
0.3205023
50
47.8240157
51
76.4266918
0
ARC
8
DEFAULT_255_1_234
10
23.8602415
20
21.402659
40
0.2862661
50
6.9168658
51
47.6261438
0
ARC
8
DEFAULT_255_1_234
10
23.7415818
20
21.380737
40
0.4067708
50
359.8419705
51
7.9694496
0
ARC
8
DEFAULT_255_1_234
10
23.7757715
20
20.8366925
40
0.2513121
50
359.4454068
51
16.9256425
0
ARC
8
DEFAULT_255_1_234
10
23.8226526
20
20.8496033
40
0.2027071
50
17.292259
51
45.462717
0
ARC
8
DEFAULT_255_1_234
10
23.8172462
20
20.8449434
40
0.2098212
50
45.3028762
51
83.1921472
0
ARC
8
DEFAULT_255_1_234
10
23.8029146
20
20.7647895
40
0.2911472
50
82.2614531
51
90.143954
0
ARC
8
DEFAULT_255_1_234
10
23.7998266
20
20.788095
40
0.2678513
50
89.4959189
51
104.8579811
0
ARC
8
DEFAULT_255_1_234
10
23.7821525
20
20.855089
40
0.1985654
50
104.8855873
51
135.2448349
0
ARC
8
DEFAULT_255_1_234
10
23.7871298
20
20.8506336
40
0.2052373
50
135.3398955
51
172.104394
0
ARC
8
DEFAULT_255_1_234
10
23.8678356
20
20.8351925
40
0.2873299
50
171.2651929
51
180.1859362
0
ARC
8
DEFAULT_255_1_234
10
23.8509057
20
20.8319733
40
0.2704083
50
179.515471
51
193.6466734
0
ARC
8
DEFAULT_255_1_234
10
23.7692826
20
20.8111777
40
0.1861855
50
193.3540587
51
225.8256931
0
ARC
8
DEFAULT_255_1_234
10
23.7733583
20
20.8182524
40
0.1941102
50
226.418029
51
255.8553723
0
ARC
8
DEFAULT_255_1_234
10
23.7990016
20
20.9118998
40
0.2911917
50
255.4655572
51
268.7985967
0
ARC
8
DEFAULT_255_1_234
10
23.8037208
20
20.9957491
40
0.3751331
50
268.3464808
51
270.0104874
0
ARC
8
DEFAULT_255_1_234
10
23.8060596
20
20.9273138
40
0.3067064
50
269.575914
51
282.0823146
0
ARC
8
DEFAULT_255_1_234
10
23.8285505
20
20.8278803
40
0.2047712
50
281.7522535
51
306.6056425
0
ARC
8
DEFAULT_255_1_234
10
23.8383931
20
20.8117487
40
0.1859604
50
307.1350025
51
314.0277951
0
ARC
8
DEFAULT_255_1_234
10
23.8348015
20
20.8143766
40
0.1903475
50
314.2553419
51
350.169324
0
ARC
8
DEFAULT_255_1_234
10
23.7496484
20
20.8328409
40
0.2774269
50
349.4145679
51
0.2930737
0
ARC
8
DEFAULT_255_1_234
10
23.8016917
20
21.3487353
40
0.2300764
50
89.477591
51
105.729794
0
ARC
8
DEFAULT_255_1_234
10
23.788083
20
21.3992637
40
0.1777519
50
105.922966
51
135.1662921
0
ARC
8
DEFAULT_255_1_234
10
23.7901333
20
21.3978419
40
0.1802087
50
135.3053131
51
168.9882338
0
ARC
8
DEFAULT_255_1_234
10
23.8728905
20
21.3788721
40
0.2650806
50
168.3802067
51
180.3602358
0
ARC
8
DEFAULT_255_1_234
10
23.8500485
20
21.3751041
40
0.2422425
50
179.5029707
51
194.9126783
0
ARC
8
DEFAULT_255_1_234
10
23.7915146
20
21.359711
40
0.1817188
50
194.9722181
51
224.1943972
0
ARC
8
DEFAULT_255_1_234
10
23.7887013
20
21.3574169
40
0.1781027
50
224.2961434
51
262.0157375
0
ARC
8
DEFAULT_255_1_234
10
23.8029256
20
21.4305661
40
0.2525492
50
261.1250369
51
270.1959853
0
ARC
8
DEFAULT_255_1_234
10
23.8059011
20
21.4118339
40
0.233825
50
269.4825617
51
285.0988277
0
ARC
8
DEFAULT_255_1_234
10
23.821317
20
21.353999
40
0.1739712
50
285.1585659
51
315.9484648
0
ARC
8
DEFAULT_255_1_234
10
23.8124182
20
21.3621886
40
0.1860616
50
316.0412958
51
351.9162715
0
ARC
8
DEFAULT_255_1_234
10
23.7391137
20
21.3763245
40
0.2606517
50
351.1056823
51
0.1936567
0
ARC
8
DEFAULT_255_1_234
10
23.7653966
20
21.3793369
40
0.234377
50
359.4789506
51
16.0679113
0
ARC
8
DEFAULT_255_1_234
10
23.8129925
20
21.392181
40
0.1850875
50
16.3251951
51
44.791304
0
ARC
8
DEFAULT_255_1_234
10
23.8112206
20
21.3922339
40
0.186312
50
44.3958661
51
88.2498933
0
ARC
8
DEFAULT_255_1_234
10
23.803876
20
21.3311154
40
0.2476868
50
86.9833827
51
90.0200148
0
LINE
8
DEFAULT_255_1_234
10
22.0689879
20
29.6223211
11
22.0689879
21
28.4529
0
LINE
8
DEFAULT_255_1_234
10
22.0689879
20
28.4529
11
21.9139753
21
28.4529
0
LINE
8
DEFAULT_255_1_234
10
21.9139753
20
28.4529
11
21.3252489
21
29.354061
0
LINE
8
DEFAULT_255_1_234
10
21.3252489
20
29.354061
11
21.3252489
21
28.4529
0
LINE
8
DEFAULT_255_1_234
10
21.3252489
20
28.4529
11
21.1702364
21
28.4529
0
LINE
8
DEFAULT_255_1_234
10
21.1702364
20
28.4529
11
21.1702364
21
29.6223211
0
LINE
8
DEFAULT_255_1_234
10
21.1702364
20
29.6223211
11
21.3252489
21
29.6223211
0
LINE
8
DEFAULT_255_1_234
10
21.3252489
20
29.6223211
11
21.9155817
21
28.7171442
0
LINE
8
DEFAULT_255_1_234
10
21.9155817
20
28.7171442
11
21.9155817
21
29.6223211
0
LINE
8
DEFAULT_255_1_234
10
21.9155817
20
29.6223211
11
22.0689879
21
29.6223211
0
LINE
8
DEFAULT_255_1_234
10
23.2424249
20
29.0737534
11
23.2424249
21
28.9998614
0
LINE
8
DEFAULT_255_1_234
10
22.3019083
20
28.9894201
11
22.3019083
21
29.0737534
0
LINE
8
DEFAULT_255_1_234
10
23.0890187
20
28.9886169
11
23.0890187
21
29.0753597
0
LINE
8
DEFAULT_255_1_234
10
22.4553145
20
29.085801
11
22.4553145
21
28.9998614
0
ARC
8
DEFAULT_255_1_234
10
22.3782275
20
28.9959015
40
0.8642064
50
350.487711
51
0.2625388
0
ARC
8
DEFAULT_255_1_234
10
22.6075516
20
28.9564578
40
0.631518
50
336.0277639
51
350.5787438
0
ARC
8
DEFAULT_255_1_234
10
22.742034
20
28.8956892
40
0.4839466
50
319.8877444
51
336.1328423
0
ARC
8
DEFAULT_255_1_234
10
22.802298
20
28.847458
40
0.4067874
50
302.4806467
51
319.6143626
0
ARC
8
DEFAULT_255_1_234
10
22.7907991
20
28.8696202
40
0.4316636
50
275.8195682
51
302.1884709
0
ARC
8
DEFAULT_255_1_234
10
22.7741624
20
28.9838665
40
0.5470306
50
269.9171439
51
276.3397983
0
ARC
8
DEFAULT_255_1_234
10
22.7696834
20
28.9152681
40
0.4784458
50
252.5219675
51
270.4416499
0
ARC
8
DEFAULT_255_1_234
10
22.7553093
20
28.8613592
40
0.422716
50
237.5352116
51
252.1857531
0
ARC
8
DEFAULT_255_1_234
10
22.7642289
20
28.8727363
40
0.4371052
50
209.063312
51
237.3492538
0
ARC
8
DEFAULT_255_1_234
10
22.8512137
20
28.9273685
40
0.5397041
50
205.1183774
51
209.6470015
0
ARC
8
DEFAULT_255_1_234
10
22.9309174
20
28.961183
40
0.6262326
50
188.7215458
51
204.8240747
0
ARC
8
DEFAULT_255_1_234
10
23.1306702
20
28.9948067
40
0.8287794
50
180.3723947
51
188.9252049
0
ARC
8
DEFAULT_255_1_234
10
23.1279453
20
29.0777402
40
0.8260467
50
169.5253763
51
180.2765336
0
ARC
8
DEFAULT_255_1_234
10
22.9376902
20
29.1127309
40
0.6326007
50
155.8315255
51
169.5089989
0
ARC
8
DEFAULT_255_1_234
10
22.8096404
20
29.1721348
40
0.4914567
50
139.6258461
51
156.0379525
0
ARC
8
DEFAULT_255_1_234
10
22.7506737
20
29.2195799
40
0.4158054
50
122.6416387
51
139.3430715
0
ARC
8
DEFAULT_255_1_234
10
22.7607357
20
29.2012451
40
0.4366739
50
93.0223692
51
122.455762
0
ARC
8
DEFAULT_255_1_234
10
22.7715353
20
29.1047709
40
0.5336137
50
89.975342
51
93.6341897
0
ARC
8
DEFAULT_255_1_234
10
22.7754133
20
29.1446242
40
0.4937738
50
73.746375
51
90.4233405
0
ARC
8
DEFAULT_255_1_234
10
22.7929711
20
29.2126287
40
0.4235786
50
57.662753
51
73.4518111
0
ARC
8
DEFAULT_255_1_234
10
22.7921718
20
29.2147832
40
0.4221899
50
29.1440151
51
57.414694
0
ARC
8
DEFAULT_255_1_234
10
22.6986912
20
29.1564005
40
0.5322966
50
24.0982783
51
29.7323517
0
ARC
8
DEFAULT_255_1_234
10
22.5953188
20
29.1135399
40
0.6441673
50
8.6655297
51
23.8241346
0
ARC
8
DEFAULT_255_1_234
10
22.3718926
20
29.0770854
40
0.8705386
50
359.7806941
51
8.8218784
0
ARC
8
DEFAULT_255_1_234
10
22.2571924
20
29.0796345
40
0.8318373
50
359.7055579
51
8.036044
0
ARC
8
DEFAULT_255_1_234
10
22.557193
20
29.1233239
40
0.5286768
50
7.8928306
51
20.2962107
0
ARC
8
DEFAULT_255_1_234
10
22.71995
20
29.1833395
40
0.3552073
50
20.3231126
51
36.4992797
0
ARC
8
DEFAULT_255_1_234
10
22.7885046
20
29.2361402
40
0.2686974
50
36.1437156
51
85.6627023
0
ARC
8
DEFAULT_255_1_234
10
22.7722592
20
29.1321221
40
0.373739
50
84.3852322
51
90.0757696
0
ARC
8
DEFAULT_255_1_234
10
22.7680265
20
29.1981839
40
0.3076997
50
89.3038458
51
109.9045693
0
ARC
8
DEFAULT_255_1_234
10
22.7587656
20
29.2364062
40
0.2686424
50
110.8228367
51
143.9179474
0
ARC
8
DEFAULT_255_1_234
10
22.8521316
20
29.1651236
40
0.3860887
50
143.5289163
51
163.2980757
0
ARC
8
DEFAULT_255_1_234
10
23.0429137
20
29.1051433
40
0.5860659
50
163.0418846
51
174.3140048
0
ARC
8
DEFAULT_255_1_234
10
23.2833249
20
29.0773854
40
0.8280531
50
174.0509143
51
179.4176892
0
ARC
8
DEFAULT_255_1_234
10
23.2328988
20
28.9956954
40
0.7775954
50
179.6930361
51
188.7906598
0
ARC
8
DEFAULT_255_1_234
10
22.9665467
20
28.9530935
40
0.5078633
50
188.6331305
51
202.5629587
0
ARC
8
DEFAULT_255_1_234
10
22.8411058
20
28.9026996
40
0.3726913
50
202.8081362
51
216.1193925
0
ARC
8
DEFAULT_255_1_234
10
22.7601629
20
28.8375676
40
0.2689577
50
215.0755913
51
264.6379694
0
ARC
8
DEFAULT_255_1_234
10
22.7728578
20
28.9206513
40
0.3528978
50
263.846392
51
270.0833719
0
ARC
8
DEFAULT_255_1_234
10
22.7769969
20
28.8948374
40
0.3271036
50
269.3649385
51
287.5152008
0
ARC
8
DEFAULT_255_1_234
10
22.7948126
20
28.8301238
40
0.2600406
50
288.0630309
51
323.8113348
0
ARC
8
DEFAULT_255_1_234
10
22.7076968
20
28.8951049
40
0.3687189
50
323.6547608
51
342.6590488
0
ARC
8
DEFAULT_255_1_234
10
22.5045583
20
28.9611952
40
0.5823286
50
342.4091907
51
353.6451149
0
ARC
8
DEFAULT_255_1_234
10
22.2214094
20
28.996419
40
0.8676442
50
353.4029884
51
359.4847795
0
LINE
8
DEFAULT_255_1_234
10
24.19017
20
29.6223211
11
24.19017
21
29.538791
0
LINE
8
DEFAULT_255_1_234
10
24.19017
20
29.538791
11
23.7058562
21
28.4529
0
LINE
8
DEFAULT_255_1_234
10
23.7058562
20
28.4529
11
23.5500404
21
28.4529
0
LINE
8
DEFAULT_255_1_234
10
23.5500404
20
28.4529
11
24.0327479
21
29.5002387
0
LINE
8
DEFAULT_255_1_234
10
24.0327479
20
29.5002387
11
23.3998469
21
29.5002387
0
LINE
8
DEFAULT_255_1_234
10
23.3998469
20
29.5002387
11
23.3998469
21
29.6223211
0
LINE
8
DEFAULT_255_1_234
10
23.3998469
20
29.6223211
11
24.19017
21
29.6223211
0
LINE
8
DEFAULT_255_1_234
10
23.186823
20
36.7614663
11
23.3418355
21
36.7614663
0
LINE
8
DEFAULT_255_1_234
10
22.4414777
20
36.9204947
11
22.4414777
21
37.0329391
0
LINE
8
DEFAULT_255_1_234
10
23.3418355
20
37.1839357
11
23.186823
21
37.1839357
0
LINE
8
DEFAULT_255_1_234
10
22.5964902
20
37.0289232
11
22.5964902
21
36.9156757
0
ARC
8
DEFAULT_255_1_234
10
22.7937742
20
36.8211846
40
0.5513052
50
340.1774281
51
353.7814284
0
ARC
8
DEFAULT_255_1_234
10
22.9509095
20
36.7626582
40
0.3836379
50
311.4558989
51
340.4421614
0
ARC
8
DEFAULT_255_1_234
10
22.9475763
20
36.7737528
40
0.3941894
50
282.4333181
51
310.7513653
0
ARC
8
DEFAULT_255_1_234
10
22.9036502
20
36.9552679
40
0.5809175
50
269.9358511
51
282.809604
0
ARC
8
DEFAULT_255_1_234
10
22.8984568
20
37.1010212
40
0.7266847
50
270.0021091
51
270.3581957
0
ARC
8
DEFAULT_255_1_234
10
22.8931985
20
36.8409585
40
0.4666519
50
250.7884749
51
270.6489167
0
ARC
8
DEFAULT_255_1_234
10
22.876382
20
36.7772319
40
0.4009729
50
219.3627325
51
250.0611886
0
ARC
8
DEFAULT_255_1_234
10
22.9593031
20
36.8477042
40
0.5097822
50
193.5479632
51
219.5756669
0
ARC
8
DEFAULT_255_1_234
10
23.1964652
20
36.9092919
40
0.7547848
50
181.1218675
51
193.87563
0
ARC
8
DEFAULT_255_1_234
10
23.4034833
20
36.920358
40
0.9620055
50
179.9918545
51
181.5394234
0
ARC
8
DEFAULT_255_1_234
10
23.2183935
20
37.0366788
40
0.7769248
50
169.5837241
51
180.2757934
0
ARC
8
DEFAULT_255_1_234
10
23.0346873
20
37.0706229
40
0.590109
50
155.0365899
51
169.6003176
0
ARC
8
DEFAULT_255_1_234
10
22.9211337
20
37.1253677
40
0.4640625
50
136.783148
51
155.2472683
0
ARC
8
DEFAULT_255_1_234
10
22.8821814
20
37.1584562
40
0.4130255
50
121.7633186
51
136.428115
0
ARC
8
DEFAULT_255_1_234
10
22.8956776
20
37.1335227
40
0.4413323
50
95.6459699
51
121.5490577
0
ARC
8
DEFAULT_255_1_234
10
22.9114058
20
37.0226949
40
0.55319
50
89.924208
51
96.1377933
0
ARC
8
DEFAULT_255_1_234
10
22.9164491
20
37.0345542
40
0.5413475
50
76.6779277
51
90.4563316
0
ARC
8
DEFAULT_255_1_234
10
22.9558114
20
37.1936114
40
0.3775041
50
47.485847
51
76.9287264
0
ARC
8
DEFAULT_255_1_234
10
22.9411087
20
37.1836159
40
0.3948286
50
16.5424086
51
46.8933463
0
ARC
8
DEFAULT_255_1_234
10
22.7803244
20
37.1307861
40
0.564021
50
5.4072051
51
17.0365086
0
ARC
8
DEFAULT_255_1_234
10
22.6364261
20
37.1076679
40
0.5556559
50
7.8891745
51
15.9239216
0
ARC
8
DEFAULT_255_1_234
10
22.8351274
20
37.1653631
40
0.3487515
50
15.7653144
51
27.9410532
0
ARC
8
DEFAULT_255_1_234
10
22.9455492
20
37.224479
40
0.2235026
50
27.8166557
51
46.4008329
0
ARC
8
DEFAULT_255_1_234
10
22.9505135
20
37.2239082
40
0.2205286
50
47.4371857
51
75.0698205
0
ARC
8
DEFAULT_255_1_234
10
22.9196529
20
37.1164765
40
0.3322915
50
74.7008593
51
87.8124495
0
ARC
8
DEFAULT_255_1_234
10
22.9123217
20
37.0108844
40
0.4380987
50
87.3814673
51
90.0240855
0
ARC
8
DEFAULT_255_1_234
10
22.908476
20
37.1286291
40
0.3203749
50
89.3451631
51
108.5745436
0
ARC
8
DEFAULT_255_1_234
10
22.8947865
20
37.1799908
40
0.2673494
50
109.2998449
51
143.3037509
0
ARC
8
DEFAULT_255_1_234
10
22.9709938
20
37.1213881
40
0.3634757
50
143.0753173
51
163.1916937
0
ARC
8
DEFAULT_255_1_234
10
23.1661666
20
37.0597967
40
0.5681262
50
162.9373603
51
174.6208611
0
ARC
8
DEFAULT_255_1_234
10
23.4287708
20
37.031001
40
0.8322832
50
174.3419979
51
180.1430411
0
ARC
8
DEFAULT_255_1_234
10
23.3356864
20
36.9115698
40
0.7392076
50
179.6817502
51
189.150529
0
ARC
8
DEFAULT_255_1_234
10
23.0856112
20
36.869919
40
0.4856932
50
188.9910863
51
203.5773039
0
ARC
8
DEFAULT_255_1_234
10
22.9776445
20
36.8251211
40
0.3688271
50
203.9077269
51
215.1312379
0
ARC
8
DEFAULT_255_1_234
10
22.8853539
20
36.7535941
40
0.2522457
50
213.9071664
51
263.8849284
0
ARC
8
DEFAULT_255_1_234
10
22.8978868
20
36.8320518
40
0.3316174
50
263.1758525
51
270.1031083
0
ARC
8
DEFAULT_255_1_234
10
22.901096
20
36.9567365
40
0.4563091
50
269.6719807
51
279.0609165
0
ARC
8
DEFAULT_255_1_234
10
22.9277728
20
36.7954907
40
0.2928759
50
278.8750225
51
293.6346586
0
ARC
8
DEFAULT_255_1_234
10
22.9597936
20
36.72029
40
0.2111472
50
293.8553404
51
310.0518804
0
ARC
8
DEFAULT_255_1_234
10
22.960279
20
36.7140516
40
0.2060917
50
311.0646779
51
332.0108348
0
ARC
8
DEFAULT_255_1_234
10
22.8410517
20
36.7797978
40
0.3422352
50
331.6588543
51
343.2878891
0
ARC
8
DEFAULT_255_1_234
10
22.6348032
20
36.8431798
40
0.5580003
50
343.1446044
51
351.010618
0
ARC
8
DEFAULT_255_1_234
10
22.4806678
20
36.8712871
40
0.7146438
50
350.7157277
51
351.1602153
0
LINE
8
DEFAULT_255_1_234
10
24.2686981
20
37.5598211
11
24.2686981
21
37.476291
0
LINE
8
DEFAULT_255_1_234
10
24.2686981
20
37.476291
11
23.7843843
21
36.3904
0
LINE
8
DEFAULT_255_1_234
10
23.7843843
20
36.3904
11
23.6285686
21
36.3904
0
LINE
8
DEFAULT_255_1_234
10
23.6285686
20
36.3904
11
24.1112761
21
37.4377387
0
LINE
8
DEFAULT_255_1_234
10
24.1112761
20
37.4377387
11
23.4783751
21
37.4377387
0
LINE
8
DEFAULT_255_1_234
10
23.4783751
20
37.4377387
11
23.4783751
21
37.5598211
0
LINE
8
DEFAULT_255_1_234
10
23.4783751
20
37.5598211
11
24.2686981
21
37.5598211
0
LINE
8
DEFAULT_255_1_234
10
22.1331879
20
45.4973211
11
22.1331879
21
44.3279
0
LINE
8
DEFAULT_255_1_234
10
22.1331879
20
44.3279
11
21.9781753
21
44.3279
0
LINE
8
DEFAULT_255_1_234
10
21.9781753
20
44.3279
11
21.3894489
21
45.229061
0
LINE
8
DEFAULT_255_1_234
10
21.3894489
20
45.229061
11
21.3894489
21
44.3279
0
LINE
8
DEFAULT_255_1_234
10
21.3894489
20
44.3279
11
21.2344364
21
44.3279
0
LINE
8
DEFAULT_255_1_234
10
21.2344364
20
44.3279
11
21.2344364
21
45.4973211
0
LINE
8
DEFAULT_255_1_234
10
21.2344364
20
45.4973211
11
21.3894489
21
45.4973211
0
LINE
8
DEFAULT_255_1_234
10
21.3894489
20
45.4973211
11
21.9797817
21
44.5921442
0
LINE
8
DEFAULT_255_1_234
10
21.9797817
20
44.5921442
11
21.9797817
21
45.4973211
0
LINE
8
DEFAULT_255_1_234
10
21.9797817
20
45.4973211
11
22.1331879
21
45.4973211
0
LINE
8
DEFAULT_255_1_234
10
23.1122568
20
44.6989663
11
23.2672693
21
44.6989663
0
LINE
8
DEFAULT_255_1_234
10
22.3669115
20
44.8579947
11
22.3669115
21
44.9704391
0
LINE
8
DEFAULT_255_1_234
10
23.2672693
20
45.1214357
11
23.1122568
21
45.1214357
0
LINE
8
DEFAULT_255_1_234
10
22.521924
20
44.9664232
11
22.521924
21
44.8531757
0
ARC
8
DEFAULT_255_1_234
10
22.719208
20
44.7586846
40
0.5513052
50
340.1774281
51
353.7814284
0
ARC
8
DEFAULT_255_1_234
10
22.8763432
20
44.7001582
40
0.3836379
50
311.4558989
51
340.4421614
0
ARC
8
DEFAULT_255_1_234
10
22.8730101
20
44.7112528
40
0.3941894
50
282.4333181
51
310.7513653
0
ARC
8
DEFAULT_255_1_234
10
22.829084
20
44.8927679
40
0.5809175
50
269.9358511
51
282.809604
0
ARC
8
DEFAULT_255_1_234
10
22.8238906
20
45.0385212
40
0.7266847
50
270.0021091
51
270.3581957
0
ARC
8
DEFAULT_255_1_234
10
22.8186323
20
44.7784585
40
0.4666519
50
250.7884749
51
270.6489167
0
ARC
8
DEFAULT_255_1_234
10
22.8018158
20
44.7147319
40
0.4009729
50
219.3627325
51
250.0611886
0
ARC
8
DEFAULT_255_1_234
10
22.8847369
20
44.7852042
40
0.5097822
50
193.5479632
51
219.5756669
0
ARC
8
DEFAULT_255_1_234
10
23.1218989
20
44.8467919
40
0.7547848
50
181.1218675
51
193.87563
0
ARC
8
DEFAULT_255_1_234
10
23.3289171
20
44.857858
40
0.9620055
50
179.9918545
51
181.5394234
0
ARC
8
DEFAULT_255_1_234
10
23.1438273
20
44.9741788
40
0.7769248
50
169.5837241
51
180.2757934
0
ARC
8
DEFAULT_255_1_234
10
22.9601211
20
45.0081229
40
0.590109
50
155.0365899
51
169.6003176
0
ARC
8
DEFAULT_255_1_234
10
22.8465675
20
45.0628677
40
0.4640625
50
136.783148
51
155.2472683
0
ARC
8
DEFAULT_255_1_234
10
22.8076152
20
45.0959562
40
0.4130255
50
121.7633186
51
136.428115
0
ARC
8
DEFAULT_255_1_234
10
22.8211114
20
45.0710227
40
0.4413323
50
95.6459699
51
121.5490577
0
ARC
8
DEFAULT_255_1_234
10
22.8368396
20
44.9601949
40
0.55319
50
89.924208
51
96.1377933
0
ARC
8
DEFAULT_255_1_234
10
22.8418828
20
44.9720542
40
0.5413475
50
76.6779277
51
90.4563316
0
ARC
8
DEFAULT_255_1_234
10
22.8812452
20
45.1311114
40
0.3775041
50
47.485847
51
76.9287264
0
ARC
8
DEFAULT_255_1_234
10
22.8665425
20
45.1211159
40
0.3948286
50
16.5424086
51
46.8933463
0
ARC
8
DEFAULT_255_1_234
10
22.7057582
20
45.0682861
40
0.564021
50
5.4072051
51
17.0365086
0
ARC
8
DEFAULT_255_1_234
10
22.5618599
20
45.0451679
40
0.5556559
50
7.8891745
51
15.9239216
0
ARC
8
DEFAULT_255_1_234
10
22.7605612
20
45.1028631
40
0.3487515
50
15.7653144
51
27.9410532
0
ARC
8
DEFAULT_255_1_234
10
22.870983
20
45.161979
40
0.2235026
50
27.8166557
51
46.4008329
0
ARC
8
DEFAULT_255_1_234
10
22.8759473
20
45.1614082
40
0.2205286
50
47.4371857
51
75.0698205
0
ARC
8
DEFAULT_255_1_234
10
22.8450867
20
45.0539765
40
0.3322915
50
74.7008593
51
87.8124495
0
ARC
8
DEFAULT_255_1_234
10
22.8377555
20
44.9483844
40
0.4380987
50
87.3814673
51
90.0240855
0
ARC
8
DEFAULT_255_1_234
10
22.8339098
20
45.0661291
40
0.3203749
50
89.3451631
51
108.5745436
0
ARC
8
DEFAULT_255_1_234
10
22.8202203
20
45.1174908
40
0.2673494
50
109.2998449
51
143.3037509
0
ARC
8
DEFAULT_255_1_234
10
22.8964276
20
45.0588881
40
0.3634757
50
143.0753173
51
163.1916937
0
ARC
8
DEFAULT_255_1_234
10
23.0916003
20
44.9972967
40
0.5681262
50
162.9373603
51
174.6208611
0
ARC
8
DEFAULT_255_1_234
10
23.3542046
20
44.968501
40
0.8322832
50
174.3419979
51
180.1430411
0
ARC
8
DEFAULT_255_1_234
10
23.2611202
20
44.8490698
40
0.7392076
50
179.6817502
51
189.150529
0
ARC
8
DEFAULT_255_1_234
10
23.011045
20
44.807419
40
0.4856932
50
188.9910863
51
203.5773039
0
ARC
8
DEFAULT_255_1_234
10
22.9030783
20
44.7626211
40
0.3688271
50
203.9077269
51
215.1312379
0
ARC
8
DEFAULT_255_1_234
10
22.8107877
20
44.6910941
40
0.2522457
50
213.9071664
51
263.8849284
0
ARC
8
DEFAULT_255_1_234
10
22.8233206
20
44.7695518
40
0.3316174
50
263.1758525
51
270.1031083
0
ARC
8
DEFAULT_255_1_234
10
22.8265297
20
44.8942365
40
0.4563091
50
269.6719807
51
279.0609165
0
ARC
8
DEFAULT_255_1_234
10
22.8532066
20
44.7329907
40
0.2928759
50
278.8750225
51
293.6346586
0
ARC
8
DEFAULT_255_1_234
10
22.8852274
20
44.65779
40
0.2111472
50
293.8553404
51
310.0518804
0
ARC
8
DEFAULT_255_1_234
10
22.8857128
20
44.6515516
40
0.2060917
50
311.0646779
51
332.0108348
0
ARC
8
DEFAULT_255_1_234
10
22.7664854
20
44.7172978
40
0.3422352
50
331.6588543
51
343.2878891
0
ARC
8
DEFAULT_255_1_234
10
22.5602369
20
44.7806798
40
0.5580003
50
343.1446044
51
351.010618
0
ARC
8
DEFAULT_255_1_234
10
22.4061016
20
44.8087871
40
0.7146438
50
350.7157277
51
351.1602153
0
LINE
8
DEFAULT_255_1_234
10
24.1941319
20
45.4973211
11
24.1941319
21
45.413791
0
LINE
8
DEFAULT_255_1_234
10
24.1941319
20
45.413791
11
23.7098181
21
44.3279
0
LINE
8
DEFAULT_255_1_234
10
23.7098181
20
44.3279
11
23.5540024
21
44.3279
0
LINE
8
DEFAULT_255_1_234
10
23.5540024
20
44.3279
11
24.0367099
21
45.3752387
0
LINE
8
DEFAULT_255_1_234
10
24.0367099
20
45.3752387
11
23.4038089
21
45.3752387
0
LINE
8
DEFAULT_255_1_234
10
23.4038089
20
45.3752387
11
23.4038089
21
45.4973211
0
LINE
8
DEFAULT_255_1_234
10
23.4038089
20
45.4973211
11
24.1941319
21
45.4973211
0
LINE
8
DEFAULT_255_1_234
10
22.0689879
20
53.4348211
11
22.0689879
21
52.2654
0
LINE
8
DEFAULT_255_1_234
10
22.0689879
20
52.2654
11
21.9139753
21
52.2654
0
LINE
8
DEFAULT_255_1_234
10
21.9139753
20
52.2654
11
21.3252489
21
53.166561
0
LINE
8
DEFAULT_255_1_234
10
21.3252489
20
53.166561
11
21.3252489
21
52.2654
0
LINE
8
DEFAULT_255_1_234
10
21.3252489
20
52.2654
11
21.1702364
21
52.2654
0
LINE
8
DEFAULT_255_1_234
10
21.1702364
20
52.2654
11
21.1702364
21
53.4348211
0
LINE
8
DEFAULT_255_1_234
10
21.1702364
20
53.4348211
11
21.3252489
21
53.4348211
0
LINE
8
DEFAULT_255_1_234
10
21.3252489
20
53.4348211
11
21.9155817
21
52.5296442
0
LINE
8
DEFAULT_255_1_234
10
21.9155817
20
52.5296442
11
21.9155817
21
53.4348211
0
LINE
8
DEFAULT_255_1_234
10
21.9155817
20
53.4348211
11
22.0689879
21
53.4348211
0
LINE
8
DEFAULT_255_1_234
10
23.2424249
20
52.8862534
11
23.2424249
21
52.8123614
0
LINE
8
DEFAULT_255_1_234
10
22.3019083
20
52.8019201
11
22.3019083
21
52.8862534
0
LINE
8
DEFAULT_255_1_234
10
23.0890187
20
52.8011169
11
23.0890187
21
52.8878597
0
LINE
8
DEFAULT_255_1_234
10
22.4553145
20
52.898301
11
22.4553145
21
52.8123614
0
ARC
8
DEFAULT_255_1_234
10
22.3782275
20
52.8084015
40
0.8642064
50
350.487711
51
0.2625388
0
ARC
8
DEFAULT_255_1_234
10
22.6075516
20
52.7689578
40
0.631518
50
336.0277639
51
350.5787438
0
ARC
8
DEFAULT_255_1_234
10
22.742034
20
52.7081892
40
0.4839466
50
319.8877444
51
336.1328423
0
ARC
8
DEFAULT_255_1_234
10
22.802298
20
52.659958
40
0.4067874
50
302.4806467
51
319.6143626
0
ARC
8
DEFAULT_255_1_234
10
22.7907991
20
52.6821202
40
0.4316636
50
275.8195682
51
302.1884709
0
ARC
8
DEFAULT_255_1_234
10
22.7741624
20
52.7963665
40
0.5470306
50
269.9171439
51
276.3397983
0
ARC
8
DEFAULT_255_1_234
10
22.7696834
20
52.7277681
40
0.4784458
50
252.5219675
51
270.4416499
0
ARC
8
DEFAULT_255_1_234
10
22.7553093
20
52.6738592
40
0.422716
50
237.5352116
51
252.1857531
0
ARC
8
DEFAULT_255_1_234
10
22.7642289
20
52.6852363
40
0.4371052
50
209.063312
51
237.3492538
0
ARC
8
DEFAULT_255_1_234
10
22.8512137
20
52.7398685
40
0.5397041
50
205.1183774
51
209.6470015
0
ARC
8
DEFAULT_255_1_234
10
22.9309174
20
52.773683
40
0.6262326
50
188.7215458
51
204.8240747
0
ARC
8
DEFAULT_255_1_234
10
23.1306702
20
52.8073067
40
0.8287794
50
180.3723947
51
188.9252049
0
ARC
8
DEFAULT_255_1_234
10
23.1279453
20
52.8902402
40
0.8260467
50
169.5253763
51
180.2765336
0
ARC
8
DEFAULT_255_1_234
10
22.9376902
20
52.9252309
40
0.6326007
50
155.8315255
51
169.5089989
0
ARC
8
DEFAULT_255_1_234
10
22.8096404
20
52.9846348
40
0.4914567
50
139.6258461
51
156.0379525
0
ARC
8
DEFAULT_255_1_234
10
22.7506737
20
53.0320799
40
0.4158054
50
122.6416387
51
139.3430715
0
ARC
8
DEFAULT_255_1_234
10
22.7607357
20
53.0137451
40
0.4366739
50
93.0223692
51
122.455762
0
ARC
8
DEFAULT_255_1_234
10
22.7715353
20
52.9172709
40
0.5336137
50
89.975342
51
93.6341897
0
ARC
8
DEFAULT_255_1_234
10
22.7754133
20
52.9571242
40
0.4937738
50
73.746375
51
90.4233405
0
ARC
8
DEFAULT_255_1_234
10
22.7929711
20
53.0251287
40
0.4235786
50
57.662753
51
73.4518111
0
ARC
8
DEFAULT_255_1_234
10
22.7921718
20
53.0272832
40
0.4221899
50
29.1440151
51
57.414694
0
ARC
8
DEFAULT_255_1_234
10
22.6986912
20
52.9689005
40
0.5322966
50
24.0982783
51
29.7323517
0
ARC
8
DEFAULT_255_1_234
10
22.5953188
20
52.9260399
40
0.6441673
50
8.6655297
51
23.8241346
0
ARC
8
DEFAULT_255_1_234
10
22.3718926
20
52.8895854
40
0.8705386
50
359.7806941
51
8.8218784
0
ARC
8
DEFAULT_255_1_234
10
22.2571924
20
52.8921345
40
0.8318373
50
359.7055579
51
8.036044
0
ARC
8
DEFAULT_255_1_234
10
22.557193
20
52.9358239
40
0.5286768
50
7.8928306
51
20.2962107
0
ARC
8
DEFAULT_255_1_234
10
22.71995
20
52.9958395
40
0.3552073
50
20.3231126
51
36.4992797
0
ARC
8
DEFAULT_255_1_234
10
22.7885046
20
53.0486402
40
0.2686974
50
36.1437156
51
85.6627023
0
ARC
8
DEFAULT_255_1_234
10
22.7722592
20
52.9446221
40
0.373739
50
84.3852322
51
90.0757696
0
ARC
8
DEFAULT_255_1_234
10
22.7680265
20
53.0106839
40
0.3076997
50
89.3038458
51
109.9045693
0
ARC
8
DEFAULT_255_1_234
10
22.7587656
20
53.0489062
40
0.2686424
50
110.8228367
51
143.9179474
0
ARC
8
DEFAULT_255_1_234
10
22.8521316
20
52.9776236
40
0.3860887
50
143.5289163
51
163.2980757
0
ARC
8
DEFAULT_255_1_234
10
23.0429137
20
52.9176433
40
0.5860659
50
163.0418846
51
174.3140048
0
ARC
8
DEFAULT_255_1_234
10
23.2833249
20
52.8898854
40
0.8280531
50
174.0509143
51
179.4176892
0
ARC
8
DEFAULT_255_1_234
10
23.2328988
20
52.8081954
40
0.7775954
50
179.6930361
51
188.7906598
0
ARC
8
DEFAULT_255_1_234
10
22.9665467
20
52.7655935
40
0.5078633
50
188.6331305
51
202.5629587
0
ARC
8
DEFAULT_255_1_234
10
22.8411058
20
52.7151996
40
0.3726913
50
202.8081362
51
216.1193925
0
ARC
8
DEFAULT_255_1_234
10
22.7601629
20
52.6500676
40
0.2689577
50
215.0755913
51
264.6379694
0
ARC
8
DEFAULT_255_1_234
10
22.7728578
20
52.7331513
40
0.3528978
50
263.846392
51
270.0833719
0
ARC
8
DEFAULT_255_1_234
10
22.7769969
20
52.7073374
40
0.3271036
50
269.3649385
51
287.5152008
0
ARC
8
DEFAULT_255_1_234
10
22.7948126
20
52.6426238
40
0.2600406
50
288.0630309
51
323.8113348
0
ARC
8
DEFAULT_255_1_234
10
22.7076968
20
52.7076049
40
0.3687189
50
323.6547608
51
342.6590488
0
ARC
8
DEFAULT_255_1_234
10
22.5045583
20
52.7736952
40
0.5823286
50
342.4091907
51
353.6451149
0
ARC
8
DEFAULT_255_1_234
10
22.2214094
20
52.808919
40
0.8676442
50
353.4029884
51
359.4847795
0
LINE
8
DEFAULT_255_1_234
10
23.991786
20
53.4356243
11
24.0182908
21
53.4356243
0
LINE
8
DEFAULT_255_1_234
10
24.0182908
20
53.4356243
11
24.0182908
21
53.309526
0
LINE
8
DEFAULT_255_1_234
10
24.0182908
20
53.309526
11
23.9909829
21
53.309526
0
LINE
8
DEFAULT_255_1_234
10
23.4440215
20
52.7103583
11
23.4440215
21
52.7673836
0
LINE
8
DEFAULT_255_1_234
10
23.5934118
20
52.7481075
11
23.5934118
21
52.6934917
0
ARC
8
DEFAULT_255_1_234
10
23.9962176
20
52.8097455
40
0.4998079
50
90.6001036
51
104.514704
0
ARC
8
DEFAULT_255_1_234
10
23.9573692
20
52.9542131
40
0.3502176
50
104.2855254
51
133.862935
0
ARC
8
DEFAULT_255_1_234
10
23.9737449
20
52.943383
40
0.3693984
50
134.5302688
51
161.6210873
0
ARC
8
DEFAULT_255_1_234
10
24.1390638
20
52.8850895
40
0.5446739
50
161.2849839
51
174.2076652
0
ARC
8
DEFAULT_255_1_234
10
24.2797575
20
52.8656787
40
0.6866274
50
173.7810589
51
174.9254635
0
ARC
8
DEFAULT_255_1_234
10
23.8247407
20
52.7273839
40
0.3033419
50
95.8330959
51
138.9954921
0
ARC
8
DEFAULT_255_1_234
10
23.8470763
20
52.5995375
40
0.4328947
50
89.8753725
51
97.0544009
0
ARC
8
DEFAULT_255_1_234
10
23.8518229
20
52.6830748
40
0.3493769
50
71.6407809
51
90.6240094
0
ARC
8
DEFAULT_255_1_234
10
23.8668803
20
52.7385082
40
0.2920396
50
39.6367836
51
71.019018
0
ARC
8
DEFAULT_255_1_234
10
23.8032276
20
52.6834998
40
0.3761538
50
10.658731
51
39.9043955
0
ARC
8
DEFAULT_255_1_234
10
23.6484359
20
52.6498686
40
0.5345136
50
359.682601
51
11.132623
0
ARC
8
DEFAULT_255_1_234
10
23.6444489
20
52.642801
40
0.5385081
50
347.2486944
51
0.4369317
0
ARC
8
DEFAULT_255_1_234
10
23.8111966
20
52.6026807
40
0.3670249
50
318.1409698
51
347.6118597
0
ARC
8
DEFAULT_255_1_234
10
23.8436959
20
52.5759702
40
0.3250007
50
275.6342139
51
317.8248465
0
ARC
8
DEFAULT_255_1_234
10
23.8216071
20
52.7059219
40
0.4565864
50
269.8874292
51
276.7917694
0
ARC
8
DEFAULT_255_1_234
10
23.8161141
20
52.6033743
40
0.3540676
50
246.9140195
51
270.7437342
0
ARC
8
DEFAULT_255_1_234
10
23.8167532
20
52.5891384
40
0.3412781
50
218.1665114
51
245.878116
0
ARC
8
DEFAULT_255_1_234
10
23.9046992
20
52.6627279
40
0.455911
50
191.4115814
51
218.6077802
0
ARC
8
DEFAULT_255_1_234
10
24.0985082
20
52.7061833
40
0.6545001
50
179.6345085
51
191.7836486
0
ARC
8
DEFAULT_255_1_234
10
24.6567418
20
52.7740697
40
1.2127388
50
171.4525249
51
180.3158839
0
ARC
8
DEFAULT_255_1_234
10
24.2172294
20
52.8424608
40
0.7679464
50
157.9802646
51
171.6246686
0
ARC
8
DEFAULT_255_1_234
10
23.9958315
20
52.9307421
40
0.5296008
50
141.4298019
51
157.854097
0
ARC
8
DEFAULT_255_1_234
10
23.9316636
20
52.9761381
40
0.4511509
50
102.8715806
51
140.8564722
0
ARC
8
DEFAULT_255_1_234
10
23.9964251
20
52.7321552
40
0.7034845
50
90.3778349
51
103.5869322
0
ARC
8
DEFAULT_255_1_234
10
23.8226027
20
52.671673
40
0.2370698
50
89.8751008
51
126.2071704
0
ARC
8
DEFAULT_255_1_234
10
23.8271817
20
52.6562303
40
0.2522934
50
124.9745049
51
144.895901
0
ARC
8
DEFAULT_255_1_234
10
23.8096008
20
52.670556
40
0.2296779
50
145.2974905
51
160.2660252
0
ARC
8
DEFAULT_255_1_234
10
24.1168547
20
52.6903071
40
0.5234525
50
179.6514266
51
190.2855912
0
ARC
8
DEFAULT_255_1_234
10
23.9474684
20
52.6583786
40
0.3510893
50
190.0945431
51
207.5098196
0
ARC
8
DEFAULT_255_1_234
10
23.8908954
20
52.6314623
40
0.288489
50
207.9583163
51
216.3251085
0
ARC
8
DEFAULT_255_1_234
10
23.8569061
20
52.6035105
40
0.2445587
50
215.7661442
51
232.5456785
0
ARC
8
DEFAULT_255_1_234
10
23.8186044
20
52.5548482
40
0.1826382
50
232.8005391
51
270.6605633
0
ARC
8
DEFAULT_255_1_234
10
23.8231745
20
52.5912612
40
0.2190529
50
269.35537
51
288.4744281
0
ARC
8
DEFAULT_255_1_234
10
23.8324642
20
52.5563118
40
0.1829749
50
289.1833337
51
322.9683818
0
ARC
8
DEFAULT_255_1_234
10
23.7713165
20
52.6045391
40
0.2608399
50
322.6007884
51
346.5182367
0
ARC
8
DEFAULT_255_1_234
10
23.6555761
20
52.6340616
40
0.3802777
50
346.2582162
51
358.7741648
0
ARC
8
DEFAULT_255_1_234
10
23.5537429
20
52.6395965
40
0.4822176
50
358.3755224
51
0.0098023
0
ARC
8
DEFAULT_255_1_234
10
23.6293617
20
52.6423657
40
0.4066078
50
359.6214041
51
11.2839074
0
ARC
8
DEFAULT_255_1_234
10
23.7570763
20
52.6690066
40
0.2761514
50
11.0482309
51
31.8146458
0
ARC
8
DEFAULT_255_1_234
10
23.7879806
20
52.6857584
40
0.2410679
50
32.3035391
51
38.082671
0
ARC
8
DEFAULT_255_1_234
10
23.8300466
20
52.7238662
40
0.1844966
50
36.825067
51
85.7415724
0
ARC
8
DEFAULT_255_1_234
10
23.82333
20
52.6738301
40
0.2349122
50
85.0140713
51
90.0513278
0
LINE
8
DEFAULT_255_1_234
10
23.186823
20
60.5739663
11
23.3418355
21
60.5739663
0
LINE
8
DEFAULT_255_1_234
10
22.4414777
20
60.7329947
11
22.4414777
21
60.8454391
0
LINE
8
DEFAULT_255_1_234
10
23.3418355
20
60.9964357
11
23.186823
21
60.9964357
0
LINE
8
DEFAULT_255_1_234
10
22.5964902
20
60.8414232
11
22.5964902
21
60.7281757
0
ARC
8
DEFAULT_255_1_234
10
22.7937742
20
60.6336846
40
0.5513052
50
340.1774281
51
353.7814284
0
ARC
8
DEFAULT_255_1_234
10
22.9509095
20
60.5751582
40
0.3836379
50
311.4558989
51
340.4421614
0
ARC
8
DEFAULT_255_1_234
10
22.9475763
20
60.5862528
40
0.3941894
50
282.4333181
51
310.7513653
0
ARC
8
DEFAULT_255_1_234
10
22.9036502
20
60.7677679
40
0.5809175
50
269.9358511
51
282.809604
0
ARC
8
DEFAULT_255_1_234
10
22.8984568
20
60.9135212
40
0.7266847
50
270.0021091
51
270.3581957
0
ARC
8
DEFAULT_255_1_234
10
22.8931985
20
60.6534585
40
0.4666519
50
250.7884749
51
270.6489167
0
ARC
8
DEFAULT_255_1_234
10
22.876382
20
60.5897319
40
0.4009729
50
219.3627325
51
250.0611886
0
ARC
8
DEFAULT_255_1_234
10
22.9593031
20
60.6602042
40
0.5097822
50
193.5479632
51
219.5756669
0
ARC
8
DEFAULT_255_1_234
10
23.1964652
20
60.7217919
40
0.7547848
50
181.1218675
51
193.87563
0
ARC
8
DEFAULT_255_1_234
10
23.4034833
20
60.732858
40
0.9620055
50
179.9918545
51
181.5394234
0
ARC
8
DEFAULT_255_1_234
10
23.2183935
20
60.8491788
40
0.7769248
50
169.5837241
51
180.2757934
0
ARC
8
DEFAULT_255_1_234
10
23.0346873
20
60.8831229
40
0.590109
50
155.0365899
51
169.6003176
0
ARC
8
DEFAULT_255_1_234
10
22.9211337
20
60.9378677
40
0.4640625
50
136.783148
51
155.2472683
0
ARC
8
DEFAULT_255_1_234
10
22.8821814
20
60.9709562
40
0.4130255
50
121.7633186
51
136.428115
0
ARC
8
DEFAULT_255_1_234
10
22.8956776
20
60.9460227
40
0.4413323
50
95.6459699
51
121.5490577
0
ARC
8
DEFAULT_255_1_234
10
22.9114058
20
60.8351949
40
0.55319
50
89.924208
51
96.1377933
0
ARC
8
DEFAULT_255_1_234
10
22.9164491
20
60.8470542
40
0.5413475
50
76.6779277
51
90.4563316
0
ARC
8
DEFAULT_255_1_234
10
22.9558114
20
61.0061114
40
0.3775041
50
47.485847
51
76.9287264
0
ARC
8
DEFAULT_255_1_234
10
22.9411087
20
60.9961159
40
0.3948286
50
16.5424086
51
46.8933463
0
ARC
8
DEFAULT_255_1_234
10
22.7803244
20
60.9432861
40
0.564021
50
5.4072051
51
17.0365086
0
ARC
8
DEFAULT_255_1_234
10
22.6364261
20
60.9201679
40
0.5556559
50
7.8891745
51
15.9239216
0
ARC
8
DEFAULT_255_1_234
10
22.8351274
20
60.9778631
40
0.3487515
50
15.7653144
51
27.9410532
0
ARC
8
DEFAULT_255_1_234
10
22.9455492
20
61.036979
40
0.2235026
50
27.8166557
51
46.4008329
0
ARC
8
DEFAULT_255_1_234
10
22.9505135
20
61.0364082
40
0.2205286
50
47.4371857
51
75.0698205
0
ARC
8
DEFAULT_255_1_234
10
22.9196529
20
60.9289765
40
0.3322915
50
74.7008593
51
87.8124495
0
ARC
8
DEFAULT_255_1_234
10
22.9123217
20
60.8233844
40
0.4380987
50
87.3814673
51
90.0240855
0
ARC
8
DEFAULT_255_1_234
10
22.908476
20
60.9411291
40
0.3203749
50
89.3451631
51
108.5745436
0
ARC
8
DEFAULT_255_1_234
10
22.8947865
20
60.9924908
40
0.2673494
50
109.2998449
51
143.3037509
0
ARC
8
DEFAULT_255_1_234
10
22.9709938
20
60.9338881
40
0.3634757
50
143.0753173
51
163.1916937
0
ARC
8
DEFAULT_255_1_234
10
23.1661666
20
60.8722967
40
0.5681262
50
162.9373603
51
174.6208611
0
ARC
8
DEFAULT_255_1_234
10
23.4287708
20
60.843501
40
0.8322832
50
174.3419979
51
180.1430411
0
ARC
8
DEFAULT_255_1_234
10
23.3356864
20
60.7240698
40
0.7392076
50
179.6817502
51
189.150529
0
ARC
8
DEFAULT_255_1_234
10
23.0856112
20
60.682419
40
0.4856932
50
188.9910863
51
203.5773039
0
ARC
8
DEFAULT_255_1_234
10
22.9776445
20
60.6376211
40
0.3688271
50
203.9077269
51
215.1312379
0
ARC
8
DEFAULT_255_1_234
10
22.8853539
20
60.5660941
40
0.2522457
50
213.9071664
51
263.8849284
0
ARC
8
DEFAULT_255_1_234
10
22.8978868
20
60.6445518
40
0.3316174
50
263.1758525
51
270.1031083
0
ARC
8
DEFAULT_255_1_234
10
22.901096
20
60.7692365
40
0.4563091
50
269.6719807
51
279.0609165
0
ARC
8
DEFAULT_255_1_234
10
22.9277728
20
60.6079907
40
0.2928759
50
278.8750225
51
293.6346586
0
ARC
8
DEFAULT_255_1_234
10
22.9597936
20
60.53279
40
0.2111472
50
293.8553404
51
310.0518804
0
ARC
8
DEFAULT_255_1_234
10
22.960279
20
60.5265516
40
0.2060917
50
311.0646779
51
332.0108348
0
ARC
8
DEFAULT_255_1_234
10
22.8410517
20
60.5922978
40
0.3422352
50
331.6588543
51
343.2878891
0
ARC
8
DEFAULT_255_1_234
10
22.6348032
20
60.6556798
40
0.5580003
50
343.1446044
51
351.010618
0
ARC
8
DEFAULT_255_1_234
10
22.4806678
20
60.6837871
40
0.7146438
50
350.7157277
51
351.1602153
0
LINE
8
DEFAULT_255_1_234
10
24.0703142
20
61.3731243
11
24.0968189
21
61.3731243
0
LINE
8
DEFAULT_255_1_234
10
24.0968189
20
61.3731243
11
24.0968189
21
61.247026
0
LINE
8
DEFAULT_255_1_234
10
24.0968189
20
61.247026
11
24.069511
21
61.247026
0
LINE
8
DEFAULT_255_1_234
10
23.5225497
20
60.6478583
11
23.5225497
21
60.7048836
0
LINE
8
DEFAULT_255_1_234
10
23.67194
20
60.6856075
11
23.67194
21
60.6309917
0
ARC
8
DEFAULT_255_1_234
10
24.0747458
20
60.7472455
40
0.4998079
50
90.6001036
51
104.514704
0
ARC
8
DEFAULT_255_1_234
10
24.0358974
20
60.8917131
40
0.3502176
50
104.2855254
51
133.862935
0
ARC
8
DEFAULT_255_1_234
10
24.0522731
20
60.880883
40
0.3693984
50
134.5302688
51
161.6210873
0
ARC
8
DEFAULT_255_1_234
10
24.217592
20
60.8225895
40
0.5446739
50
161.2849839
51
174.2076652
0
ARC
8
DEFAULT_255_1_234
10
24.3582857
20
60.8031787
40
0.6866274
50
173.7810589
51
174.9254635
0
ARC
8
DEFAULT_255_1_234
10
23.9032689
20
60.6648839
40
0.3033419
50
95.8330959
51
138.9954921
0
ARC
8
DEFAULT_255_1_234
10
23.9256045
20
60.5370375
40
0.4328947
50
89.8753725
51
97.0544009
0
ARC
8
DEFAULT_255_1_234
10
23.9303511
20
60.6205748
40
0.3493769
50
71.6407809
51
90.6240094
0
ARC
8
DEFAULT_255_1_234
10
23.9454084
20
60.6760082
40
0.2920396
50
39.6367836
51
71.019018
0
ARC
8
DEFAULT_255_1_234
10
23.8817557
20
60.6209998
40
0.3761538
50
10.658731
51
39.9043955
0
ARC
8
DEFAULT_255_1_234
10
23.726964
20
60.5873686
40
0.5345136
50
359.682601
51
11.132623
0
ARC
8
DEFAULT_255_1_234
10
23.7229771
20
60.580301
40
0.5385081
50
347.2486944
51
0.4369317
0
ARC
8
DEFAULT_255_1_234
10
23.8897248
20
60.5401807
40
0.3670249
50
318.1409698
51
347.6118597
0
ARC
8
DEFAULT_255_1_234
10
23.9222241
20
60.5134702
40
0.3250007
50
275.6342139
51
317.8248465
0
ARC
8
DEFAULT_255_1_234
10
23.9001353
20
60.6434219
40
0.4565864
50
269.8874292
51
276.7917694
0
ARC
8
DEFAULT_255_1_234
10
23.8946423
20
60.5408743
40
0.3540676
50
246.9140195
51
270.7437342
0
ARC
8
DEFAULT_255_1_234
10
23.8952813
20
60.5266384
40
0.3412781
50
218.1665114
51
245.878116
0
ARC
8
DEFAULT_255_1_234
10
23.9832274
20
60.6002279
40
0.455911
50
191.4115814
51
218.6077802
0
ARC
8
DEFAULT_255_1_234
10
24.1770363
20
60.6436833
40
0.6545001
50
179.6345085
51
191.7836486
0
ARC
8
DEFAULT_255_1_234
10
24.73527
20
60.7115697
40
1.2127388
50
171.4525249
51
180.3158839
0
ARC
8
DEFAULT_255_1_234
10
24.2957576
20
60.7799608
40
0.7679464
50
157.9802646
51
171.6246686
0
ARC
8
DEFAULT_255_1_234
10
24.0743597
20
60.8682421
40
0.5296008
50
141.4298019
51
157.854097
0
ARC
8
DEFAULT_255_1_234
10
24.0101918
20
60.9136381
40
0.4511509
50
102.8715806
51
140.8564722
0
ARC
8
DEFAULT_255_1_234
10
24.0749533
20
60.6696552
40
0.7034845
50
90.3778349
51
103.5869322
0
ARC
8
DEFAULT_255_1_234
10
23.9011309
20
60.609173
40
0.2370698
50
89.8751008
51
126.2071704
0
ARC
8
DEFAULT_255_1_234
10
23.9057099
20
60.5937303
40
0.2522934
50
124.9745049
51
144.895901
0
ARC
8
DEFAULT_255_1_234
10
23.888129
20
60.608056
40
0.2296779
50
145.2974905
51
160.2660252
0
ARC
8
DEFAULT_255_1_234
10
24.1953828
20
60.6278071
40
0.5234525
50
179.6514266
51
190.2855912
0
ARC
8
DEFAULT_255_1_234
10
24.0259966
20
60.5958786
40
0.3510893
50
190.0945431
51
207.5098196
0
ARC
8
DEFAULT_255_1_234
10
23.9694235
20
60.5689623
40
0.288489
50
207.9583163
51
216.3251085
0
ARC
8
DEFAULT_255_1_234
10
23.9354343
20
60.5410105
40
0.2445587
50
215.7661442
51
232.5456785
0
ARC
8
DEFAULT_255_1_234
10
23.8971326
20
60.4923482
40
0.1826382
50
232.8005391
51
270.6605633
0
ARC
8
DEFAULT_255_1_234
10
23.9017027
20
60.5287612
40
0.2190529
50
269.35537
51
288.4744281
0
ARC
8
DEFAULT_255_1_234
10
23.9109924
20
60.4938118
40
0.1829749
50
289.1833337
51
322.9683818
0
ARC
8
DEFAULT_255_1_234
10
23.8498446
20
60.5420391
40
0.2608399
50
322.6007884
51
346.5182367
0
ARC
8
DEFAULT_255_1_234
10
23.7341042
20
60.5715616
40
0.3802777
50
346.2582162
51
358.7741648
0
ARC
8
DEFAULT_255_1_234
10
23.6322711
20
60.5770965
40
0.4822176
50
358.3755224
51
0.0098023
0
ARC
8
DEFAULT_255_1_234
10
23.7078898
20
60.5798657
40
0.4066078
50
359.6214041
51
11.2839074
0
ARC
8
DEFAULT_255_1_234
10
23.8356045
20
60.6065066
40
0.2761514
50
11.0482309
51
31.8146458
0
ARC
8
DEFAULT_255_1_234
10
23.8665088
20
60.6232584
40
0.2410679
50
32.3035391
51
38.082671
0
ARC
8
DEFAULT_255_1_234
10
23.9085748
20
60.6613662
40
0.1844966
50
36.825067
51
85.7415724
0
ARC
8
DEFAULT_255_1_234
10
23.9018581
20
60.6113301
40
0.2349122
50
85.0140713
51
90.0513278
0
LINE
8
DEFAULT_255_1_234
10
22.1331879
20
69.3098211
11
22.1331879
21
68.1404
0
LINE
8
DEFAULT_255_1_234
10
22.1331879
20
68.1404
11
21.9781753
21
68.1404
0
LINE
8
DEFAULT_255_1_234
10
21.9781753
20
68.1404
11
21.3894489
21
69.041561
0
LINE
8
DEFAULT_255_1_234
10
21.3894489
20
69.041561
11
21.3894489
21
68.1404
0
LINE
8
DEFAULT_255_1_234
10
21.3894489
20
68.1404
11
21.2344364
21
68.1404
0
LINE
8
DEFAULT_255_1_234
10
21.2344364
20
68.1404
11
21.2344364
21
69.3098211
0
LINE
8
DEFAULT_255_1_234
10
21.2344364
20
69.3098211
11
21.3894489
21
69.3098211
0
LINE
8
DEFAULT_255_1_234
10
21.3894489
20
69.3098211
11
21.9797817
21
68.4046442
0
LINE
8
DEFAULT_255_1_234
10
21.9797817
20
68.4046442
11
21.9797817
21
69.3098211
0
LINE
8
DEFAULT_255_1_234
10
21.9797817
20
69.3098211
11
22.1331879
21
69.3098211
0
LINE
8
DEFAULT_255_1_234
10
23.1122568
20
68.5114663
11
23.2672693
21
68.5114663
0
LINE
8
DEFAULT_255_1_234
10
22.3669115
20
68.6704947
11
22.3669115
21
68.7829391
0
LINE
8
DEFAULT_255_1_234
10
23.2672693
20
68.9339357
11
23.1122568
21
68.9339357
0
LINE
8
DEFAULT_255_1_234
10
22.521924
20
68.7789232
11
22.521924
21
68.6656757
0
ARC
8
DEFAULT_255_1_234
10
22.719208
20
68.5711846
40
0.5513052
50
340.1774281
51
353.7814284
0
ARC
8
DEFAULT_255_1_234
10
22.8763432
20
68.5126582
40
0.3836379
50
311.4558989
51
340.4421614
0
ARC
8
DEFAULT_255_1_234
10
22.8730101
20
68.5237528
40
0.3941894
50
282.4333181
51
310.7513653
0
ARC
8
DEFAULT_255_1_234
10
22.829084
20
68.7052679
40
0.5809175
50
269.9358511
51
282.809604
0
ARC
8
DEFAULT_255_1_234
10
22.8238906
20
68.8510212
40
0.7266847
50
270.0021091
51
270.3581957
0
ARC
8
DEFAULT_255_1_234
10
22.8186323
20
68.5909585
40
0.4666519
50
250.7884749
51
270.6489167
0
ARC
8
DEFAULT_255_1_234
10
22.8018158
20
68.5272319
40
0.4009729
50
219.3627325
51
250.0611886
0
ARC
8
DEFAULT_255_1_234
10
22.8847369
20
68.5977042
40
0.5097822
50
193.5479632
51
219.5756669
0
ARC
8
DEFAULT_255_1_234
10
23.1218989
20
68.6592919
40
0.7547848
50
181.1218675
51
193.87563
0
ARC
8
DEFAULT_255_1_234
10
23.3289171
20
68.670358
40
0.9620055
50
179.9918545
51
181.5394234
0
ARC
8
DEFAULT_255_1_234
10
23.1438273
20
68.7866788
40
0.7769248
50
169.5837241
51
180.2757934
0
ARC
8
DEFAULT_255_1_234
10
22.9601211
20
68.8206229
40
0.590109
50
155.0365899
51
169.6003176
0
ARC
8
DEFAULT_255_1_234
10
22.8465675
20
68.8753677
40
0.4640625
50
136.783148
51
155.2472683
0
ARC
8
DEFAULT_255_1_234
10
22.8076152
20
68.9084562
40
0.4130255
50
121.7633186
51
136.428115
0
ARC
8
DEFAULT_255_1_234
10
22.8211114
20
68.8835227
40
0.4413323
50
95.6459699
51
121.5490577
0
ARC
8
DEFAULT_255_1_234
10
22.8368396
20
68.7726949
40
0.55319
50
89.924208
51
96.1377933
0
ARC
8
DEFAULT_255_1_234
10
22.8418828
20
68.7845542
40
0.5413475
50
76.6779277
51
90.4563316
0
ARC
8
DEFAULT_255_1_234
10
22.8812452
20
68.9436114
40
0.3775041
50
47.485847
51
76.9287264
0
ARC
8
DEFAULT_255_1_234
10
22.8665425
20
68.9336159
40
0.3948286
50
16.5424086
51
46.8933463
0
ARC
8
DEFAULT_255_1_234
10
22.7057582
20
68.8807861
40
0.564021
50
5.4072051
51
17.0365086
0
ARC
8
DEFAULT_255_1_234
10
22.5618599
20
68.8576679
40
0.5556559
50
7.8891745
51
15.9239216
0
ARC
8
DEFAULT_255_1_234
10
22.7605612
20
68.9153631
40
0.3487515
50
15.7653144
51
27.9410532
0
ARC
8
DEFAULT_255_1_234
10
22.870983
20
68.974479
40
0.2235026
50
27.8166557
51
46.4008329
0
ARC
8
DEFAULT_255_1_234
10
22.8759473
20
68.9739082
40
0.2205286
50
47.4371857
51
75.0698205
0
ARC
8
DEFAULT_255_1_234
10
22.8450867
20
68.8664765
40
0.3322915
50
74.7008593
51
87.8124495
0
ARC
8
DEFAULT_255_1_234
10
22.8377555
20
68.7608844
40
0.4380987
50
87.3814673
51
90.0240855
0
ARC
8
DEFAULT_255_1_234
10
22.8339098
20
68.8786291
40
0.3203749
50
89.3451631
51
108.5745436
0
ARC
8
DEFAULT_255_1_234
10
22.8202203
20
68.9299908
40
0.2673494
50
109.2998449
51
143.3037509
0
ARC
8
DEFAULT_255_1_234
10
22.8964276
20
68.8713881
40
0.3634757
50
143.0753173
51
163.1916937
0
ARC
8
DEFAULT_255_1_234
10
23.0916003
20
68.8097967
40
0.5681262
50
162.9373603
51
174.6208611
0
ARC
8
DEFAULT_255_1_234
10
23.3542046
20
68.781001
40
0.8322832
50
174.3419979
51
180.1430411
0
ARC
8
DEFAULT_255_1_234
10
23.2611202
20
68.6615698
40
0.7392076
50
179.6817502
51
189.150529
0
ARC
8
DEFAULT_255_1_234
10
23.011045
20
68.619919
40
0.4856932
50
188.9910863
51
203.5773039
0
ARC
8
DEFAULT_255_1_234
10
22.9030783
20
68.5751211
40
0.3688271
50
203.9077269
51
215.1312379
0
ARC
8
DEFAULT_255_1_234
10
22.8107877
20
68.5035941
40
0.2522457
50
213.9071664
51
263.8849284
0
ARC
8
DEFAULT_255_1_234
10
22.8233206
20
68.5820518
40
0.3316174
50
263.1758525
51
270.1031083
0
ARC
8
DEFAULT_255_1_234
10
22.8265297
20
68.7067365
40
0.4563091
50
269.6719807
51
279.0609165
0
ARC
8
DEFAULT_255_1_234
10
22.8532066
20
68.5454907
40
0.2928759
50
278.8750225
51
293.6346586
0
ARC
8
DEFAULT_255_1_234
10
22.8852274
20
68.47029
40
0.2111472
50
293.8553404
51
310.0518804
0
ARC
8
DEFAULT_255_1_234
10
22.8857128
20
68.4640516
40
0.2060917
50
311.0646779
51
332.0108348
0
ARC
8
DEFAULT_255_1_234
10
22.7664854
20
68.5297978
40
0.3422352
50
331.6588543
51
343.2878891
0
ARC
8
DEFAULT_255_1_234
10
22.5602369
20
68.5931798
40
0.5580003
50
343.1446044
51
351.010618
0
ARC
8
DEFAULT_255_1_234
10
22.4061016
20
68.6212871
40
0.7146438
50
350.7157277
51
351.1602153
0
LINE
8
DEFAULT_255_1_234
10
23.995748
20
69.3106243
11
24.0222527
21
69.3106243
0
LINE
8
DEFAULT_255_1_234
10
24.0222527
20
69.3106243
11
24.0222527
21
69.184526
0
LINE
8
DEFAULT_255_1_234
10
24.0222527
20
69.184526
11
23.9949448
21
69.184526
0
LINE
8
DEFAULT_255_1_234
10
23.4479834
20
68.5853583
11
23.4479834
21
68.6423836
0
LINE
8
DEFAULT_255_1_234
10
23.5973738
20
68.6231075
11
23.5973738
21
68.5684917
0
ARC
8
DEFAULT_255_1_234
10
24.0001796
20
68.6847455
40
0.4998079
50
90.6001036
51
104.514704
0
ARC
8
DEFAULT_255_1_234
10
23.9613312
20
68.8292131
40
0.3502176
50
104.2855254
51
133.862935
0
ARC
8
DEFAULT_255_1_234
10
23.9777069
20
68.818383
40
0.3693984
50
134.5302688
51
161.6210873
0
ARC
8
DEFAULT_255_1_234
10
24.1430258
20
68.7600895
40
0.5446739
50
161.2849839
51
174.2076652
0
ARC
8
DEFAULT_255_1_234
10
24.2837195
20
68.7406787
40
0.6866274
50
173.7810589
51
174.9254635
0
ARC
8
DEFAULT_255_1_234
10
23.8287027
20
68.6023839
40
0.3033419
50
95.8330959
51
138.9954921
0
ARC
8
DEFAULT_255_1_234
10
23.8510383
20
68.4745375
40
0.4328947
50
89.8753725
51
97.0544009
0
ARC
8
DEFAULT_255_1_234
10
23.8557849
20
68.5580748
40
0.3493769
50
71.6407809
51
90.6240094
0
ARC
8
DEFAULT_255_1_234
10
23.8708422
20
68.6135082
40
0.2920396
50
39.6367836
51
71.019018
0
ARC
8
DEFAULT_255_1_234
10
23.8071895
20
68.5584998
40
0.3761538
50
10.658731
51
39.9043955
0
ARC
8
DEFAULT_255_1_234
10
23.6523978
20
68.5248686
40
0.5345136
50
359.682601
51
11.132623
0
ARC
8
DEFAULT_255_1_234
10
23.6484109
20
68.517801
40
0.5385081
50
347.2486944
51
0.4369317
0
ARC
8
DEFAULT_255_1_234
10
23.8151586
20
68.4776807
40
0.3670249
50
318.1409698
51
347.6118597
0
ARC
8
DEFAULT_255_1_234
10
23.8476579
20
68.4509702
40
0.3250007
50
275.6342139
51
317.8248465
0
ARC
8
DEFAULT_255_1_234
10
23.825569
20
68.5809219
40
0.4565864
50
269.8874292
51
276.7917694
0
ARC
8
DEFAULT_255_1_234
10
23.8200761
20
68.4783743
40
0.3540676
50
246.9140195
51
270.7437342
0
ARC
8
DEFAULT_255_1_234
10
23.8207151
20
68.4641384
40
0.3412781
50
218.1665114
51
245.878116
0
ARC
8
DEFAULT_255_1_234
10
23.9086612
20
68.5377279
40
0.455911
50
191.4115814
51
218.6077802
0
ARC
8
DEFAULT_255_1_234
10
24.1024701
20
68.5811833
40
0.6545001
50
179.6345085
51
191.7836486
0
ARC
8
DEFAULT_255_1_234
10
24.6607038
20
68.6490697
40
1.2127388
50
171.4525249
51
180.3158839
0
ARC
8
DEFAULT_255_1_234
10
24.2211914
20
68.7174608
40
0.7679464
50
157.9802646
51
171.6246686
0
ARC
8
DEFAULT_255_1_234
10
23.9997935
20
68.8057421
40
0.5296008
50
141.4298019
51
157.854097
0
ARC
8
DEFAULT_255_1_234
10
23.9356255
20
68.8511381
40
0.4511509
50
102.8715806
51
140.8564722
0
ARC
8
DEFAULT_255_1_234
10
24.0003871
20
68.6071552
40
0.7034845
50
90.3778349
51
103.5869322
0
ARC
8
DEFAULT_255_1_234
10
23.8265647
20
68.546673
40
0.2370698
50
89.8751008
51
126.2071704
0
ARC
8
DEFAULT_255_1_234
10
23.8311437
20
68.5312303
40
0.2522934
50
124.9745049
51
144.895901
0
ARC
8
DEFAULT_255_1_234
10
23.8135627
20
68.545556
40
0.2296779
50
145.2974905
51
160.2660252
0
ARC
8
DEFAULT_255_1_234
10
24.1208166
20
68.5653071
40
0.5234525
50
179.6514266
51
190.2855912
0
ARC
8
DEFAULT_255_1_234
10
23.9514303
20
68.5333786
40
0.3510893
50
190.0945431
51
207.5098196
0
ARC
8
DEFAULT_255_1_234
10
23.8948573
20
68.5064623
40
0.288489
50
207.9583163
51
216.3251085
0
ARC
8
DEFAULT_255_1_234
10
23.8608681
20
68.4785105
40
0.2445587
50
215.7661442
51
232.5456785
0
ARC
8
DEFAULT_255_1_234
10
23.8225664
20
68.4298482
40
0.1826382
50
232.8005391
51
270.6605633
0
ARC
8
DEFAULT_255_1_234
10
23.8271365
20
68.4662612
40
0.2190529
50
269.35537
51
288.4744281
0
ARC
8
DEFAULT_255_1_234
10
23.8364262
20
68.4313118
40
0.1829749
50
289.1833337
51
322.9683818
0
ARC
8
DEFAULT_255_1_234
10
23.7752784
20
68.4795391
40
0.2608399
50
322.6007884
51
346.5182367
0
ARC
8
DEFAULT_255_1_234
10
23.659538
20
68.5090616
40
0.3802777
50
346.2582162
51
358.7741648
0
ARC
8
DEFAULT_255_1_234
10
23.5577049
20
68.5145965
40
0.4822176
50
358.3755224
51
0.0098023
0
ARC
8
DEFAULT_255_1_234
10
23.6333236
20
68.5173657
40
0.4066078
50
359.6214041
51
11.2839074
0
ARC
8
DEFAULT_255_1_234
10
23.7610383
20
68.5440066
40
0.2761514
50
11.0482309
51
31.8146458
0
ARC
8
DEFAULT_255_1_234
10
23.7919426
20
68.5607584
40
0.2410679
50
32.3035391
51
38.082671
0
ARC
8
DEFAULT_255_1_234
10
23.8340086
20
68.5988662
40
0.1844966
50
36.825067
51
85.7415724
0
ARC
8
DEFAULT_255_1_234
10
23.8272919
20
68.5488301
40
0.2349122
50
85.0140713
51
90.0513278
0
LINE
8
DEFAULT_255_1_234
10
21.002223
20
76.4489663
11
21.1572355
21
76.4489663
0
LINE
8
DEFAULT_255_1_234
10
20.2568777
20
76.6079947
11
20.2568777
21
76.7204391
0
LINE
8
DEFAULT_255_1_234
10
21.1572355
20
76.8714357
11
21.002223
21
76.8714357
0
LINE
8
DEFAULT_255_1_234
10
20.4118902
20
76.7164232
11
20.4118902
21
76.6031757
0
ARC
8
DEFAULT_255_1_234
10
20.6091742
20
76.5086846
40
0.5513052
50
340.1774281
51
353.7814284
0
ARC
8
DEFAULT_255_1_234
10
20.7663095
20
76.4501582
40
0.3836379
50
311.4558989
51
340.4421614
0
ARC
8
DEFAULT_255_1_234
10
20.7629763
20
76.4612528
40
0.3941894
50
282.4333181
51
310.7513653
0
ARC
8
DEFAULT_255_1_234
10
20.7190502
20
76.6427679
40
0.5809175
50
269.9358511
51
282.809604
0
ARC
8
DEFAULT_255_1_234
10
20.7138568
20
76.7885212
40
0.7266847
50
270.0021091
51
270.3581957
0
ARC
8
DEFAULT_255_1_234
10
20.7085985
20
76.5284585
40
0.4666519
50
250.7884749
51
270.6489167
0
ARC
8
DEFAULT_255_1_234
10
20.691782
20
76.4647319
40
0.4009729
50
219.3627325
51
250.0611886
0
ARC
8
DEFAULT_255_1_234
10
20.7747031
20
76.5352042
40
0.5097822
50
193.5479632
51
219.5756669
0
ARC
8
DEFAULT_255_1_234
10
21.0118652
20
76.5967919
40
0.7547848
50
181.1218675
51
193.87563
0
ARC
8
DEFAULT_255_1_234
10
21.2188833
20
76.607858
40
0.9620055
50
179.9918545
51
181.5394234
0
ARC
8
DEFAULT_255_1_234
10
21.0337935
20
76.7241788
40
0.7769248
50
169.5837241
51
180.2757934
0
ARC
8
DEFAULT_255_1_234
10
20.8500873
20
76.7581229
40
0.590109
50
155.0365899
51
169.6003176
0
ARC
8
DEFAULT_255_1_234
10
20.7365337
20
76.8128677
40
0.4640625
50
136.783148
51
155.2472683
0
ARC
8
DEFAULT_255_1_234
10
20.6975814
20
76.8459562
40
0.4130255
50
121.7633186
51
136.428115
0
ARC
8
DEFAULT_255_1_234
10
20.7110776
20
76.8210227
40
0.4413323
50
95.6459699
51
121.5490577
0
ARC
8
DEFAULT_255_1_234
10
20.7268058
20
76.7101949
40
0.55319
50
89.924208
51
96.1377933
0
ARC
8
DEFAULT_255_1_234
10
20.7318491
20
76.7220542
40
0.5413475
50
76.6779277
51
90.4563316
0
ARC
8
DEFAULT_255_1_234
10
20.7712114
20
76.8811114
40
0.3775041
50
47.485847
51
76.9287264
0
ARC
8
DEFAULT_255_1_234
10
20.7565087
20
76.8711159
40
0.3948286
50
16.5424086
51
46.8933463
0
ARC
8
DEFAULT_255_1_234
10
20.5957244
20
76.8182861
40
0.564021
50
5.4072051
51
17.0365086
0
ARC
8
DEFAULT_255_1_234
10
20.4518261
20
76.7951679
40
0.5556559
50
7.8891745
51
15.9239216
0
ARC
8
DEFAULT_255_1_234
10
20.6505274
20
76.8528631
40
0.3487515
50
15.7653144
51
27.9410532
0
ARC
8
DEFAULT_255_1_234
10
20.7609492
20
76.911979
40
0.2235026
50
27.8166557
51
46.4008329
0
ARC
8
DEFAULT_255_1_234
10
20.7659135
20
76.9114082
40
0.2205286
50
47.4371857
51
75.0698205
0
ARC
8
DEFAULT_255_1_234
10
20.7350529
20
76.8039765
40
0.3322915
50
74.7008593
51
87.8124495
0
ARC
8
DEFAULT_255_1_234
10
20.7277217
20
76.6983844
40
0.4380987
50
87.3814673
51
90.0240855
0
ARC
8
DEFAULT_255_1_234
10
20.723876
20
76.8161291
40
0.3203749
50
89.3451631
51
108.5745436
0
ARC
8
DEFAULT_255_1_234
10
20.7101865
20
76.8674908
40
0.2673494
50
109.2998449
51
143.3037509
0
ARC
8
DEFAULT_255_1_234
10
20.7863938
20
76.8088881
40
0.3634757
50
143.0753173
51
163.1916937
0
ARC
8
DEFAULT_255_1_234
10
20.9815666
20
76.7472967
40
0.5681262
50
162.9373603
51
174.6208611
0
ARC
8
DEFAULT_255_1_234
10
21.2441708
20
76.718501
40
0.8322832
50
174.3419979
51
180.1430411
0
ARC
8
DEFAULT_255_1_234
10
21.1510864
20
76.5990698
40
0.7392076
50
179.6817502
51
189.150529
0
ARC
8
DEFAULT_255_1_234
10
20.9010112
20
76.557419
40
0.4856932
50
188.9910863
51
203.5773039
0
ARC
8
DEFAULT_255_1_234
10
20.7930445
20
76.5126211
40
0.3688271
50
203.9077269
51
215.1312379
0
ARC
8
DEFAULT_255_1_234
10
20.7007539
20
76.4410941
40
0.2522457
50
213.9071664
51
263.8849284
0
ARC
8
DEFAULT_255_1_234
10
20.7132868
20
76.5195518
40
0.3316174
50
263.1758525
51
270.1031083
0
ARC
8
DEFAULT_255_1_234
10
20.716496
20
76.6442365
40
0.4563091
50
269.6719807
51
279.0609165
0
ARC
8
DEFAULT_255_1_234
10
20.7431728
20
76.4829907
40
0.2928759
50
278.8750225
51
293.6346586
0
ARC
8
DEFAULT_255_1_234
10
20.7751936
20
76.40779
40
0.2111472
50
293.8553404
51
310.0518804
0
ARC
8
DEFAULT_255_1_234
10
20.775679
20
76.4015516
40
0.2060917
50
311.0646779
51
332.0108348
0
ARC
8
DEFAULT_255_1_234
10
20.6564517
20
76.4672978
40
0.3422352
50
331.6588543
51
343.2878891
0
ARC
8
DEFAULT_255_1_234
10
20.4502032
20
76.5306798
40
0.5580003
50
343.1446044
51
351.010618
0
ARC
8
DEFAULT_255_1_234
10
20.2960678
20
76.5587871
40
0.7146438
50
350.7157277
51
351.1602153
0
LINE
8
DEFAULT_255_1_234
10
22.2672218
20
76.6987534
11
22.2672218
21
76.6248614
0
LINE
8
DEFAULT_255_1_234
10
21.3267052
20
76.6144201
11
21.3267052
21
76.6987534
0
LINE
8
DEFAULT_255_1_234
10
22.1138156
20
76.6136169
11
22.1138156
21
76.7003597
0
LINE
8
DEFAULT_255_1_234
10
21.4801114
20
76.710801
11
21.4801114
21
76.6248614
0
ARC
8
DEFAULT_255_1_234
10
21.4030244
20
76.6209015
40
0.8642064
50
350.487711
51
0.2625388
0
ARC
8
DEFAULT_255_1_234
10
21.6323486
20
76.5814578
40
0.631518
50
336.0277639
51
350.5787438
0
ARC
8
DEFAULT_255_1_234
10
21.7668309
20
76.5206892
40
0.4839466
50
319.8877444
51
336.1328423
0
ARC
8
DEFAULT_255_1_234
10
21.827095
20
76.472458
40
0.4067874
50
302.4806467
51
319.6143626
0
ARC
8
DEFAULT_255_1_234
10
21.815596
20
76.4946202
40
0.4316636
50
275.8195682
51
302.1884709
0
ARC
8
DEFAULT_255_1_234
10
21.7989593
20
76.6088665
40
0.5470306
50
269.9171439
51
276.3397983
0
ARC
8
DEFAULT_255_1_234
10
21.7944803
20
76.5402681
40
0.4784458
50
252.5219675
51
270.4416499
0
ARC
8
DEFAULT_255_1_234
10
21.7801062
20
76.4863592
40
0.422716
50
237.5352116
51
252.1857531
0
ARC
8
DEFAULT_255_1_234
10
21.7890258
20
76.4977363
40
0.4371052
50
209.063312
51
237.3492538
0
ARC
8
DEFAULT_255_1_234
10
21.8760106
20
76.5523685
40
0.5397041
50
205.1183774
51
209.6470015
0
ARC
8
DEFAULT_255_1_234
10
21.9557143
20
76.586183
40
0.6262326
50
188.7215458
51
204.8240747
0
ARC
8
DEFAULT_255_1_234
10
22.1554671
20
76.6198067
40
0.8287794
50
180.3723947
51
188.9252049
0
ARC
8
DEFAULT_255_1_234
10
22.1527423
20
76.7027402
40
0.8260467
50
169.5253763
51
180.2765336
0
ARC
8
DEFAULT_255_1_234
10
21.9624871
20
76.7377309
40
0.6326007
50
155.8315255
51
169.5089989
0
ARC
8
DEFAULT_255_1_234
10
21.8344373
20
76.7971348
40
0.4914567
50
139.6258461
51
156.0379525
0
ARC
8
DEFAULT_255_1_234
10
21.7754706
20
76.8445799
40
0.4158054
50
122.6416387
51
139.3430715
0
ARC
8
DEFAULT_255_1_234
10
21.7855326
20
76.8262451
40
0.4366739
50
93.0223692
51
122.455762
0
ARC
8
DEFAULT_255_1_234
10
21.7963323
20
76.7297709
40
0.5336137
50
89.975342
51
93.6341897
0
ARC
8
DEFAULT_255_1_234
10
21.8002102
20
76.7696242
40
0.4937738
50
73.746375
51
90.4233405
0
ARC
8
DEFAULT_255_1_234
10
21.8177681
20
76.8376287
40
0.4235786
50
57.662753
51
73.4518111
0
ARC
8
DEFAULT_255_1_234
10
21.8169687
20
76.8397832
40
0.4221899
50
29.1440151
51
57.414694
0
ARC
8
DEFAULT_255_1_234
10
21.7234882
20
76.7814005
40
0.5322966
50
24.0982783
51
29.7323517
0
ARC
8
DEFAULT_255_1_234
10
21.6201157
20
76.7385399
40
0.6441673
50
8.6655297
51
23.8241346
0
ARC
8
DEFAULT_255_1_234
10
21.3966895
20
76.7020854
40
0.8705386
50
359.7806941
51
8.8218784
0
ARC
8
DEFAULT_255_1_234
10
21.2819893
20
76.7046345
40
0.8318373
50
359.7055579
51
8.036044
0
ARC
8
DEFAULT_255_1_234
10
21.5819899
20
76.7483239
40
0.5286768
50
7.8928306
51
20.2962107
0
ARC
8
DEFAULT_255_1_234
10
21.744747
20
76.8083395
40
0.3552073
50
20.3231126
51
36.4992797
0
ARC
8
DEFAULT_255_1_234
10
21.8133016
20
76.8611402
40
0.2686974
50
36.1437156
51
85.6627023
0
ARC
8
DEFAULT_255_1_234
10
21.7970562
20
76.7571221
40
0.373739
50
84.3852322
51
90.0757696
0
ARC
8
DEFAULT_255_1_234
10
21.7928234
20
76.8231839
40
0.3076997
50
89.3038458
51
109.9045693
0
ARC
8
DEFAULT_255_1_234
10
21.7835625
20
76.8614062
40
0.2686424
50
110.8228367
51
143.9179474
0
ARC
8
DEFAULT_255_1_234
10
21.8769285
20
76.7901236
40
0.3860887
50
143.5289163
51
163.2980757
0
ARC
8
DEFAULT_255_1_234
10
22.0677106
20
76.7301433
40
0.5860659
50
163.0418846
51
174.3140048
0
ARC
8
DEFAULT_255_1_234
10
22.3081218
20
76.7023854
40
0.8280531
50
174.0509143
51
179.4176892
0
ARC
8
DEFAULT_255_1_234
10
22.2576957
20
76.6206954
40
0.7775954
50
179.6930361
51
188.7906598
0
ARC
8
DEFAULT_255_1_234
10
21.9913436
20
76.5780935
40
0.5078633
50
188.6331305
51
202.5629587
0
ARC
8
DEFAULT_255_1_234
10
21.8659028
20
76.5276996
40
0.3726913
50
202.8081362
51
216.1193925
0
ARC
8
DEFAULT_255_1_234
10
21.7849598
20
76.4625676
40
0.2689577
50
215.0755913
51
264.6379694
0
ARC
8
DEFAULT_255_1_234
10
21.7976548
20
76.5456513
40
0.3528978
50
263.846392
51
270.0833719
0
ARC
8
DEFAULT_255_1_234
10
21.8017938
20
76.5198374
40
0.3271036
50
269.3649385
51
287.5152008
0
ARC
8
DEFAULT_255_1_234
10
21.8196096
20
76.4551238
40
0.2600406
50
288.0630309
51
323.8113348
0
ARC
8
DEFAULT_255_1_234
10
21.7324937
20
76.5201049
40
0.3687189
50
323.6547608
51
342.6590488
0
ARC
8
DEFAULT_255_1_234
10
21.5293552
20
76.5861952
40
0.5823286
50
342.4091907
51
353.6451149
0
ARC
8
DEFAULT_255_1_234
10
21.2462063
20
76.621419
40
0.8676442
50
353.4029884
51
359.4847795
0
LINE
8
DEFAULT_255_1_234
10
22.647123
20
76.6336963
11
22.5282533
21
76.6642169
0
LINE
8
DEFAULT_255_1_234
10
22.5282533
20
76.6642169
11
22.5876881
21
77.2473211
0
LINE
8
DEFAULT_255_1_234
10
22.5876881
20
77.2473211
11
23.1868558
21
77.2473211
0
LINE
8
DEFAULT_255_1_234
10
23.1868558
20
77.2473211
11
23.1868558
21
77.1099784
0
LINE
8
DEFAULT_255_1_234
10
23.1868558
20
77.1099784
11
22.7137864
21
77.1099784
0
LINE
8
DEFAULT_255_1_234
10
22.7137864
20
77.1099784
11
22.6784468
21
76.7911184
0
LINE
8
DEFAULT_255_1_234
10
22.4864882
20
76.3855156
11
22.6270437
21
76.3855156
0
LINE
8
DEFAULT_255_1_234
10
22.6864785
20
76.6658232
11
22.647123
21
76.6336963
0
ARC
8
DEFAULT_255_1_234
10
22.8639252
20
76.473123
40
0.3681349
50
93.7182161
51
120.2538958
0
ARC
8
DEFAULT_255_1_234
10
22.8733515
20
76.3923394
40
0.449379
50
89.9660152
51
94.2496022
0
ARC
8
DEFAULT_255_1_234
10
22.8774249
20
76.4512549
40
0.390482
50
73.8043271
51
90.5585896
0
ARC
8
DEFAULT_255_1_234
10
22.9009146
20
76.5370602
40
0.3015334
50
41.3071453
51
73.5430202
0
ARC
8
DEFAULT_255_1_234
10
22.8592973
20
76.5012324
40
0.3564457
50
13.5075983
51
41.2174222
0
ARC
8
DEFAULT_255_1_234
10
22.6951177
20
76.4582486
40
0.5261351
50
1.1331335
51
13.8829381
0
ARC
8
DEFAULT_255_1_234
10
22.5539546
20
76.4506665
40
0.6674378
50
359.9919444
51
1.544251
0
ARC
8
DEFAULT_255_1_234
10
22.6816372
20
76.446528
40
0.5397702
50
347.8572367
51
0.4293338
0
ARC
8
DEFAULT_255_1_234
10
22.856669
20
76.4068736
40
0.3603188
50
323.673004
51
348.1672506
0
ARC
8
DEFAULT_255_1_234
10
22.8861198
20
76.3889168
40
0.3259678
50
316.8171152
51
323.1492751
0
ARC
8
DEFAULT_255_1_234
10
22.8922387
20
76.385246
40
0.3189975
50
281.8396411
51
316.5457803
0
ARC
8
DEFAULT_255_1_234
10
22.854665
20
76.5407762
40
0.4789527
50
269.5770101
51
282.4214771
0
ARC
8
DEFAULT_255_1_234
10
22.8475462
20
76.5194125
40
0.45759
50
256.2427136
51
270.4486331
0
ARC
8
DEFAULT_255_1_234
10
22.8176364
20
76.3994229
40
0.3339303
50
228.9023911
51
256.3314342
0
ARC
8
DEFAULT_255_1_234
10
22.8102597
20
76.3877746
40
0.32031
50
193.753695
51
228.5271154
0
ARC
8
DEFAULT_255_1_234
10
22.9340551
20
76.42408
40
0.4492253
50
184.924711
51
194.497588
0
ARC
8
DEFAULT_255_1_234
10
22.9533118
20
76.4276591
40
0.3289787
50
187.3600538
51
198.6732863
0
ARC
8
DEFAULT_255_1_234
10
22.8483412
20
76.3912674
40
0.217884
50
198.4451669
51
217.794479
0
ARC
8
DEFAULT_255_1_234
10
22.8187587
20
76.3703085
40
0.1816698
50
218.2887171
51
228.5612368
0
ARC
8
DEFAULT_255_1_234
10
22.8285374
20
76.3834963
40
0.1980329
50
228.9654866
51
258.1234728
0
ARC
8
DEFAULT_255_1_234
10
22.8491084
20
76.4715833
40
0.2884748
50
257.7258293
51
270.401361
0
ARC
8
DEFAULT_255_1_234
10
22.853597
20
76.4270821
40
0.2439788
50
269.4204404
51
286.4209037
0
ARC
8
DEFAULT_255_1_234
10
22.8684458
20
76.3731657
40
0.1880666
50
286.7251356
51
320.600362
0
ARC
8
DEFAULT_255_1_234
10
22.8301283
20
76.4042595
40
0.2374121
50
320.6712579
51
344.5441685
0
ARC
8
DEFAULT_255_1_234
10
22.7144609
20
76.4382045
40
0.3579479
50
344.2412205
51
356.7357071
0
ARC
8
DEFAULT_255_1_234
10
22.5895757
20
76.4485444
40
0.4832297
50
356.3548756
51
0.0500261
0
ARC
8
DEFAULT_255_1_234
10
22.7232267
20
76.451665
40
0.3495889
50
359.5576869
51
12.953486
0
ARC
8
DEFAULT_255_1_234
10
22.8287164
20
76.4772434
40
0.2410532
50
12.6490276
51
41.6081334
0
ARC
8
DEFAULT_255_1_234
10
22.8517535
20
76.4968321
40
0.2108218
50
41.7850273
51
85.9892764
0
ARC
8
DEFAULT_255_1_234
10
22.8394271
20
76.4155462
40
0.2928454
50
84.6957577
51
90.0676183
0
ARC
8
DEFAULT_255_1_234
10
22.8370756
20
76.3486716
40
0.3597255
50
89.6804936
51
99.1614436
0
ARC
8
DEFAULT_255_1_234
10
22.8165387
20
76.4714131
40
0.235281
50
98.9830931
51
113.8908934
0
ARC
8
DEFAULT_255_1_234
10
22.7935797
20
76.5255587
40
0.176479
50
114.1950727
51
127.3641004
0
LINE
8
DEFAULT_255_1_234
10
23.5707729
20
76.6336963
11
23.4519032
21
76.6642169
0
LINE
8
DEFAULT_255_1_234
10
23.4519032
20
76.6642169
11
23.511338
21
77.2473211
0
LINE
8
DEFAULT_255_1_234
10
23.511338
20
77.2473211
11
24.1105057
21
77.2473211
0
LINE
8
DEFAULT_255_1_234
10
24.1105057
20
77.2473211
11
24.1105057
21
77.1099784
0
LINE
8
DEFAULT_255_1_234
10
24.1105057
20
77.1099784
11
23.6374363
21
77.1099784
0
LINE
8
DEFAULT_255_1_234
10
23.6374363
20
77.1099784
11
23.6020967
21
76.7911184
0
LINE
8
DEFAULT_255_1_234
10
23.4101381
20
76.3855156
11
23.5506936
21
76.3855156
0
LINE
8
DEFAULT_255_1_234
10
23.6101284
20
76.6658232
11
23.5707729
21
76.6336963
0
ARC
8
DEFAULT_255_1_234
10
23.7875751
20
76.473123
40
0.3681349
50
93.7182161
51
120.2538958
0
ARC
8
DEFAULT_255_1_234
10
23.7970014
20
76.3923394
40
0.449379
50
89.9660152
51
94.2496022
0
ARC
8
DEFAULT_255_1_234
10
23.8010748
20
76.4512549
40
0.390482
50
73.8043271
51
90.5585896
0
ARC
8
DEFAULT_255_1_234
10
23.8245645
20
76.5370602
40
0.3015334
50
41.3071453
51
73.5430202
0
ARC
8
DEFAULT_255_1_234
10
23.7829472
20
76.5012324
40
0.3564457
50
13.5075983
51
41.2174222
0
ARC
8
DEFAULT_255_1_234
10
23.6187676
20
76.4582486
40
0.5261351
50
1.1331335
51
13.8829381
0
ARC
8
DEFAULT_255_1_234
10
23.4776045
20
76.4506665
40
0.6674378
50
359.9919444
51
1.544251
0
ARC
8
DEFAULT_255_1_234
10
23.6052871
20
76.446528
40
0.5397702
50
347.8572367
51
0.4293338
0
ARC
8
DEFAULT_255_1_234
10
23.7803189
20
76.4068736
40
0.3603188
50
323.673004
51
348.1672506
0
ARC
8
DEFAULT_255_1_234
10
23.8097697
20
76.3889168
40
0.3259678
50
316.8171152
51
323.1492751
0
ARC
8
DEFAULT_255_1_234
10
23.8158886
20
76.385246
40
0.3189975
50
281.8396411
51
316.5457803
0
ARC
8
DEFAULT_255_1_234
10
23.7783149
20
76.5407762
40
0.4789527
50
269.5770101
51
282.4214771
0
ARC
8
DEFAULT_255_1_234
10
23.7711961
20
76.5194125
40
0.45759
50
256.2427136
51
270.4486331
0
ARC
8
DEFAULT_255_1_234
10
23.7412863
20
76.3994229
40
0.3339303
50
228.9023911
51
256.3314342
0
ARC
8
DEFAULT_255_1_234
10
23.7339096
20
76.3877746
40
0.32031
50
193.753695
51
228.5271154
0
ARC
8
DEFAULT_255_1_234
10
23.857705
20
76.42408
40
0.4492253
50
184.924711
51
194.497588
0
ARC
8
DEFAULT_255_1_234
10
23.8769617
20
76.4276591
40
0.3289787
50
187.3600538
51
198.6732863
0
ARC
8
DEFAULT_255_1_234
10
23.7719911
20
76.3912674
40
0.217884
50
198.4451669
51
217.794479
0
ARC
8
DEFAULT_255_1_234
10
23.7424086
20
76.3703085
40
0.1816698
50
218.2887171
51
228.5612368
0
ARC
8
DEFAULT_255_1_234
10
23.7521873
20
76.3834963
40
0.1980329
50
228.9654866
51
258.1234728
0
ARC
8
DEFAULT_255_1_234
10
23.7727583
20
76.4715833
40
0.2884748
50
257.7258293
51
270.401361
0
ARC
8
DEFAULT_255_1_234
10
23.7772469
20
76.4270821
40
0.2439788
50
269.4204404
51
286.4209037
0
ARC
8
DEFAULT_255_1_234
10
23.7920957
20
76.3731657
40
0.1880666
50
286.7251356
51
320.600362
0
ARC
8
DEFAULT_255_1_234
10
23.7537782
20
76.4042595
40
0.2374121
50
320.6712579
51
344.5441685
0
ARC
8
DEFAULT_255_1_234
10
23.6381108
20
76.4382045
40
0.3579479
50
344.2412205
51
356.7357071
0
ARC
8
DEFAULT_255_1_234
10
23.5132256
20
76.4485444
40
0.4832297
50
356.3548756
51
0.0500261
0
ARC
8
DEFAULT_255_1_234
10
23.6468766
20
76.451665
40
0.3495889
50
359.5576869
51
12.953486
0
ARC
8
DEFAULT_255_1_234
10
23.7523663
20
76.4772434
40
0.2410532
50
12.6490276
51
41.6081334
0
ARC
8
DEFAULT_255_1_234
10
23.7754034
20
76.4968321
40
0.2108218
50
41.7850273
51
85.9892764
0
ARC
8
DEFAULT_255_1_234
10
23.7630771
20
76.4155462
40
0.2928454
50
84.6957577
51
90.0676183
0
ARC
8
DEFAULT_255_1_234
10
23.7607255
20
76.3486716
40
0.3597255
50
89.6804936
51
99.1614436
0
ARC
8
DEFAULT_255_1_234
10
23.7401886
20
76.4714131
40
0.235281
50
98.9830931
51
113.8908934
0
ARC
8
DEFAULT_255_1_234
10
23.7172296
20
76.5255587
40
0.176479
50
114.1950727
51
127.3641004
0
LINE
8
DEFAULT_255_1_234
10
23.186823
20
84.3864663
11
23.3418355
21
84.3864663
0
LINE
8
DEFAULT_255_1_234
10
22.4414777
20
84.5454947
11
22.4414777
21
84.6579391
0
LINE
8
DEFAULT_255_1_234
10
23.3418355
20
84.8089357
11
23.186823
21
84.8089357
0
LINE
8
DEFAULT_255_1_234
10
22.5964902
20
84.6539232
11
22.5964902
21
84.5406757
0
ARC
8
DEFAULT_255_1_234
10
22.7937742
20
84.4461846
40
0.5513052
50
340.1774281
51
353.7814284
0
ARC
8
DEFAULT_255_1_234
10
22.9509095
20
84.3876582
40
0.3836379
50
311.4558989
51
340.4421614
0
ARC
8
DEFAULT_255_1_234
10
22.9475763
20
84.3987528
40
0.3941894
50
282.4333181
51
310.7513653
0
ARC
8
DEFAULT_255_1_234
10
22.9036502
20
84.5802679
40
0.5809175
50
269.9358511
51
282.809604
0
ARC
8
DEFAULT_255_1_234
10
22.8984568
20
84.7260212
40
0.7266847
50
270.0021091
51
270.3581957
0
ARC
8
DEFAULT_255_1_234
10
22.8931985
20
84.4659585
40
0.4666519
50
250.7884749
51
270.6489167
0
ARC
8
DEFAULT_255_1_234
10
22.876382
20
84.4022319
40
0.4009729
50
219.3627325
51
250.0611886
0
ARC
8
DEFAULT_255_1_234
10
22.9593031
20
84.4727042
40
0.5097822
50
193.5479632
51
219.5756669
0
ARC
8
DEFAULT_255_1_234
10
23.1964652
20
84.5342919
40
0.7547848
50
181.1218675
51
193.87563
0
ARC
8
DEFAULT_255_1_234
10
23.4034833
20
84.545358
40
0.9620055
50
179.9918545
51
181.5394234
0
ARC
8
DEFAULT_255_1_234
10
23.2183935
20
84.6616788
40
0.7769248
50
169.5837241
51
180.2757934
0
ARC
8
DEFAULT_255_1_234
10
23.0346873
20
84.6956229
40
0.590109
50
155.0365899
51
169.6003176
0
ARC
8
DEFAULT_255_1_234
10
22.9211337
20
84.7503677
40
0.4640625
50
136.783148
51
155.2472683
0
ARC
8
DEFAULT_255_1_234
10
22.8821814
20
84.7834562
40
0.4130255
50
121.7633186
51
136.428115
0
ARC
8
DEFAULT_255_1_234
10
22.8956776
20
84.7585227
40
0.4413323
50
95.6459699
51
121.5490577
0
ARC
8
DEFAULT_255_1_234
10
22.9114058
20
84.6476949
40
0.55319
50
89.924208
51
96.1377933
0
ARC
8
DEFAULT_255_1_234
10
22.9164491
20
84.6595542
40
0.5413475
50
76.6779277
51
90.4563316
0
ARC
8
DEFAULT_255_1_234
10
22.9558114
20
84.8186114
40
0.3775041
50
47.485847
51
76.9287264
0
ARC
8
DEFAULT_255_1_234
10
22.9411087
20
84.8086159
40
0.3948286
50
16.5424086
51
46.8933463
0
ARC
8
DEFAULT_255_1_234
10
22.7803244
20
84.7557861
40
0.564021
50
5.4072051
51
17.0365086
0
ARC
8
DEFAULT_255_1_234
10
22.6364261
20
84.7326679
40
0.5556559
50
7.8891745
51
15.9239216
0
ARC
8
DEFAULT_255_1_234
10
22.8351274
20
84.7903631
40
0.3487515
50
15.7653144
51
27.9410532
0
ARC
8
DEFAULT_255_1_234
10
22.9455492
20
84.849479
40
0.2235026
50
27.8166557
51
46.4008329
0
ARC
8
DEFAULT_255_1_234
10
22.9505135
20
84.8489082
40
0.2205286
50
47.4371857
51
75.0698205
0
ARC
8
DEFAULT_255_1_234
10
22.9196529
20
84.7414765
40
0.3322915
50
74.7008593
51
87.8124495
0
ARC
8
DEFAULT_255_1_234
10
22.9123217
20
84.6358844
40
0.4380987
50
87.3814673
51
90.0240855
0
ARC
8
DEFAULT_255_1_234
10
22.908476
20
84.7536291
40
0.3203749
50
89.3451631
51
108.5745436
0
ARC
8
DEFAULT_255_1_234
10
22.8947865
20
84.8049908
40
0.2673494
50
109.2998449
51
143.3037509
0
ARC
8
DEFAULT_255_1_234
10
22.9709938
20
84.7463881
40
0.3634757
50
143.0753173
51
163.1916937
0
ARC
8
DEFAULT_255_1_234
10
23.1661666
20
84.6847967
40
0.5681262
50
162.9373603
51
174.6208611
0
ARC
8
DEFAULT_255_1_234
10
23.4287708
20
84.656001
40
0.8322832
50
174.3419979
51
180.1430411
0
ARC
8
DEFAULT_255_1_234
10
23.3356864
20
84.5365698
40
0.7392076
50
179.6817502
51
189.150529
0
ARC
8
DEFAULT_255_1_234
10
23.0856112
20
84.494919
40
0.4856932
50
188.9910863
51
203.5773039
0
ARC
8
DEFAULT_255_1_234
10
22.9776445
20
84.4501211
40
0.3688271
50
203.9077269
51
215.1312379
0
ARC
8
DEFAULT_255_1_234
10
22.8853539
20
84.3785941
40
0.2522457
50
213.9071664
51
263.8849284
0
ARC
8
DEFAULT_255_1_234
10
22.8978868
20
84.4570518
40
0.3316174
50
263.1758525
51
270.1031083
0
ARC
8
DEFAULT_255_1_234
10
22.901096
20
84.5817365
40
0.4563091
50
269.6719807
51
279.0609165
0
ARC
8
DEFAULT_255_1_234
10
22.9277728
20
84.4204907
40
0.2928759
50
278.8750225
51
293.6346586
0
ARC
8
DEFAULT_255_1_234
10
22.9597936
20
84.34529
40
0.2111472
50
293.8553404
51
310.0518804
0
ARC
8
DEFAULT_255_1_234
10
22.960279
20
84.3390516
40
0.2060917
50
311.0646779
51
332.0108348
0
ARC
8
DEFAULT_255_1_234
10
22.8410517
20
84.4047978
40
0.3422352
50
331.6588543
51
343.2878891
0
ARC
8
DEFAULT_255_1_234
10
22.6348032
20
84.4681798
40
0.5580003
50
343.1446044
51
351.010618
0
ARC
8
DEFAULT_255_1_234
10
22.4806678
20
84.4962871
40
0.7146438
50
350.7157277
51
351.1602153
0
LINE
8
DEFAULT_255_1_234
10
23.7008542
20
84.5711963
11
23.5819845
21
84.6017169
0
LINE
8
DEFAULT_255_1_234
10
23.5819845
20
84.6017169
11
23.6414194
21
85.1848211
0
LINE
8
DEFAULT_255_1_234
10
23.6414194
20
85.1848211
11
24.2405871
21
85.1848211
0
LINE
8
DEFAULT_255_1_234
10
24.2405871
20
85.1848211
11
24.2405871
21
85.0474784
0
LINE
8
DEFAULT_255_1_234
10
24.2405871
20
85.0474784
11
23.7675177
21
85.0474784
0
LINE
8
DEFAULT_255_1_234
10
23.7675177
20
85.0474784
11
23.732178
21
84.7286184
0
LINE
8
DEFAULT_255_1_234
10
23.5402195
20
84.3230156
11
23.6807749
21
84.3230156
0
LINE
8
DEFAULT_255_1_234
10
23.7402098
20
84.6033232
11
23.7008542
21
84.5711963
0
ARC
8
DEFAULT_255_1_234
10
23.9176564
20
84.410623
40
0.3681349
50
93.7182161
51
120.2538958
0
ARC
8
DEFAULT_255_1_234
10
23.9270827
20
84.3298394
40
0.449379
50
89.9660152
51
94.2496022
0
ARC
8
DEFAULT_255_1_234
10
23.9311561
20
84.3887549
40
0.390482
50
73.8043271
51
90.5585896
0
ARC
8
DEFAULT_255_1_234
10
23.9546458
20
84.4745602
40
0.3015334
50
41.3071453
51
73.5430202
0
ARC
8
DEFAULT_255_1_234
10
23.9130285
20
84.4387324
40
0.3564457
50
13.5075983
51
41.2174222
0
ARC
8
DEFAULT_255_1_234
10
23.7488489
20
84.3957486
40
0.5261351
50
1.1331335
51
13.8829381
0
ARC
8
DEFAULT_255_1_234
10
23.6076858
20
84.3881665
40
0.6674378
50
359.9919444
51
1.544251
0
ARC
8
DEFAULT_255_1_234
10
23.7353684
20
84.384028
40
0.5397702
50
347.8572367
51
0.4293338
0
ARC
8
DEFAULT_255_1_234
10
23.9104002
20
84.3443736
40
0.3603188
50
323.673004
51
348.1672506
0
ARC
8
DEFAULT_255_1_234
10
23.939851
20
84.3264168
40
0.3259678
50
316.8171152
51
323.1492751
0
ARC
8
DEFAULT_255_1_234
10
23.9459699
20
84.322746
40
0.3189975
50
281.8396411
51
316.5457803
0
ARC
8
DEFAULT_255_1_234
10
23.9083963
20
84.4782762
40
0.4789527
50
269.5770101
51
282.4214771
0
ARC
8
DEFAULT_255_1_234
10
23.9012775
20
84.4569125
40
0.45759
50
256.2427136
51
270.4486331
0
ARC
8
DEFAULT_255_1_234
10
23.8713677
20
84.3369229
40
0.3339303
50
228.9023911
51
256.3314342
0
ARC
8
DEFAULT_255_1_234
10
23.8639909
20
84.3252746
40
0.32031
50
193.753695
51
228.5271154
0
ARC
8
DEFAULT_255_1_234
10
23.9877863
20
84.36158
40
0.4492253
50
184.924711
51
194.497588
0
ARC
8
DEFAULT_255_1_234
10
24.007043
20
84.3651591
40
0.3289787
50
187.3600538
51
198.6732863
0
ARC
8
DEFAULT_255_1_234
10
23.9020724
20
84.3287674
40
0.217884
50
198.4451669
51
217.794479
0
ARC
8
DEFAULT_255_1_234
10
23.8724899
20
84.3078085
40
0.1816698
50
218.2887171
51
228.5612368
0
ARC
8
DEFAULT_255_1_234
10
23.8822686
20
84.3209963
40
0.1980329
50
228.9654866
51
258.1234728
0
ARC
8
DEFAULT_255_1_234
10
23.9028396
20
84.4090833
40
0.2884748
50
257.7258293
51
270.401361
0
ARC
8
DEFAULT_255_1_234
10
23.9073283
20
84.3645821
40
0.2439788
50
269.4204404
51
286.4209037
0
ARC
8
DEFAULT_255_1_234
10
23.922177
20
84.3106657
40
0.1880666
50
286.7251356
51
320.600362
0
ARC
8
DEFAULT_255_1_234
10
23.8838595
20
84.3417595
40
0.2374121
50
320.6712579
51
344.5441685
0
ARC
8
DEFAULT_255_1_234
10
23.7681921
20
84.3757045
40
0.3579479
50
344.2412205
51
356.7357071
0
ARC
8
DEFAULT_255_1_234
10
23.643307
20
84.3860444
40
0.4832297
50
356.3548756
51
0.0500261
0
ARC
8
DEFAULT_255_1_234
10
23.7769579
20
84.389165
40
0.3495889
50
359.5576869
51
12.953486
0
ARC
8
DEFAULT_255_1_234
10
23.8824476
20
84.4147434
40
0.2410532
50
12.6490276
51
41.6081334
0
ARC
8
DEFAULT_255_1_234
10
23.9054847
20
84.4343321
40
0.2108218
50
41.7850273
51
85.9892764
0
ARC
8
DEFAULT_255_1_234
10
23.8931584
20
84.3530462
40
0.2928454
50
84.6957577
51
90.0676183
0
ARC
8
DEFAULT_255_1_234
10
23.8908068
20
84.2861716
40
0.3597255
50
89.6804936
51
99.1614436
0
ARC
8
DEFAULT_255_1_234
10
23.8702699
20
84.4089131
40
0.235281
50
98.9830931
51
113.8908934
0
ARC
8
DEFAULT_255_1_234
10
23.8473109
20
84.4630587
40
0.176479
50
114.1950727
51
127.3641004
0
LINE
8
DEFAULT_255_1_234
10
22.1331879
20
93.1223211
11
22.1331879
21
91.9529
0
LINE
8
DEFAULT_255_1_234
10
22.1331879
20
91.9529
11
21.9781753
21
91.9529
0
LINE
8
DEFAULT_255_1_234
10
21.9781753
20
91.9529
11
21.3894489
21
92.854061
0
LINE
8
DEFAULT_255_1_234
10
21.3894489
20
92.854061
11
21.3894489
21
91.9529
0
LINE
8
DEFAULT_255_1_234
10
21.3894489
20
91.9529
11
21.2344364
21
91.9529
0
LINE
8
DEFAULT_255_1_234
10
21.2344364
20
91.9529
11
21.2344364
21
93.1223211
0
LINE
8
DEFAULT_255_1_234
10
21.2344364
20
93.1223211
11
21.3894489
21
93.1223211
0
LINE
8
DEFAULT_255_1_234
10
21.3894489
20
93.1223211
11
21.9797817
21
92.2171442
0
LINE
8
DEFAULT_255_1_234
10
21.9797817
20
92.2171442
11
21.9797817
21
93.1223211
0
LINE
8
DEFAULT_255_1_234
10
21.9797817
20
93.1223211
11
22.1331879
21
93.1223211
0
LINE
8
DEFAULT_255_1_234
10
23.1122568
20
92.3239663
11
23.2672693
21
92.3239663
0
LINE
8
DEFAULT_255_1_234
10
22.3669115
20
92.4829947
11
22.3669115
21
92.5954391
0
LINE
8
DEFAULT_255_1_234
10
23.2672693
20
92.7464357
11
23.1122568
21
92.7464357
0
LINE
8
DEFAULT_255_1_234
10
22.521924
20
92.5914232
11
22.521924
21
92.4781757
0
ARC
8
DEFAULT_255_1_234
10
22.719208
20
92.3836846
40
0.5513052
50
340.1774281
51
353.7814284
0
ARC
8
DEFAULT_255_1_234
10
22.8763432
20
92.3251582
40
0.3836379
50
311.4558989
51
340.4421614
0
ARC
8
DEFAULT_255_1_234
10
22.8730101
20
92.3362528
40
0.3941894
50
282.4333181
51
310.7513653
0
ARC
8
DEFAULT_255_1_234
10
22.829084
20
92.5177679
40
0.5809175
50
269.9358511
51
282.809604
0
ARC
8
DEFAULT_255_1_234
10
22.8238906
20
92.6635212
40
0.7266847
50
270.0021091
51
270.3581957
0
ARC
8
DEFAULT_255_1_234
10
22.8186323
20
92.4034585
40
0.4666519
50
250.7884749
51
270.6489167
0
ARC
8
DEFAULT_255_1_234
10
22.8018158
20
92.3397319
40
0.4009729
50
219.3627325
51
250.0611886
0
ARC
8
DEFAULT_255_1_234
10
22.8847369
20
92.4102042
40
0.5097822
50
193.5479632
51
219.5756669
0
ARC
8
DEFAULT_255_1_234
10
23.1218989
20
92.4717919
40
0.7547848
50
181.1218675
51
193.87563
0
ARC
8
DEFAULT_255_1_234
10
23.3289171
20
92.482858
40
0.9620055
50
179.9918545
51
181.5394234
0
ARC
8
DEFAULT_255_1_234
10
23.1438273
20
92.5991788
40
0.7769248
50
169.5837241
51
180.2757934
0
ARC
8
DEFAULT_255_1_234
10
22.9601211
20
92.6331229
40
0.590109
50
155.0365899
51
169.6003176
0
ARC
8
DEFAULT_255_1_234
10
22.8465675
20
92.6878677
40
0.4640625
50
136.783148
51
155.2472683
0
ARC
8
DEFAULT_255_1_234
10
22.8076152
20
92.7209562
40
0.4130255
50
121.7633186
51
136.428115
0
ARC
8
DEFAULT_255_1_234
10
22.8211114
20
92.6960227
40
0.4413323
50
95.6459699
51
121.5490577
0
ARC
8
DEFAULT_255_1_234
10
22.8368396
20
92.5851949
40
0.55319
50
89.924208
51
96.1377933
0
ARC
8
DEFAULT_255_1_234
10
22.8418828
20
92.5970542
40
0.5413475
50
76.6779277
51
90.4563316
0
ARC
8
DEFAULT_255_1_234
10
22.8812452
20
92.7561114
40
0.3775041
50
47.485847
51
76.9287264
0
ARC
8
DEFAULT_255_1_234
10
22.8665425
20
92.7461159
40
0.3948286
50
16.5424086
51
46.8933463
0
ARC
8
DEFAULT_255_1_234
10
22.7057582
20
92.6932861
40
0.564021
50
5.4072051
51
17.0365086
0
ARC
8
DEFAULT_255_1_234
10
22.5618599
20
92.6701679
40
0.5556559
50
7.8891745
51
15.9239216
0
ARC
8
DEFAULT_255_1_234
10
22.7605612
20
92.7278631
40
0.3487515
50
15.7653144
51
27.9410532
0
ARC
8
DEFAULT_255_1_234
10
22.870983
20
92.786979
40
0.2235026
50
27.8166557
51
46.4008329
0
ARC
8
DEFAULT_255_1_234
10
22.8759473
20
92.7864082
40
0.2205286
50
47.4371857
51
75.0698205
0
ARC
8
DEFAULT_255_1_234
10
22.8450867
20
92.6789765
40
0.3322915
50
74.7008593
51
87.8124495
0
ARC
8
DEFAULT_255_1_234
10
22.8377555
20
92.5733844
40
0.4380987
50
87.3814673
51
90.0240855
0
ARC
8
DEFAULT_255_1_234
10
22.8339098
20
92.6911291
40
0.3203749
50
89.3451631
51
108.5745436
0
ARC
8
DEFAULT_255_1_234
10
22.8202203
20
92.7424908
40
0.2673494
50
109.2998449
51
143.3037509
0
ARC
8
DEFAULT_255_1_234
10
22.8964276
20
92.6838881
40
0.3634757
50
143.0753173
51
163.1916937
0
ARC
8
DEFAULT_255_1_234
10
23.0916003
20
92.6222967
40
0.5681262
50
162.9373603
51
174.6208611
0
ARC
8
DEFAULT_255_1_234
10
23.3542046
20
92.593501
40
0.8322832
50
174.3419979
51
180.1430411
0
ARC
8
DEFAULT_255_1_234
10
23.2611202
20
92.4740698
40
0.7392076
50
179.6817502
51
189.150529
0
ARC
8
DEFAULT_255_1_234
10
23.011045
20
92.432419
40
0.4856932
50
188.9910863
51
203.5773039
0
ARC
8
DEFAULT_255_1_234
10
22.9030783
20
92.3876211
40
0.3688271
50
203.9077269
51
215.1312379
0
ARC
8
DEFAULT_255_1_234
10
22.8107877
20
92.3160941
40
0.2522457
50
213.9071664
51
263.8849284
0
ARC
8
DEFAULT_255_1_234
10
22.8233206
20
92.3945518
40
0.3316174
50
263.1758525
51
270.1031083
0
ARC
8
DEFAULT_255_1_234
10
22.8265297
20
92.5192365
40
0.4563091
50
269.6719807
51
279.0609165
0
ARC
8
DEFAULT_255_1_234
10
22.8532066
20
92.3579907
40
0.2928759
50
278.8750225
51
293.6346586
0
ARC
8
DEFAULT_255_1_234
10
22.8852274
20
92.28279
40
0.2111472
50
293.8553404
51
310.0518804
0
ARC
8
DEFAULT_255_1_234
10
22.8857128
20
92.2765516
40
0.2060917
50
311.0646779
51
332.0108348
0
ARC
8
DEFAULT_255_1_234
10
22.7664854
20
92.3422978
40
0.3422352
50
331.6588543
51
343.2878891
0
ARC
8
DEFAULT_255_1_234
10
22.5602369
20
92.4056798
40
0.5580003
50
343.1446044
51
351.010618
0
ARC
8
DEFAULT_255_1_234
10
22.4061016
20
92.4337871
40
0.7146438
50
350.7157277
51
351.1602153
0
LINE
8
DEFAULT_255_1_234
10
23.626288
20
92.5086963
11
23.5074183
21
92.5392169
0
LINE
8
DEFAULT_255_1_234
10
23.5074183
20
92.5392169
11
23.5668532
21
93.1223211
0
LINE
8
DEFAULT_255_1_234
10
23.5668532
20
93.1223211
11
24.1660208
21
93.1223211
0
LINE
8
DEFAULT_255_1_234
10
24.1660208
20
93.1223211
11
24.1660208
21
92.9849784
0
LINE
8
DEFAULT_255_1_234
10
24.1660208
20
92.9849784
11
23.6929515
21
92.9849784
0
LINE
8
DEFAULT_255_1_234
10
23.6929515
20
92.9849784
11
23.6576118
21
92.6661184
0
LINE
8
DEFAULT_255_1_234
10
23.4656533
20
92.2605156
11
23.6062087
21
92.2605156
0
LINE
8
DEFAULT_255_1_234
10
23.6656436
20
92.5408232
11
23.626288
21
92.5086963
0
ARC
8
DEFAULT_255_1_234
10
23.8430902
20
92.348123
40
0.3681349
50
93.7182161
51
120.2538958
0
ARC
8
DEFAULT_255_1_234
10
23.8525165
20
92.2673394
40
0.449379
50
89.9660152
51
94.2496022
0
ARC
8
DEFAULT_255_1_234
10
23.8565899
20
92.3262549
40
0.390482
50
73.8043271
51
90.5585896
0
ARC
8
DEFAULT_255_1_234
10
23.8800796
20
92.4120602
40
0.3015334
50
41.3071453
51
73.5430202
0
ARC
8
DEFAULT_255_1_234
10
23.8384623
20
92.3762324
40
0.3564457
50
13.5075983
51
41.2174222
0
ARC
8
DEFAULT_255_1_234
10
23.6742827
20
92.3332486
40
0.5261351
50
1.1331335
51
13.8829381
0
ARC
8
DEFAULT_255_1_234
10
23.5331196
20
92.3256665
40
0.6674378
50
359.9919444
51
1.544251
0
ARC
8
DEFAULT_255_1_234
10
23.6608022
20
92.321528
40
0.5397702
50
347.8572367
51
0.4293338
0
ARC
8
DEFAULT_255_1_234
10
23.835834
20
92.2818736
40
0.3603188
50
323.673004
51
348.1672506
0
ARC
8
DEFAULT_255_1_234
10
23.8652848
20
92.2639168
40
0.3259678
50
316.8171152
51
323.1492751
0
ARC
8
DEFAULT_255_1_234
10
23.8714037
20
92.260246
40
0.3189975
50
281.8396411
51
316.5457803
0
ARC
8
DEFAULT_255_1_234
10
23.8338301
20
92.4157762
40
0.4789527
50
269.5770101
51
282.4214771
0
ARC
8
DEFAULT_255_1_234
10
23.8267112
20
92.3944125
40
0.45759
50
256.2427136
51
270.4486331
0
ARC
8
DEFAULT_255_1_234
10
23.7968015
20
92.2744229
40
0.3339303
50
228.9023911
51
256.3314342
0
ARC
8
DEFAULT_255_1_234
10
23.7894247
20
92.2627746
40
0.32031
50
193.753695
51
228.5271154
0
ARC
8
DEFAULT_255_1_234
10
23.9132201
20
92.29908
40
0.4492253
50
184.924711
51
194.497588
0
ARC
8
DEFAULT_255_1_234
10
23.9324768
20
92.3026591
40
0.3289787
50
187.3600538
51
198.6732863
0
ARC
8
DEFAULT_255_1_234
10
23.8275062
20
92.2662674
40
0.217884
50
198.4451669
51
217.794479
0
ARC
8
DEFAULT_255_1_234
10
23.7979237
20
92.2453085
40
0.1816698
50
218.2887171
51
228.5612368
0
ARC
8
DEFAULT_255_1_234
10
23.8077024
20
92.2584963
40
0.1980329
50
228.9654866
51
258.1234728
0
ARC
8
DEFAULT_255_1_234
10
23.8282734
20
92.3465833
40
0.2884748
50
257.7258293
51
270.401361
0
ARC
8
DEFAULT_255_1_234
10
23.832762
20
92.3020821
40
0.2439788
50
269.4204404
51
286.4209037
0
ARC
8
DEFAULT_255_1_234
10
23.8476108
20
92.2481657
40
0.1880666
50
286.7251356
51
320.600362
0
ARC
8
DEFAULT_255_1_234
10
23.8092933
20
92.2792595
40
0.2374121
50
320.6712579
51
344.5441685
0
ARC
8
DEFAULT_255_1_234
10
23.6936259
20
92.3132045
40
0.3579479
50
344.2412205
51
356.7357071
0
ARC
8
DEFAULT_255_1_234
10
23.5687408
20
92.3235444
40
0.4832297
50
356.3548756
51
0.0500261
0
ARC
8
DEFAULT_255_1_234
10
23.7023917
20
92.326665
40
0.3495889
50
359.5576869
51
12.953486
0
ARC
8
DEFAULT_255_1_234
10
23.8078814
20
92.3522434
40
0.2410532
50
12.6490276
51
41.6081334
0
ARC
8
DEFAULT_255_1_234
10
23.8309185
20
92.3718321
40
0.2108218
50
41.7850273
51
85.9892764
0
ARC
8
DEFAULT_255_1_234
10
23.8185922
20
92.2905462
40
0.2928454
50
84.6957577
51
90.0676183
0
ARC
8
DEFAULT_255_1_234
10
23.8162406
20
92.2236716
40
0.3597255
50
89.6804936
51
99.1614436
0
ARC
8
DEFAULT_255_1_234
10
23.7957037
20
92.3464131
40
0.235281
50
98.9830931
51
113.8908934
0
ARC
8
DEFAULT_255_1_234
10
23.7727447
20
92.4005587
40
0.176479
50
114.1950727
51
127.3641004
0
LINE
8
DEFAULT_255_1_234
10
21.9631879
20
101.0598211
11
21.9631879
21
99.8904
0
LINE
8
DEFAULT_255_1_234
10
21.9631879
20
99.8904
11
21.8081753
21
99.8904
0
LINE
8
DEFAULT_255_1_234
10
21.8081753
20
99.8904
11
21.2194489
21
100.791561
0
LINE
8
DEFAULT_255_1_234
10
21.2194489
20
100.791561
11
21.2194489
21
99.8904
0
LINE
8
DEFAULT_255_1_234
10
21.2194489
20
99.8904
11
21.0644364
21
99.8904
0
LINE
8
DEFAULT_255_1_234
10
21.0644364
20
99.8904
11
21.0644364
21
101.0598211
0
LINE
8
DEFAULT_255_1_234
10
21.0644364
20
101.0598211
11
21.2194489
21
101.0598211
0
LINE
8
DEFAULT_255_1_234
10
21.2194489
20
101.0598211
11
21.8097817
21
100.1546442
0
LINE
8
DEFAULT_255_1_234
10
21.8097817
20
100.1546442
11
21.8097817
21
101.0598211
0
LINE
8
DEFAULT_255_1_234
10
21.8097817
20
101.0598211
11
21.9631879
21
101.0598211
0
LINE
8
DEFAULT_255_1_234
10
23.1366249
20
100.5112534
11
23.1366249
21
100.4373614
0
LINE
8
DEFAULT_255_1_234
10
22.1961083
20
100.4269201
11
22.1961083
21
100.5112534
0
LINE
8
DEFAULT_255_1_234
10
22.9832187
20
100.4261169
11
22.9832187
21
100.5128597
0
LINE
8
DEFAULT_255_1_234
10
22.3495145
20
100.523301
11
22.3495145
21
100.4373614
0
ARC
8
DEFAULT_255_1_234
10
22.2724275
20
100.4334015
40
0.8642064
50
350.487711
51
0.2625388
0
ARC
8
DEFAULT_255_1_234
10
22.5017516
20
100.3939578
40
0.631518
50
336.0277639
51
350.5787438
0
ARC
8
DEFAULT_255_1_234
10
22.636234
20
100.3331892
40
0.4839466
50
319.8877444
51
336.1328423
0
ARC
8
DEFAULT_255_1_234
10
22.696498
20
100.284958
40
0.4067874
50
302.4806467
51
319.6143626
0
ARC
8
DEFAULT_255_1_234
10
22.6849991
20
100.3071202
40
0.4316636
50
275.8195682
51
302.1884709
0
ARC
8
DEFAULT_255_1_234
10
22.6683624
20
100.4213665
40
0.5470306
50
269.9171439
51
276.3397983
0
ARC
8
DEFAULT_255_1_234
10
22.6638834
20
100.3527681
40
0.4784458
50
252.5219675
51
270.4416499
0
ARC
8
DEFAULT_255_1_234
10
22.6495093
20
100.2988592
40
0.422716
50
237.5352116
51
252.1857531
0
ARC
8
DEFAULT_255_1_234
10
22.6584289
20
100.3102363
40
0.4371052
50
209.063312
51
237.3492538
0
ARC
8
DEFAULT_255_1_234
10
22.7454137
20
100.3648685
40
0.5397041
50
205.1183774
51
209.6470015
0
ARC
8
DEFAULT_255_1_234
10
22.8251174
20
100.398683
40
0.6262326
50
188.7215458
51
204.8240747
0
ARC
8
DEFAULT_255_1_234
10
23.0248702
20
100.4323067
40
0.8287794
50
180.3723947
51
188.9252049
0
ARC
8
DEFAULT_255_1_234
10
23.0221453
20
100.5152402
40
0.8260467
50
169.5253763
51
180.2765336
0
ARC
8
DEFAULT_255_1_234
10
22.8318902
20
100.5502309
40
0.6326007
50
155.8315255
51
169.5089989
0
ARC
8
DEFAULT_255_1_234
10
22.7038404
20
100.6096348
40
0.4914567
50
139.6258461
51
156.0379525
0
ARC
8
DEFAULT_255_1_234
10
22.6448737
20
100.6570799
40
0.4158054
50
122.6416387
51
139.3430715
0
ARC
8
DEFAULT_255_1_234
10
22.6549357
20
100.6387451
40
0.4366739
50
93.0223692
51
122.455762
0
ARC
8
DEFAULT_255_1_234
10
22.6657353
20
100.5422709
40
0.5336137
50
89.975342
51
93.6341897
0
ARC
8
DEFAULT_255_1_234
10
22.6696133
20
100.5821242
40
0.4937738
50
73.746375
51
90.4233405
0
ARC
8
DEFAULT_255_1_234
10
22.6871711
20
100.6501287
40
0.4235786
50
57.662753
51
73.4518111
0
ARC
8
DEFAULT_255_1_234
10
22.6863718
20
100.6522832
40
0.4221899
50
29.1440151
51
57.414694
0
ARC
8
DEFAULT_255_1_234
10
22.5928912
20
100.5939005
40
0.5322966
50
24.0982783
51
29.7323517
0
ARC
8
DEFAULT_255_1_234
10
22.4895188
20
100.5510399
40
0.6441673
50
8.6655297
51
23.8241346
0
ARC
8
DEFAULT_255_1_234
10
22.2660926
20
100.5145854
40
0.8705386
50
359.7806941
51
8.8218784
0
ARC
8
DEFAULT_255_1_234
10
22.1513924
20
100.5171345
40
0.8318373
50
359.7055579
51
8.036044
0
ARC
8
DEFAULT_255_1_234
10
22.451393
20
100.5608239
40
0.5286768
50
7.8928306
51
20.2962107
0
ARC
8
DEFAULT_255_1_234
10
22.61415
20
100.6208395
40
0.3552073
50
20.3231126
51
36.4992797
0
ARC
8
DEFAULT_255_1_234
10
22.6827046
20
100.6736402
40
0.2686974
50
36.1437156
51
85.6627023
0
ARC
8
DEFAULT_255_1_234
10
22.6664592
20
100.5696221
40
0.373739
50
84.3852322
51
90.0757696
0
ARC
8
DEFAULT_255_1_234
10
22.6622265
20
100.6356839
40
0.3076997
50
89.3038458
51
109.9045693
0
ARC
8
DEFAULT_255_1_234
10
22.6529656
20
100.6739062
40
0.2686424
50
110.8228367
51
143.9179474
0
ARC
8
DEFAULT_255_1_234
10
22.7463316
20
100.6026236
40
0.3860887
50
143.5289163
51
163.2980757
0
ARC
8
DEFAULT_255_1_234
10
22.9371137
20
100.5426433
40
0.5860659
50
163.0418846
51
174.3140048
0
ARC
8
DEFAULT_255_1_234
10
23.1775249
20
100.5148854
40
0.8280531
50
174.0509143
51
179.4176892
0
ARC
8
DEFAULT_255_1_234
10
23.1270988
20
100.4331954
40
0.7775954
50
179.6930361
51
188.7906598
0
ARC
8
DEFAULT_255_1_234
10
22.8607467
20
100.3905935
40
0.5078633
50
188.6331305
51
202.5629587
0
ARC
8
DEFAULT_255_1_234
10
22.7353058
20
100.3401996
40
0.3726913
50
202.8081362
51
216.1193925
0
ARC
8
DEFAULT_255_1_234
10
22.6543629
20
100.2750676
40
0.2689577
50
215.0755913
51
264.6379694
0
ARC
8
DEFAULT_255_1_234
10
22.6670578
20
100.3581513
40
0.3528978
50
263.846392
51
270.0833719
0
ARC
8
DEFAULT_255_1_234
10
22.6711969
20
100.3323374
40
0.3271036
50
269.3649385
51
287.5152008
0
ARC
8
DEFAULT_255_1_234
10
22.6890126
20
100.2676238
40
0.2600406
50
288.0630309
51
323.8113348
0
ARC
8
DEFAULT_255_1_234
10
22.6018968
20
100.3326049
40
0.3687189
50
323.6547608
51
342.6590488
0
ARC
8
DEFAULT_255_1_234
10
22.3987583
20
100.3986952
40
0.5823286
50
342.4091907
51
353.6451149
0
ARC
8
DEFAULT_255_1_234
10
22.1156094
20
100.433919
40
0.8676442
50
353.4029884
51
359.4847795
0
LINE
8
DEFAULT_255_1_234
10
23.9566653
20
101.0598211
11
23.9566653
21
100.283152
0
LINE
8
DEFAULT_255_1_234
10
23.9566653
20
100.283152
11
24.1189064
21
100.283152
0
LINE
8
DEFAULT_255_1_234
10
24.1189064
20
100.283152
11
24.1189064
21
100.1618728
0
LINE
8
DEFAULT_255_1_234
10
24.1189064
20
100.1618728
11
23.9566653
21
100.1618728
0
LINE
8
DEFAULT_255_1_234
10
23.9566653
20
100.1618728
11
23.9566653
21
99.8904
0
LINE
8
DEFAULT_255_1_234
10
23.9566653
20
99.8904
11
23.807275
21
99.8904
0
LINE
8
DEFAULT_255_1_234
10
23.807275
20
99.8904
11
23.807275
21
100.1618728
0
LINE
8
DEFAULT_255_1_234
10
23.807275
20
100.1618728
11
23.2747708
21
100.1618728
0
LINE
8
DEFAULT_255_1_234
10
23.2747708
20
100.1618728
11
23.2747708
21
100.2494187
0
LINE
8
DEFAULT_255_1_234
10
23.2747708
20
100.2494187
11
23.7984401
21
101.0598211
0
LINE
8
DEFAULT_255_1_234
10
23.7984401
20
101.0598211
11
23.9566653
21
101.0598211
0
LINE
8
DEFAULT_255_1_234
10
23.7896052
20
100.8244912
11
23.4434373
21
100.283152
0
LINE
8
DEFAULT_255_1_234
10
23.4434373
20
100.283152
11
23.807275
21
100.283152
0
LINE
8
DEFAULT_255_1_234
10
23.807275
20
100.283152
11
23.807275
21
100.8566181
0
LINE
8
DEFAULT_255_1_234
10
23.807275
20
100.8566181
11
23.7896052
21
100.8244912
0
LINE
8
DEFAULT_255_1_234
10
23.081023
20
108.1989663
11
23.2360355
21
108.1989663
0
LINE
8
DEFAULT_255_1_234
10
22.3356777
20
108.3579947
11
22.3356777
21
108.4704391
0
LINE
8
DEFAULT_255_1_234
10
23.2360355
20
108.6214357
11
23.081023
21
108.6214357
0
LINE
8
DEFAULT_255_1_234
10
22.4906902
20
108.4664232
11
22.4906902
21
108.3531757
0
ARC
8
DEFAULT_255_1_234
10
22.6879742
20
108.2586846
40
0.5513052
50
340.1774281
51
353.7814284
0
ARC
8
DEFAULT_255_1_234
10
22.8451095
20
108.2001582
40
0.3836379
50
311.4558989
51
340.4421614
0
ARC
8
DEFAULT_255_1_234
10
22.8417763
20
108.2112528
40
0.3941894
50
282.4333181
51
310.7513653
0
ARC
8
DEFAULT_255_1_234
10
22.7978502
20
108.3927679
40
0.5809175
50
269.9358511
51
282.809604
0
ARC
8
DEFAULT_255_1_234
10
22.7926568
20
108.5385212
40
0.7266847
50
270.0021091
51
270.3581957
0
ARC
8
DEFAULT_255_1_234
10
22.7873985
20
108.2784585
40
0.4666519
50
250.7884749
51
270.6489167
0
ARC
8
DEFAULT_255_1_234
10
22.770582
20
108.2147319
40
0.4009729
50
219.3627325
51
250.0611886
0
ARC
8
DEFAULT_255_1_234
10
22.8535031
20
108.2852042
40
0.5097822
50
193.5479632
51
219.5756669
0
ARC
8
DEFAULT_255_1_234
10
23.0906652
20
108.3467919
40
0.7547848
50
181.1218675
51
193.87563
0
ARC
8
DEFAULT_255_1_234
10
23.2976833
20
108.357858
40
0.9620055
50
179.9918545
51
181.5394234
0
ARC
8
DEFAULT_255_1_234
10
23.1125935
20
108.4741788
40
0.7769248
50
169.5837241
51
180.2757934
0
ARC
8
DEFAULT_255_1_234
10
22.9288873
20
108.5081229
40
0.590109
50
155.0365899
51
169.6003176
0
ARC
8
DEFAULT_255_1_234
10
22.8153337
20
108.5628677
40
0.4640625
50
136.783148
51
155.2472683
0
ARC
8
DEFAULT_255_1_234
10
22.7763814
20
108.5959562
40
0.4130255
50
121.7633186
51
136.428115
0
ARC
8
DEFAULT_255_1_234
10
22.7898776
20
108.5710227
40
0.4413323
50
95.6459699
51
121.5490577
0
ARC
8
DEFAULT_255_1_234
10
22.8056058
20
108.4601949
40
0.55319
50
89.924208
51
96.1377933
0
ARC
8
DEFAULT_255_1_234
10
22.8106491
20
108.4720542
40
0.5413475
50
76.6779277
51
90.4563316
0
ARC
8
DEFAULT_255_1_234
10
22.8500114
20
108.6311114
40
0.3775041
50
47.485847
51
76.9287264
0
ARC
8
DEFAULT_255_1_234
10
22.8353087
20
108.6211159
40
0.3948286
50
16.5424086
51
46.8933463
0
ARC
8
DEFAULT_255_1_234
10
22.6745244
20
108.5682861
40
0.564021
50
5.4072051
51
17.0365086
0
ARC
8
DEFAULT_255_1_234
10
22.5306261
20
108.5451679
40
0.5556559
50
7.8891745
51
15.9239216
0
ARC
8
DEFAULT_255_1_234
10
22.7293274
20
108.6028631
40
0.3487515
50
15.7653144
51
27.9410532
0
ARC
8
DEFAULT_255_1_234
10
22.8397492
20
108.661979
40
0.2235026
50
27.8166557
51
46.4008329
0
ARC
8
DEFAULT_255_1_234
10
22.8447135
20
108.6614082
40
0.2205286
50
47.4371857
51
75.0698205
0
ARC
8
DEFAULT_255_1_234
10
22.8138529
20
108.5539765
40
0.3322915
50
74.7008593
51
87.8124495
0
ARC
8
DEFAULT_255_1_234
10
22.8065217
20
108.4483844
40
0.4380987
50
87.3814673
51
90.0240855
0
ARC
8
DEFAULT_255_1_234
10
22.802676
20
108.5661291
40
0.3203749
50
89.3451631
51
108.5745436
0
ARC
8
DEFAULT_255_1_234
10
22.7889865
20
108.6174908
40
0.2673494
50
109.2998449
51
143.3037509
0
ARC
8
DEFAULT_255_1_234
10
22.8651938
20
108.5588881
40
0.3634757
50
143.0753173
51
163.1916937
0
ARC
8
DEFAULT_255_1_234
10
23.0603666
20
108.4972967
40
0.5681262
50
162.9373603
51
174.6208611
0
ARC
8
DEFAULT_255_1_234
10
23.3229708
20
108.468501
40
0.8322832
50
174.3419979
51
180.1430411
0
ARC
8
DEFAULT_255_1_234
10
23.2298864
20
108.3490698
40
0.7392076
50
179.6817502
51
189.150529
0
ARC
8
DEFAULT_255_1_234
10
22.9798112
20
108.307419
40
0.4856932
50
188.9910863
51
203.5773039
0
ARC
8
DEFAULT_255_1_234
10
22.8718445
20
108.2626211
40
0.3688271
50
203.9077269
51
215.1312379
0
ARC
8
DEFAULT_255_1_234
10
22.7795539
20
108.1910941
40
0.2522457
50
213.9071664
51
263.8849284
0
ARC
8
DEFAULT_255_1_234
10
22.7920868
20
108.2695518
40
0.3316174
50
263.1758525
51
270.1031083
0
ARC
8
DEFAULT_255_1_234
10
22.795296
20
108.3942365
40
0.4563091
50
269.6719807
51
279.0609165
0
ARC
8
DEFAULT_255_1_234
10
22.8219728
20
108.2329907
40
0.2928759
50
278.8750225
51
293.6346586
0
ARC
8
DEFAULT_255_1_234
10
22.8539936
20
108.15779
40
0.2111472
50
293.8553404
51
310.0518804
0
ARC
8
DEFAULT_255_1_234
10
22.854479
20
108.1515516
40
0.2060917
50
311.0646779
51
332.0108348
0
ARC
8
DEFAULT_255_1_234
10
22.7352517
20
108.2172978
40
0.3422352
50
331.6588543
51
343.2878891
0
ARC
8
DEFAULT_255_1_234
10
22.5290032
20
108.2806798
40
0.5580003
50
343.1446044
51
351.010618
0
ARC
8
DEFAULT_255_1_234
10
22.3748678
20
108.3087871
40
0.7146438
50
350.7157277
51
351.1602153
0
LINE
8
DEFAULT_255_1_234
10
24.0351935
20
108.9973211
11
24.0351935
21
108.220652
0
LINE
8
DEFAULT_255_1_234
10
24.0351935
20
108.220652
11
24.1974346
21
108.220652
0
LINE
8
DEFAULT_255_1_234
10
24.1974346
20
108.220652
11
24.1974346
21
108.0993728
0
LINE
8
DEFAULT_255_1_234
10
24.1974346
20
108.0993728
11
24.0351935
21
108.0993728
0
LINE
8
DEFAULT_255_1_234
10
24.0351935
20
108.0993728
11
24.0351935
21
107.8279
0
LINE
8
DEFAULT_255_1_234
10
24.0351935
20
107.8279
11
23.8858032
21
107.8279
0
LINE
8
DEFAULT_255_1_234
10
23.8858032
20
107.8279
11
23.8858032
21
108.0993728
0
LINE
8
DEFAULT_255_1_234
10
23.8858032
20
108.0993728
11
23.3532989
21
108.0993728
0
LINE
8
DEFAULT_255_1_234
10
23.3532989
20
108.0993728
11
23.3532989
21
108.1869187
0
LINE
8
DEFAULT_255_1_234
10
23.3532989
20
108.1869187
11
23.8769683
21
108.9973211
0
LINE
8
DEFAULT_255_1_234
10
23.8769683
20
108.9973211
11
24.0351935
21
108.9973211
0
LINE
8
DEFAULT_255_1_234
10
23.8681333
20
108.7619912
11
23.5219654
21
108.220652
0
LINE
8
DEFAULT_255_1_234
10
23.5219654
20
108.220652
11
23.8858032
21
108.220652
0
LINE
8
DEFAULT_255_1_234
10
23.8858032
20
108.220652
11
23.8858032
21
108.7941181
0
LINE
8
DEFAULT_255_1_234
10
23.8858032
20
108.7941181
11
23.8681333
21
108.7619912
0
LINE
8
DEFAULT_255_1_234
10
22.0689879
20
116.9348211
11
22.0689879
21
115.7654
0
LINE
8
DEFAULT_255_1_234
10
22.0689879
20
115.7654
11
21.9139753
21
115.7654
0
LINE
8
DEFAULT_255_1_234
10
21.9139753
20
115.7654
11
21.3252489
21
116.666561
0
LINE
8
DEFAULT_255_1_234
10
21.3252489
20
116.666561
11
21.3252489
21
115.7654
0
LINE
8
DEFAULT_255_1_234
10
21.3252489
20
115.7654
11
21.1702364
21
115.7654
0
LINE
8
DEFAULT_255_1_234
10
21.1702364
20
115.7654
11
21.1702364
21
116.9348211
0
LINE
8
DEFAULT_255_1_234
10
21.1702364
20
116.9348211
11
21.3252489
21
116.9348211
0
LINE
8
DEFAULT_255_1_234
10
21.3252489
20
116.9348211
11
21.9155817
21
116.0296442
0
LINE
8
DEFAULT_255_1_234
10
21.9155817
20
116.0296442
11
21.9155817
21
116.9348211
0
LINE
8
DEFAULT_255_1_234
10
21.9155817
20
116.9348211
11
22.0689879
21
116.9348211
0
LINE
8
DEFAULT_255_1_234
10
23.2424249
20
116.3862534
11
23.2424249
21
116.3123614
0
LINE
8
DEFAULT_255_1_234
10
22.3019083
20
116.3019201
11
22.3019083
21
116.3862534
0
LINE
8
DEFAULT_255_1_234
10
23.0890187
20
116.3011169
11
23.0890187
21
116.3878597
0
LINE
8
DEFAULT_255_1_234
10
22.4553145
20
116.398301
11
22.4553145
21
116.3123614
0
ARC
8
DEFAULT_255_1_234
10
22.3782275
20
116.3084015
40
0.8642064
50
350.487711
51
0.2625388
0
ARC
8
DEFAULT_255_1_234
10
22.6075516
20
116.2689578
40
0.631518
50
336.0277639
51
350.5787438
0
ARC
8
DEFAULT_255_1_234
10
22.742034
20
116.2081892
40
0.4839466
50
319.8877444
51
336.1328423
0
ARC
8
DEFAULT_255_1_234
10
22.802298
20
116.159958
40
0.4067874
50
302.4806467
51
319.6143626
0
ARC
8
DEFAULT_255_1_234
10
22.7907991
20
116.1821202
40
0.4316636
50
275.8195682
51
302.1884709
0
ARC
8
DEFAULT_255_1_234
10
22.7741624
20
116.2963665
40
0.5470306
50
269.9171439
51
276.3397983
0
ARC
8
DEFAULT_255_1_234
10
22.7696834
20
116.2277681
40
0.4784458
50
252.5219675
51
270.4416499
0
ARC
8
DEFAULT_255_1_234
10
22.7553093
20
116.1738592
40
0.422716
50
237.5352116
51
252.1857531
0
ARC
8
DEFAULT_255_1_234
10
22.7642289
20
116.1852363
40
0.4371052
50
209.063312
51
237.3492538
0
ARC
8
DEFAULT_255_1_234
10
22.8512137
20
116.2398685
40
0.5397041
50
205.1183774
51
209.6470015
0
ARC
8
DEFAULT_255_1_234
10
22.9309174
20
116.273683
40
0.6262326
50
188.7215458
51
204.8240747
0
ARC
8
DEFAULT_255_1_234
10
23.1306702
20
116.3073067
40
0.8287794
50
180.3723947
51
188.9252049
0
ARC
8
DEFAULT_255_1_234
10
23.1279453
20
116.3902402
40
0.8260467
50
169.5253763
51
180.2765336
0
ARC
8
DEFAULT_255_1_234
10
22.9376902
20
116.4252309
40
0.6326007
50
155.8315255
51
169.5089989
0
ARC
8
DEFAULT_255_1_234
10
22.8096404
20
116.4846348
40
0.4914567
50
139.6258461
51
156.0379525
0
ARC
8
DEFAULT_255_1_234
10
22.7506737
20
116.5320799
40
0.4158054
50
122.6416387
51
139.3430715
0
ARC
8
DEFAULT_255_1_234
10
22.7607357
20
116.5137451
40
0.4366739
50
93.0223692
51
122.455762
0
ARC
8
DEFAULT_255_1_234
10
22.7715353
20
116.4172709
40
0.5336137
50
89.975342
51
93.6341897
0
ARC
8
DEFAULT_255_1_234
10
22.7754133
20
116.4571242
40
0.4937738
50
73.746375
51
90.4233405
0
ARC
8
DEFAULT_255_1_234
10
22.7929711
20
116.5251287
40
0.4235786
50
57.662753
51
73.4518111
0
ARC
8
DEFAULT_255_1_234
10
22.7921718
20
116.5272832
40
0.4221899
50
29.1440151
51
57.414694
0
ARC
8
DEFAULT_255_1_234
10
22.6986912
20
116.4689005
40
0.5322966
50
24.0982783
51
29.7323517
0
ARC
8
DEFAULT_255_1_234
10
22.5953188
20
116.4260399
40
0.6441673
50
8.6655297
51
23.8241346
0
ARC
8
DEFAULT_255_1_234
10
22.3718926
20
116.3895854
40
0.8705386
50
359.7806941
51
8.8218784
0
ARC
8
DEFAULT_255_1_234
10
22.2571924
20
116.3921345
40
0.8318373
50
359.7055579
51
8.036044
0
ARC
8
DEFAULT_255_1_234
10
22.557193
20
116.4358239
40
0.5286768
50
7.8928306
51
20.2962107
0
ARC
8
DEFAULT_255_1_234
10
22.71995
20
116.4958395
40
0.3552073
50
20.3231126
51
36.4992797
0
ARC
8
DEFAULT_255_1_234
10
22.7885046
20
116.5486402
40
0.2686974
50
36.1437156
51
85.6627023
0
ARC
8
DEFAULT_255_1_234
10
22.7722592
20
116.4446221
40
0.373739
50
84.3852322
51
90.0757696
0
ARC
8
DEFAULT_255_1_234
10
22.7680265
20
116.5106839
40
0.3076997
50
89.3038458
51
109.9045693
0
ARC
8
DEFAULT_255_1_234
10
22.7587656
20
116.5489062
40
0.2686424
50
110.8228367
51
143.9179474
0
ARC
8
DEFAULT_255_1_234
10
22.8521316
20
116.4776236
40
0.3860887
50
143.5289163
51
163.2980757
0
ARC
8
DEFAULT_255_1_234
10
23.0429137
20
116.4176433
40
0.5860659
50
163.0418846
51
174.3140048
0
ARC
8
DEFAULT_255_1_234
10
23.2833249
20
116.3898854
40
0.8280531
50
174.0509143
51
179.4176892
0
ARC
8
DEFAULT_255_1_234
10
23.2328988
20
116.3081954
40
0.7775954
50
179.6930361
51
188.7906598
0
ARC
8
DEFAULT_255_1_234
10
22.9665467
20
116.2655935
40
0.5078633
50
188.6331305
51
202.5629587
0
ARC
8
DEFAULT_255_1_234
10
22.8411058
20
116.2151996
40
0.3726913
50
202.8081362
51
216.1193925
0
ARC
8
DEFAULT_255_1_234
10
22.7601629
20
116.1500676
40
0.2689577
50
215.0755913
51
264.6379694
0
ARC
8
DEFAULT_255_1_234
10
22.7728578
20
116.2331513
40
0.3528978
50
263.846392
51
270.0833719
0
ARC
8
DEFAULT_255_1_234
10
22.7769969
20
116.2073374
40
0.3271036
50
269.3649385
51
287.5152008
0
ARC
8
DEFAULT_255_1_234
10
22.7948126
20
116.1426238
40
0.2600406
50
288.0630309
51
323.8113348
0
ARC
8
DEFAULT_255_1_234
10
22.7076968
20
116.2076049
40
0.3687189
50
323.6547608
51
342.6590488
0
ARC
8
DEFAULT_255_1_234
10
22.5045583
20
116.2736952
40
0.5823286
50
342.4091907
51
353.6451149
0
ARC
8
DEFAULT_255_1_234
10
22.2214094
20
116.308919
40
0.8676442
50
353.4029884
51
359.4847795
0
LINE
8
DEFAULT_255_1_234
10
23.6512403
20
116.3011169
11
23.6512403
21
116.4223962
0
LINE
8
DEFAULT_255_1_234
10
23.6512403
20
116.4223962
11
23.7628815
21
116.4223962
0
LINE
8
DEFAULT_255_1_234
10
23.5725293
20
116.6280087
11
23.4239421
21
116.6280087
0
LINE
8
DEFAULT_255_1_234
10
23.4135009
20
116.0738188
11
23.5628912
21
116.0738188
0
LINE
8
DEFAULT_255_1_234
10
23.7628815
20
116.3011169
11
23.6512403
21
116.3011169
0
ARC
8
DEFAULT_255_1_234
10
23.7599681
20
116.7616713
40
0.3392876
50
270.4919872
51
281.8951556
0
ARC
8
DEFAULT_255_1_234
10
23.7840943
20
116.6514702
40
0.2264817
50
281.6691735
51
301.2943132
0
ARC
8
DEFAULT_255_1_234
10
23.8011153
20
116.6203304
40
0.1910381
50
301.7833094
51
311.7545298
0
ARC
8
DEFAULT_255_1_234
10
23.8102729
20
116.6101748
40
0.1773635
50
311.7323931
51
354.2802411
0
ARC
8
DEFAULT_255_1_234
10
23.7376354
20
116.6226722
40
0.2509385
50
353.0937916
51
0.1181479
0
ARC
8
DEFAULT_255_1_234
10
23.6915139
20
116.6274386
40
0.2970898
50
359.1805295
51
15.0453146
0
ARC
8
DEFAULT_255_1_234
10
23.8260976
20
116.6666992
40
0.1569564
50
13.9577229
51
77.6713066
0
ARC
8
DEFAULT_255_1_234
10
23.7874505
20
116.5281949
40
0.3006298
50
76.1116566
51
90.7026153
0
ARC
8
DEFAULT_255_1_234
10
23.7815344
20
116.5555545
40
0.2732568
50
89.5324876
51
103.531937
0
ARC
8
DEFAULT_255_1_234
10
23.7614788
20
116.6354884
40
0.1908508
50
103.2931773
51
133.5619022
0
ARC
8
DEFAULT_255_1_234
10
23.7570276
20
116.6414375
40
0.1834746
50
133.8349307
51
173.5344437
0
ARC
8
DEFAULT_255_1_234
10
23.8293319
20
116.6286213
40
0.2568033
50
172.5096846
51
180.1366907
0
ARC
8
DEFAULT_255_1_234
10
23.7342213
20
116.6320622
40
0.3103056
50
155.3484492
51
180.7484736
0
ARC
8
DEFAULT_255_1_234
10
23.7293302
20
116.6291846
40
0.3070957
50
131.5744599
51
154.4798489
0
ARC
8
DEFAULT_255_1_234
10
23.760645
20
116.597531
40
0.3515643
50
96.9875458
51
131.9690667
0
ARC
8
DEFAULT_255_1_234
10
23.7825929
20
116.4729636
40
0.4779224
50
89.8596053
51
97.7825159
0
ARC
8
DEFAULT_255_1_234
10
23.7873993
20
116.4467616
40
0.5041361
50
78.3655447
51
90.4131539
0
ARC
8
DEFAULT_255_1_234
10
23.823191
20
116.6126887
40
0.3344039
50
56.6229102
51
78.638727
0
ARC
8
DEFAULT_255_1_234
10
23.8446854
20
116.6502805
40
0.2912001
50
47.0253525
51
56.0854072
0
ARC
8
DEFAULT_255_1_234
10
23.8466634
20
116.6542223
40
0.2869704
50
10.9208013
51
46.7778124
0
ARC
8
DEFAULT_255_1_234
10
23.7102701
20
116.6226857
40
0.426899
50
359.6364486
51
11.6087304
0
ARC
8
DEFAULT_255_1_234
10
23.8937545
20
116.6211752
40
0.243409
50
332.3549906
51
359.7179418
0
ARC
8
DEFAULT_255_1_234
10
23.8287146
20
116.6520142
40
0.3153459
50
325.2333722
51
332.8745602
0
ARC
8
DEFAULT_255_1_234
10
23.843977
20
116.6413828
40
0.2967456
50
292.9802137
51
325.2392345
0
ARC
8
DEFAULT_255_1_234
10
23.8165144
20
116.6947863
40
0.3566604
50
292.5402179
51
293.6924929
0
ARC
8
DEFAULT_255_1_234
10
23.855774
20
116.0493091
40
0.3307468
50
57.6435486
51
72.8625112
0
ARC
8
DEFAULT_255_1_234
10
23.8912239
20
116.1067549
40
0.2632492
50
36.7248896
51
57.4697979
0
ARC
8
DEFAULT_255_1_234
10
23.8900872
20
116.108022
40
0.2634081
50
8.0545065
51
36.356114
0
ARC
8
DEFAULT_255_1_234
10
23.8038057
20
116.0925174
40
0.3510261
50
359.8320645
51
8.5869982
0
ARC
8
DEFAULT_255_1_234
10
23.7662834
20
116.0877101
40
0.3885653
50
343.9829931
51
0.5571613
0
ARC
8
DEFAULT_255_1_234
10
23.8549031
20
116.0634438
40
0.2966924
50
311.6359546
51
343.7651759
0
ARC
8
DEFAULT_255_1_234
10
23.81706
20
116.1061102
40
0.3537231
50
279.7829875
51
311.6255694
0
ARC
8
DEFAULT_255_1_234
10
23.7869376
20
116.249828
40
0.5004971
50
269.7286406
51
280.3856417
0
ARC
8
DEFAULT_255_1_234
10
23.7807449
20
116.2456996
40
0.4963778
50
256.6828919
51
270.4412052
0
ARC
8
DEFAULT_255_1_234
10
23.7468745
20
116.1072394
40
0.3538406
50
229.4223008
51
256.8556159
0
ARC
8
DEFAULT_255_1_234
10
23.7054137
20
116.0605736
40
0.2914296
50
181.818294
51
229.6455059
0
ARC
8
DEFAULT_255_1_234
10
23.8094094
20
116.0736496
40
0.3959084
50
179.9755256
51
183.2323064
0
ARC
8
DEFAULT_255_1_234
10
23.7921839
20
116.0716037
40
0.2293034
50
179.4465117
51
196.2869258
0
ARC
8
DEFAULT_255_1_234
10
23.7434247
20
116.0582651
40
0.1787621
50
196.5661473
51
227.705904
0
ARC
8
DEFAULT_255_1_234
10
23.7598342
20
116.0766155
40
0.2033784
50
227.7652068
51
257.8762805
0
ARC
8
DEFAULT_255_1_234
10
23.7823312
20
116.1709156
40
0.3003081
50
257.4584385
51
270.426602
0
ARC
8
DEFAULT_255_1_234
10
23.7868879
20
116.1998996
40
0.329292
50
269.5962073
51
280.8789248
0
ARC
8
DEFAULT_255_1_234
10
23.8098407
20
116.0852685
40
0.2123908
50
280.6346389
51
299.8595945
0
ARC
8
DEFAULT_255_1_234
10
23.8289314
20
116.0490212
40
0.171457
50
300.3576302
51
314.5517981
0
ARC
8
DEFAULT_255_1_234
10
23.8206374
20
116.0550919
40
0.1816095
50
315.0728369
51
345.0431014
0
ARC
8
DEFAULT_255_1_234
10
23.7283189
20
116.0819841
40
0.2777492
50
344.5986631
51
357.9269593
0
ARC
8
DEFAULT_255_1_234
10
23.6387515
20
116.0881276
40
0.3674917
50
357.4748886
51
0.0231117
0
ARC
8
DEFAULT_255_1_234
10
23.7410624
20
116.0905679
40
0.2651907
50
359.5047933
51
13.4239635
0
ARC
8
DEFAULT_255_1_234
10
23.8277268
20
116.1127478
40
0.1757509
50
12.9498199
51
48.7551375
0
ARC
8
DEFAULT_255_1_234
10
23.8095002
20
116.08784
40
0.2065134
50
49.5088623
51
72.1836453
0
ARC
8
DEFAULT_255_1_234
10
23.7737154
20
115.9816291
40
0.3185836
50
71.9010081
51
84.3554254
0
ARC
8
DEFAULT_255_1_234
10
23.7575786
20
115.8455326
40
0.4556151
50
84.0193428
51
89.333121
0
LINE
8
DEFAULT_255_1_234
10
23.186823
20
124.0739663
11
23.3418355
21
124.0739663
0
LINE
8
DEFAULT_255_1_234
10
22.4414777
20
124.2329947
11
22.4414777
21
124.3454391
0
LINE
8
DEFAULT_255_1_234
10
23.3418355
20
124.4964357
11
23.186823
21
124.4964357
0
LINE
8
DEFAULT_255_1_234
10
22.5964902
20
124.3414232
11
22.5964902
21
124.2281757
0
ARC
8
DEFAULT_255_1_234
10
22.7937742
20
124.1336846
40
0.5513052
50
340.1774281
51
353.7814284
0
ARC
8
DEFAULT_255_1_234
10
22.9509095
20
124.0751582
40
0.3836379
50
311.4558989
51
340.4421614
0
ARC
8
DEFAULT_255_1_234
10
22.9475763
20
124.0862528
40
0.3941894
50
282.4333181
51
310.7513653
0
ARC
8
DEFAULT_255_1_234
10
22.9036502
20
124.2677679
40
0.5809175
50
269.9358511
51
282.809604
0
ARC
8
DEFAULT_255_1_234
10
22.8984568
20
124.4135212
40
0.7266847
50
270.0021091
51
270.3581957
0
ARC
8
DEFAULT_255_1_234
10
22.8931985
20
124.1534585
40
0.4666519
50
250.7884749
51
270.6489167
0
ARC
8
DEFAULT_255_1_234
10
22.876382
20
124.0897319
40
0.4009729
50
219.3627325
51
250.0611886
0
ARC
8
DEFAULT_255_1_234
10
22.9593031
20
124.1602042
40
0.5097822
50
193.5479632
51
219.5756669
0
ARC
8
DEFAULT_255_1_234
10
23.1964652
20
124.2217919
40
0.7547848
50
181.1218675
51
193.87563
0
ARC
8
DEFAULT_255_1_234
10
23.4034833
20
124.232858
40
0.9620055
50
179.9918545
51
181.5394234
0
ARC
8
DEFAULT_255_1_234
10
23.2183935
20
124.3491788
40
0.7769248
50
169.5837241
51
180.2757934
0
ARC
8
DEFAULT_255_1_234
10
23.0346873
20
124.3831229
40
0.590109
50
155.0365899
51
169.6003176
0
ARC
8
DEFAULT_255_1_234
10
22.9211337
20
124.4378677
40
0.4640625
50
136.783148
51
155.2472683
0
ARC
8
DEFAULT_255_1_234
10
22.8821814
20
124.4709562
40
0.4130255
50
121.7633186
51
136.428115
0
ARC
8
DEFAULT_255_1_234
10
22.8956776
20
124.4460227
40
0.4413323
50
95.6459699
51
121.5490577
0
ARC
8
DEFAULT_255_1_234
10
22.9114058
20
124.3351949
40
0.55319
50
89.924208
51
96.1377933
0
ARC
8
DEFAULT_255_1_234
10
22.9164491
20
124.3470542
40
0.5413475
50
76.6779277
51
90.4563316
0
ARC
8
DEFAULT_255_1_234
10
22.9558114
20
124.5061114
40
0.3775041
50
47.485847
51
76.9287264
0
ARC
8
DEFAULT_255_1_234
10
22.9411087
20
124.4961159
40
0.3948286
50
16.5424086
51
46.8933463
0
ARC
8
DEFAULT_255_1_234
10
22.7803244
20
124.4432861
40
0.564021
50
5.4072051
51
17.0365086
0
ARC
8
DEFAULT_255_1_234
10
22.6364261
20
124.4201679
40
0.5556559
50
7.8891745
51
15.9239216
0
ARC
8
DEFAULT_255_1_234
10
22.8351274
20
124.4778631
40
0.3487515
50
15.7653144
51
27.9410532
0
ARC
8
DEFAULT_255_1_234
10
22.9455492
20
124.536979
40
0.2235026
50
27.8166557
51
46.4008329
0
ARC
8
DEFAULT_255_1_234
10
22.9505135
20
124.5364082
40
0.2205286
50
47.4371857
51
75.0698205
0
ARC
8
DEFAULT_255_1_234
10
22.9196529
20
124.4289765
40
0.3322915
50
74.7008593
51
87.8124495
0
ARC
8
DEFAULT_255_1_234
10
22.9123217
20
124.3233844
40
0.4380987
50
87.3814673
51
90.0240855
0
ARC
8
DEFAULT_255_1_234
10
22.908476
20
124.4411291
40
0.3203749
50
89.3451631
51
108.5745436
0
ARC
8
DEFAULT_255_1_234
10
22.8947865
20
124.4924908
40
0.2673494
50
109.2998449
51
143.3037509
0
ARC
8
DEFAULT_255_1_234
10
22.9709938
20
124.4338881
40
0.3634757
50
143.0753173
51
163.1916937
0
ARC
8
DEFAULT_255_1_234
10
23.1661666
20
124.3722967
40
0.5681262
50
162.9373603
51
174.6208611
0
ARC
8
DEFAULT_255_1_234
10
23.4287708
20
124.343501
40
0.8322832
50
174.3419979
51
180.1430411
0
ARC
8
DEFAULT_255_1_234
10
23.3356864
20
124.2240698
40
0.7392076
50
179.6817502
51
189.150529
0
ARC
8
DEFAULT_255_1_234
10
23.0856112
20
124.182419
40
0.4856932
50
188.9910863
51
203.5773039
0
ARC
8
DEFAULT_255_1_234
10
22.9776445
20
124.1376211
40
0.3688271
50
203.9077269
51
215.1312379
0
ARC
8
DEFAULT_255_1_234
10
22.8853539
20
124.0660941
40
0.2522457
50
213.9071664
51
263.8849284
0
ARC
8
DEFAULT_255_1_234
10
22.8978868
20
124.1445518
40
0.3316174
50
263.1758525
51
270.1031083
0
ARC
8
DEFAULT_255_1_234
10
22.901096
20
124.2692365
40
0.4563091
50
269.6719807
51
279.0609165
0
ARC
8
DEFAULT_255_1_234
10
22.9277728
20
124.1079907
40
0.2928759
50
278.8750225
51
293.6346586
0
ARC
8
DEFAULT_255_1_234
10
22.9597936
20
124.03279
40
0.2111472
50
293.8553404
51
310.0518804
0
ARC
8
DEFAULT_255_1_234
10
22.960279
20
124.0265516
40
0.2060917
50
311.0646779
51
332.0108348
0
ARC
8
DEFAULT_255_1_234
10
22.8410517
20
124.0922978
40
0.3422352
50
331.6588543
51
343.2878891
0
ARC
8
DEFAULT_255_1_234
10
22.6348032
20
124.1556798
40
0.5580003
50
343.1446044
51
351.010618
0
ARC
8
DEFAULT_255_1_234
10
22.4806678
20
124.1837871
40
0.7146438
50
350.7157277
51
351.1602153
0
LINE
8
DEFAULT_255_1_234
10
23.7297685
20
124.2386169
11
23.7297685
21
124.3598962
0
LINE
8
DEFAULT_255_1_234
10
23.7297685
20
124.3598962
11
23.8414097
21
124.3598962
0
LINE
8
DEFAULT_255_1_234
10
23.6510575
20
124.5655087
11
23.5024703
21
124.5655087
0
LINE
8
DEFAULT_255_1_234
10
23.4920291
20
124.0113188
11
23.6414194
21
124.0113188
0
LINE
8
DEFAULT_255_1_234
10
23.8414097
20
124.2386169
11
23.7297685
21
124.2386169
0
ARC
8
DEFAULT_255_1_234
10
23.8384963
20
124.6991713
40
0.3392876
50
270.4919872
51
281.8951556
0
ARC
8
DEFAULT_255_1_234
10
23.8626225
20
124.5889702
40
0.2264817
50
281.6691735
51
301.2943132
0
ARC
8
DEFAULT_255_1_234
10
23.8796435
20
124.5578304
40
0.1910381
50
301.7833094
51
311.7545298
0
ARC
8
DEFAULT_255_1_234
10
23.8888011
20
124.5476748
40
0.1773635
50
311.7323931
51
354.2802411
0
ARC
8
DEFAULT_255_1_234
10
23.8161636
20
124.5601722
40
0.2509385
50
353.0937916
51
0.1181479
0
ARC
8
DEFAULT_255_1_234
10
23.7700421
20
124.5649386
40
0.2970898
50
359.1805295
51
15.0453146
0
ARC
8
DEFAULT_255_1_234
10
23.9046258
20
124.6041992
40
0.1569564
50
13.9577229
51
77.6713066
0
ARC
8
DEFAULT_255_1_234
10
23.8659787
20
124.4656949
40
0.3006298
50
76.1116566
51
90.7026153
0
ARC
8
DEFAULT_255_1_234
10
23.8600625
20
124.4930545
40
0.2732568
50
89.5324876
51
103.531937
0
ARC
8
DEFAULT_255_1_234
10
23.840007
20
124.5729884
40
0.1908508
50
103.2931773
51
133.5619022
0
ARC
8
DEFAULT_255_1_234
10
23.8355558
20
124.5789375
40
0.1834746
50
133.8349307
51
173.5344437
0
ARC
8
DEFAULT_255_1_234
10
23.9078601
20
124.5661213
40
0.2568033
50
172.5096846
51
180.1366907
0
ARC
8
DEFAULT_255_1_234
10
23.8127495
20
124.5695622
40
0.3103056
50
155.3484492
51
180.7484736
0
ARC
8
DEFAULT_255_1_234
10
23.8078584
20
124.5666846
40
0.3070957
50
131.5744599
51
154.4798489
0
ARC
8
DEFAULT_255_1_234
10
23.8391731
20
124.535031
40
0.3515643
50
96.9875458
51
131.9690667
0
ARC
8
DEFAULT_255_1_234
10
23.8611211
20
124.4104636
40
0.4779224
50
89.8596053
51
97.7825159
0
ARC
8
DEFAULT_255_1_234
10
23.8659274
20
124.3842616
40
0.5041361
50
78.3655447
51
90.4131539
0
ARC
8
DEFAULT_255_1_234
10
23.9017192
20
124.5501887
40
0.3344039
50
56.6229102
51
78.638727
0
ARC
8
DEFAULT_255_1_234
10
23.9232136
20
124.5877805
40
0.2912001
50
47.0253525
51
56.0854072
0
ARC
8
DEFAULT_255_1_234
10
23.9251916
20
124.5917223
40
0.2869704
50
10.9208013
51
46.7778124
0
ARC
8
DEFAULT_255_1_234
10
23.7887982
20
124.5601857
40
0.426899
50
359.6364486
51
11.6087304
0
ARC
8
DEFAULT_255_1_234
10
23.9722827
20
124.5586752
40
0.243409
50
332.3549906
51
359.7179418
0
ARC
8
DEFAULT_255_1_234
10
23.9072428
20
124.5895142
40
0.3153459
50
325.2333722
51
332.8745602
0
ARC
8
DEFAULT_255_1_234
10
23.9225052
20
124.5788828
40
0.2967456
50
292.9802137
51
325.2392345
0
ARC
8
DEFAULT_255_1_234
10
23.8950426
20
124.6322863
40
0.3566604
50
292.5402179
51
293.6924929
0
ARC
8
DEFAULT_255_1_234
10
23.9343021
20
123.9868091
40
0.3307468
50
57.6435486
51
72.8625112
0
ARC
8
DEFAULT_255_1_234
10
23.9697521
20
124.0442549
40
0.2632492
50
36.7248896
51
57.4697979
0
ARC
8
DEFAULT_255_1_234
10
23.9686154
20
124.045522
40
0.2634081
50
8.0545065
51
36.356114
0
ARC
8
DEFAULT_255_1_234
10
23.8823339
20
124.0300174
40
0.3510261
50
359.8320645
51
8.5869982
0
ARC
8
DEFAULT_255_1_234
10
23.8448115
20
124.0252101
40
0.3885653
50
343.9829931
51
0.5571613
0
ARC
8
DEFAULT_255_1_234
10
23.9334313
20
124.0009438
40
0.2966924
50
311.6359546
51
343.7651759
0
ARC
8
DEFAULT_255_1_234
10
23.8955882
20
124.0436102
40
0.3537231
50
279.7829875
51
311.6255694
0
ARC
8
DEFAULT_255_1_234
10
23.8654658
20
124.187328
40
0.5004971
50
269.7286406
51
280.3856417
0
ARC
8
DEFAULT_255_1_234
10
23.8592731
20
124.1831996
40
0.4963778
50
256.6828919
51
270.4412052
0
ARC
8
DEFAULT_255_1_234
10
23.8254026
20
124.0447394
40
0.3538406
50
229.4223008
51
256.8556159
0
ARC
8
DEFAULT_255_1_234
10
23.7839419
20
123.9980736
40
0.2914296
50
181.818294
51
229.6455059
0
ARC
8
DEFAULT_255_1_234
10
23.8879375
20
124.0111496
40
0.3959084
50
179.9755256
51
183.2323064
0
ARC
8
DEFAULT_255_1_234
10
23.8707121
20
124.0091037
40
0.2293034
50
179.4465117
51
196.2869258
0
ARC
8
DEFAULT_255_1_234
10
23.8219529
20
123.9957651
40
0.1787621
50
196.5661473
51
227.705904
0
ARC
8
DEFAULT_255_1_234
10
23.8383624
20
124.0141155
40
0.2033784
50
227.7652068
51
257.8762805
0
ARC
8
DEFAULT_255_1_234
10
23.8608594
20
124.1084156
40
0.3003081
50
257.4584385
51
270.426602
0
ARC
8
DEFAULT_255_1_234
10
23.865416
20
124.1373996
40
0.329292
50
269.5962073
51
280.8789248
0
ARC
8
DEFAULT_255_1_234
10
23.8883689
20
124.0227685
40
0.2123908
50
280.6346389
51
299.8595945
0
ARC
8
DEFAULT_255_1_234
10
23.9074596
20
123.9865212
40
0.171457
50
300.3576302
51
314.5517981
0
ARC
8
DEFAULT_255_1_234
10
23.8991656
20
123.9925919
40
0.1816095
50
315.0728369
51
345.0431014
0
ARC
8
DEFAULT_255_1_234
10
23.806847
20
124.0194841
40
0.2777492
50
344.5986631
51
357.9269593
0
ARC
8
DEFAULT_255_1_234
10
23.7172797
20
124.0256276
40
0.3674917
50
357.4748886
51
0.0231117
0
ARC
8
DEFAULT_255_1_234
10
23.8195906
20
124.0280679
40
0.2651907
50
359.5047933
51
13.4239635
0
ARC
8
DEFAULT_255_1_234
10
23.906255
20
124.0502478
40
0.1757509
50
12.9498199
51
48.7551375
0
ARC
8
DEFAULT_255_1_234
10
23.8880284
20
124.02534
40
0.2065134
50
49.5088623
51
72.1836453
0
ARC
8
DEFAULT_255_1_234
10
23.8522436
20
123.9191291
40
0.3185836
50
71.9010081
51
84.3554254
0
ARC
8
DEFAULT_255_1_234
10
23.8361068
20
123.7830326
40
0.4556151
50
84.0193428
51
89.333121
0
LINE
8
DEFAULT_255_1_234
10
22.0689879
20
132.8098211
11
22.0689879
21
131.6404
0
LINE
8
DEFAULT_255_1_234
10
22.0689879
20
131.6404
11
21.9139753
21
131.6404
0
LINE
8
DEFAULT_255_1_234
10
21.9139753
20
131.6404
11
21.3252489
21
132.541561
0
LINE
8
DEFAULT_255_1_234
10
21.3252489
20
132.541561
11
21.3252489
21
131.6404
0
LINE
8
DEFAULT_255_1_234
10
21.3252489
20
131.6404
11
21.1702364
21
131.6404
0
LINE
8
DEFAULT_255_1_234
10
21.1702364
20
131.6404
11
21.1702364
21
132.8098211
0
LINE
8
DEFAULT_255_1_234
10
21.1702364
20
132.8098211
11
21.3252489
21
132.8098211
0
LINE
8
DEFAULT_255_1_234
10
21.3252489
20
132.8098211
11
21.9155817
21
131.9046442
0
LINE
8
DEFAULT_255_1_234
10
21.9155817
20
131.9046442
11
21.9155817
21
132.8098211
0
LINE
8
DEFAULT_255_1_234
10
21.9155817
20
132.8098211
11
22.0689879
21
132.8098211
0
LINE
8
DEFAULT_255_1_234
10
23.2424249
20
132.2612534
11
23.2424249
21
132.1873614
0
LINE
8
DEFAULT_255_1_234
10
22.3019083
20
132.1769201
11
22.3019083
21
132.2612534
0
LINE
8
DEFAULT_255_1_234
10
23.0890187
20
132.1761169
11
23.0890187
21
132.2628597
0
LINE
8
DEFAULT_255_1_234
10
22.4553145
20
132.273301
11
22.4553145
21
132.1873614
0
ARC
8
DEFAULT_255_1_234
10
22.3782275
20
132.1834015
40
0.8642064
50
350.487711
51
0.2625388
0
ARC
8
DEFAULT_255_1_234
10
22.6075516
20
132.1439578
40
0.631518
50
336.0277639
51
350.5787438
0
ARC
8
DEFAULT_255_1_234
10
22.742034
20
132.0831892
40
0.4839466
50
319.8877444
51
336.1328423
0
ARC
8
DEFAULT_255_1_234
10
22.802298
20
132.034958
40
0.4067874
50
302.4806467
51
319.6143626
0
ARC
8
DEFAULT_255_1_234
10
22.7907991
20
132.0571202
40
0.4316636
50
275.8195682
51
302.1884709
0
ARC
8
DEFAULT_255_1_234
10
22.7741624
20
132.1713665
40
0.5470306
50
269.9171439
51
276.3397983
0
ARC
8
DEFAULT_255_1_234
10
22.7696834
20
132.1027681
40
0.4784458
50
252.5219675
51
270.4416499
0
ARC
8
DEFAULT_255_1_234
10
22.7553093
20
132.0488592
40
0.422716
50
237.5352116
51
252.1857531
0
ARC
8
DEFAULT_255_1_234
10
22.7642289
20
132.0602363
40
0.4371052
50
209.063312
51
237.3492538
0
ARC
8
DEFAULT_255_1_234
10
22.8512137
20
132.1148685
40
0.5397041
50
205.1183774
51
209.6470015
0
ARC
8
DEFAULT_255_1_234
10
22.9309174
20
132.148683
40
0.6262326
50
188.7215458
51
204.8240747
0
ARC
8
DEFAULT_255_1_234
10
23.1306702
20
132.1823067
40
0.8287794
50
180.3723947
51
188.9252049
0
ARC
8
DEFAULT_255_1_234
10
23.1279453
20
132.2652402
40
0.8260467
50
169.5253763
51
180.2765336
0
ARC
8
DEFAULT_255_1_234
10
22.9376902
20
132.3002309
40
0.6326007
50
155.8315255
51
169.5089989
0
ARC
8
DEFAULT_255_1_234
10
22.8096404
20
132.3596348
40
0.4914567
50
139.6258461
51
156.0379525
0
ARC
8
DEFAULT_255_1_234
10
22.7506737
20
132.4070799
40
0.4158054
50
122.6416387
51
139.3430715
0
ARC
8
DEFAULT_255_1_234
10
22.7607357
20
132.3887451
40
0.4366739
50
93.0223692
51
122.455762
0
ARC
8
DEFAULT_255_1_234
10
22.7715353
20
132.2922709
40
0.5336137
50
89.975342
51
93.6341897
0
ARC
8
DEFAULT_255_1_234
10
22.7754133
20
132.3321242
40
0.4937738
50
73.746375
51
90.4233405
0
ARC
8
DEFAULT_255_1_234
10
22.7929711
20
132.4001287
40
0.4235786
50
57.662753
51
73.4518111
0
ARC
8
DEFAULT_255_1_234
10
22.7921718
20
132.4022832
40
0.4221899
50
29.1440151
51
57.414694
0
ARC
8
DEFAULT_255_1_234
10
22.6986912
20
132.3439005
40
0.5322966
50
24.0982783
51
29.7323517
0
ARC
8
DEFAULT_255_1_234
10
22.5953188
20
132.3010399
40
0.6441673
50
8.6655297
51
23.8241346
0
ARC
8
DEFAULT_255_1_234
10
22.3718926
20
132.2645854
40
0.8705386
50
359.7806941
51
8.8218784
0
ARC
8
DEFAULT_255_1_234
10
22.2571924
20
132.2671345
40
0.8318373
50
359.7055579
51
8.036044
0
ARC
8
DEFAULT_255_1_234
10
22.557193
20
132.3108239
40
0.5286768
50
7.8928306
51
20.2962107
0
ARC
8
DEFAULT_255_1_234
10
22.71995
20
132.3708395
40
0.3552073
50
20.3231126
51
36.4992797
0
ARC
8
DEFAULT_255_1_234
10
22.7885046
20
132.4236402
40
0.2686974
50
36.1437156
51
85.6627023
0
ARC
8
DEFAULT_255_1_234
10
22.7722592
20
132.3196221
40
0.373739
50
84.3852322
51
90.0757696
0
ARC
8
DEFAULT_255_1_234
10
22.7680265
20
132.3856839
40
0.3076997
50
89.3038458
51
109.9045693
0
ARC
8
DEFAULT_255_1_234
10
22.7587656
20
132.4239062
40
0.2686424
50
110.8228367
51
143.9179474
0
ARC
8
DEFAULT_255_1_234
10
22.8521316
20
132.3526236
40
0.3860887
50
143.5289163
51
163.2980757
0
ARC
8
DEFAULT_255_1_234
10
23.0429137
20
132.2926433
40
0.5860659
50
163.0418846
51
174.3140048
0
ARC
8
DEFAULT_255_1_234
10
23.2833249
20
132.2648854
40
0.8280531
50
174.0509143
51
179.4176892
0
ARC
8
DEFAULT_255_1_234
10
23.2328988
20
132.1831954
40
0.7775954
50
179.6930361
51
188.7906598
0
ARC
8
DEFAULT_255_1_234
10
22.9665467
20
132.1405935
40
0.5078633
50
188.6331305
51
202.5629587
0
ARC
8
DEFAULT_255_1_234
10
22.8411058
20
132.0901996
40
0.3726913
50
202.8081362
51
216.1193925
0
ARC
8
DEFAULT_255_1_234
10
22.7601629
20
132.0250676
40
0.2689577
50
215.0755913
51
264.6379694
0
ARC
8
DEFAULT_255_1_234
10
22.7728578
20
132.1081513
40
0.3528978
50
263.846392
51
270.0833719
0
ARC
8
DEFAULT_255_1_234
10
22.7769969
20
132.0823374
40
0.3271036
50
269.3649385
51
287.5152008
0
ARC
8
DEFAULT_255_1_234
10
22.7948126
20
132.0176238
40
0.2600406
50
288.0630309
51
323.8113348
0
ARC
8
DEFAULT_255_1_234
10
22.7076968
20
132.0826049
40
0.3687189
50
323.6547608
51
342.6590488
0
ARC
8
DEFAULT_255_1_234
10
22.5045583
20
132.1486952
40
0.5823286
50
342.4091907
51
353.6451149
0
ARC
8
DEFAULT_255_1_234
10
22.2214094
20
132.183919
40
0.8676442
50
353.4029884
51
359.4847795
0
LINE
8
DEFAULT_255_1_234
10
24.2014144
20
131.7616792
11
24.2014144
21
131.6404
0
LINE
8
DEFAULT_255_1_234
10
24.2014144
20
131.6404
11
23.4351866
21
131.6404
0
LINE
8
DEFAULT_255_1_234
10
23.4351866
20
131.6404
11
23.4351866
21
131.7472221
0
LINE
8
DEFAULT_255_1_234
10
23.4351866
20
131.7472221
11
23.8399862
21
132.1969995
0
LINE
8
DEFAULT_255_1_234
10
23.5612849
20
132.4652595
11
23.4126977
21
132.4652595
0
LINE
8
DEFAULT_255_1_234
10
23.9275321
20
132.1014218
11
23.6142943
21
131.7616792
0
LINE
8
DEFAULT_255_1_234
10
23.6142943
20
131.7616792
11
24.2014144
21
131.7616792
0
ARC
8
DEFAULT_255_1_234
10
22.4909695
20
133.3899527
40
1.8008286
50
318.5132453
51
320.7828378
0
ARC
8
DEFAULT_255_1_234
10
23.019667
20
132.9596426
40
1.1191493
50
320.7372736
51
323.9737074
0
ARC
8
DEFAULT_255_1_234
10
23.4116526
20
132.6756361
40
0.6350923
50
323.8961724
51
328.6421089
0
ARC
8
DEFAULT_255_1_234
10
23.6163121
20
132.5494031
40
0.3946393
50
328.8299013
51
331.789948
0
ARC
8
DEFAULT_255_1_234
10
23.71603
20
132.4979509
40
0.2824501
50
331.4255242
51
352.9364833
0
ARC
8
DEFAULT_255_1_234
10
23.7296801
20
132.4948976
40
0.2685315
50
353.2248685
51
0.0169286
0
ARC
8
DEFAULT_255_1_234
10
23.7506677
20
132.497195
40
0.2475536
50
359.4866256
51
15.9339782
0
ARC
8
DEFAULT_255_1_234
10
23.8013663
20
132.5108286
40
0.1950618
50
16.1714718
51
43.5284424
0
ARC
8
DEFAULT_255_1_234
10
23.8090971
20
132.5185573
40
0.184134
50
43.4415429
51
83.1661404
0
ARC
8
DEFAULT_255_1_234
10
23.7956889
20
132.4448771
40
0.258926
50
82.160215
51
90.1505798
0
ARC
8
DEFAULT_255_1_234
10
23.7925317
20
132.3911865
40
0.3126255
50
89.5460705
51
102.5418777
0
ARC
8
DEFAULT_255_1_234
10
23.7682403
20
132.4942665
40
0.2067346
50
102.1739365
51
129.2061916
0
ARC
8
DEFAULT_255_1_234
10
23.7603475
20
132.5067094
40
0.1921118
50
129.7279328
51
135.7542026
0
ARC
8
DEFAULT_255_1_234
10
23.7725002
20
132.4970045
40
0.2075944
50
136.175737
51
166.3674722
0
ARC
8
DEFAULT_255_1_234
10
23.8731921
20
132.4700182
40
0.3118201
50
165.9092917
51
178.8683903
0
ARC
8
DEFAULT_255_1_234
10
23.9596783
20
132.4653179
40
0.3983935
50
178.438168
51
180.0083905
0
ARC
8
DEFAULT_255_1_234
10
23.8195385
20
132.4692231
40
0.4068601
50
163.2878735
51
180.5581814
0
ARC
8
DEFAULT_255_1_234
10
23.7393646
20
132.491284
40
0.3237344
50
133.454115
51
162.9470031
0
ARC
8
DEFAULT_255_1_234
10
23.7572188
20
132.4723
40
0.349795
50
100.7869394
51
133.4384016
0
ARC
8
DEFAULT_255_1_234
10
23.7919959
20
132.3174319
40
0.5084616
50
89.6605301
51
101.3704185
0
ARC
8
DEFAULT_255_1_234
10
23.7986298
20
132.3235496
40
0.502348
50
78.2171172
51
90.4130393
0
ARC
8
DEFAULT_255_1_234
10
23.8341376
20
132.4859637
40
0.3361092
50
55.9268222
51
78.4888551
0
ARC
8
DEFAULT_255_1_234
10
23.8537816
20
132.5198324
40
0.2970617
50
47.9292255
51
55.4054003
0
ARC
8
DEFAULT_255_1_234
10
23.8639377
20
132.5301502
40
0.2825983
50
4.3347696
51
48.0560701
0
ARC
8
DEFAULT_255_1_234
10
23.7543771
20
132.5131601
40
0.393225
50
359.925209
51
5.5967654
0
ARC
8
DEFAULT_255_1_234
10
23.7972662
20
132.5187816
40
0.3503892
50
337.8914096
51
358.9967724
0
ARC
8
DEFAULT_255_1_234
10
23.5259075
20
132.6234706
40
0.6412172
50
326.9135351
51
338.3505194
0
ARC
8
DEFAULT_255_1_234
10
23.1273378
20
132.8789284
40
1.1146189
50
319.6472867
51
327.095818
0
ARC
8
DEFAULT_255_1_234
10
22.7440381
20
133.1951
40
1.6114559
50
317.2586784
51
319.9046139
0
LINE
8
DEFAULT_255_1_234
10
23.186823
20
139.9489663
11
23.3418355
21
139.9489663
0
LINE
8
DEFAULT_255_1_234
10
22.4414777
20
140.1079947
11
22.4414777
21
140.2204391
0
LINE
8
DEFAULT_255_1_234
10
23.3418355
20
140.3714357
11
23.186823
21
140.3714357
0
LINE
8
DEFAULT_255_1_234
10
22.5964902
20
140.2164232
11
22.5964902
21
140.1031757
0
ARC
8
DEFAULT_255_1_234
10
22.7937742
20
140.0086846
40
0.5513052
50
340.1774281
51
353.7814284
0
ARC
8
DEFAULT_255_1_234
10
22.9509095
20
139.9501582
40
0.3836379
50
311.4558989
51
340.4421614
0
ARC
8
DEFAULT_255_1_234
10
22.9475763
20
139.9612528
40
0.3941894
50
282.4333181
51
310.7513653
0
ARC
8
DEFAULT_255_1_234
10
22.9036502
20
140.1427679
40
0.5809175
50
269.9358511
51
282.809604
0
ARC
8
DEFAULT_255_1_234
10
22.8984568
20
140.2885212
40
0.7266847
50
270.0021091
51
270.3581957
0
ARC
8
DEFAULT_255_1_234
10
22.8931985
20
140.0284585
40
0.4666519
50
250.7884749
51
270.6489167
0
ARC
8
DEFAULT_255_1_234
10
22.876382
20
139.9647319
40
0.4009729
50
219.3627325
51
250.0611886
0
ARC
8
DEFAULT_255_1_234
10
22.9593031
20
140.0352042
40
0.5097822
50
193.5479632
51
219.5756669
0
ARC
8
DEFAULT_255_1_234
10
23.1964652
20
140.0967919
40
0.7547848
50
181.1218675
51
193.87563
0
ARC
8
DEFAULT_255_1_234
10
23.4034833
20
140.107858
40
0.9620055
50
179.9918545
51
181.5394234
0
ARC
8
DEFAULT_255_1_234
10
23.2183935
20
140.2241788
40
0.7769248
50
169.5837241
51
180.2757934
0
ARC
8
DEFAULT_255_1_234
10
23.0346873
20
140.2581229
40
0.590109
50
155.0365899
51
169.6003176
0
ARC
8
DEFAULT_255_1_234
10
22.9211337
20
140.3128677
40
0.4640625
50
136.783148
51
155.2472683
0
ARC
8
DEFAULT_255_1_234
10
22.8821814
20
140.3459562
40
0.4130255
50
121.7633186
51
136.428115
0
ARC
8
DEFAULT_255_1_234
10
22.8956776
20
140.3210227
40
0.4413323
50
95.6459699
51
121.5490577
0
ARC
8
DEFAULT_255_1_234
10
22.9114058
20
140.2101949
40
0.55319
50
89.924208
51
96.1377933
0
ARC
8
DEFAULT_255_1_234
10
22.9164491
20
140.2220542
40
0.5413475
50
76.6779277
51
90.4563316
0
ARC
8
DEFAULT_255_1_234
10
22.9558114
20
140.3811114
40
0.3775041
50
47.485847
51
76.9287264
0
ARC
8
DEFAULT_255_1_234
10
22.9411087
20
140.3711159
40
0.3948286
50
16.5424086
51
46.8933463
0
ARC
8
DEFAULT_255_1_234
10
22.7803244
20
140.3182861
40
0.564021
50
5.4072051
51
17.0365086
0
ARC
8
DEFAULT_255_1_234
10
22.6364261
20
140.2951679
40
0.5556559
50
7.8891745
51
15.9239216
0
ARC
8
DEFAULT_255_1_234
10
22.8351274
20
140.3528631
40
0.3487515
50
15.7653144
51
27.9410532
0
ARC
8
DEFAULT_255_1_234
10
22.9455492
20
140.411979
40
0.2235026
50
27.8166557
51
46.4008329
0
ARC
8
DEFAULT_255_1_234
10
22.9505135
20
140.4114082
40
0.2205286
50
47.4371857
51
75.0698205
0
ARC
8
DEFAULT_255_1_234
10
22.9196529
20
140.3039765
40
0.3322915
50
74.7008593
51
87.8124495
0
ARC
8
DEFAULT_255_1_234
10
22.9123217
20
140.1983844
40
0.4380987
50
87.3814673
51
90.0240855
0
ARC
8
DEFAULT_255_1_234
10
22.908476
20
140.3161291
40
0.3203749
50
89.3451631
51
108.5745436
0
ARC
8
DEFAULT_255_1_234
10
22.8947865
20
140.3674908
40
0.2673494
50
109.2998449
51
143.3037509
0
ARC
8
DEFAULT_255_1_234
10
22.9709938
20
140.3088881
40
0.3634757
50
143.0753173
51
163.1916937
0
ARC
8
DEFAULT_255_1_234
10
23.1661666
20
140.2472967
40
0.5681262
50
162.9373603
51
174.6208611
0
ARC
8
DEFAULT_255_1_234
10
23.4287708
20
140.218501
40
0.8322832
50
174.3419979
51
180.1430411
0
ARC
8
DEFAULT_255_1_234
10
23.3356864
20
140.0990698
40
0.7392076
50
179.6817502
51
189.150529
0
ARC
8
DEFAULT_255_1_234
10
23.0856112
20
140.057419
40
0.4856932
50
188.9910863
51
203.5773039
0
ARC
8
DEFAULT_255_1_234
10
22.9776445
20
140.0126211
40
0.3688271
50
203.9077269
51
215.1312379
0
ARC
8
DEFAULT_255_1_234
10
22.8853539
20
139.9410941
40
0.2522457
50
213.9071664
51
263.8849284
0
ARC
8
DEFAULT_255_1_234
10
22.8978868
20
140.0195518
40
0.3316174
50
263.1758525
51
270.1031083
0
ARC
8
DEFAULT_255_1_234
10
22.901096
20
140.1442365
40
0.4563091
50
269.6719807
51
279.0609165
0
ARC
8
DEFAULT_255_1_234
10
22.9277728
20
139.9829907
40
0.2928759
50
278.8750225
51
293.6346586
0
ARC
8
DEFAULT_255_1_234
10
22.9597936
20
139.90779
40
0.2111472
50
293.8553404
51
310.0518804
0
ARC
8
DEFAULT_255_1_234
10
22.960279
20
139.9015516
40
0.2060917
50
311.0646779
51
332.0108348
0
ARC
8
DEFAULT_255_1_234
10
22.8410517
20
139.9672978
40
0.3422352
50
331.6588543
51
343.2878891
0
ARC
8
DEFAULT_255_1_234
10
22.6348032
20
140.0306798
40
0.5580003
50
343.1446044
51
351.010618
0
ARC
8
DEFAULT_255_1_234
10
22.4806678
20
140.0587871
40
0.7146438
50
350.7157277
51
351.1602153
0
LINE
8
DEFAULT_255_1_234
10
24.2799426
20
139.6991792
11
24.2799426
21
139.5779
0
LINE
8
DEFAULT_255_1_234
10
24.2799426
20
139.5779
11
23.5137147
21
139.5779
0
LINE
8
DEFAULT_255_1_234
10
23.5137147
20
139.5779
11
23.5137147
21
139.6847221
0
LINE
8
DEFAULT_255_1_234
10
23.5137147
20
139.6847221
11
23.9185144
21
140.1344995
0
LINE
8
DEFAULT_255_1_234
10
23.639813
20
140.4027595
11
23.4912259
21
140.4027595
0
LINE
8
DEFAULT_255_1_234
10
24.0060603
20
140.0389218
11
23.6928225
21
139.6991792
0
LINE
8
DEFAULT_255_1_234
10
23.6928225
20
139.6991792
11
24.2799426
21
139.6991792
0
ARC
8
DEFAULT_255_1_234
10
22.5694977
20
141.3274527
40
1.8008286
50
318.5132453
51
320.7828378
0
ARC
8
DEFAULT_255_1_234
10
23.0981951
20
140.8971426
40
1.1191493
50
320.7372736
51
323.9737074
0
ARC
8
DEFAULT_255_1_234
10
23.4901808
20
140.6131361
40
0.6350923
50
323.8961724
51
328.6421089
0
ARC
8
DEFAULT_255_1_234
10
23.6948403
20
140.4869031
40
0.3946393
50
328.8299013
51
331.789948
0
ARC
8
DEFAULT_255_1_234
10
23.7945582
20
140.4354509
40
0.2824501
50
331.4255242
51
352.9364833
0
ARC
8
DEFAULT_255_1_234
10
23.8082082
20
140.4323976
40
0.2685315
50
353.2248685
51
0.0169286
0
ARC
8
DEFAULT_255_1_234
10
23.8291959
20
140.434695
40
0.2475536
50
359.4866256
51
15.9339782
0
ARC
8
DEFAULT_255_1_234
10
23.8798944
20
140.4483286
40
0.1950618
50
16.1714718
51
43.5284424
0
ARC
8
DEFAULT_255_1_234
10
23.8876253
20
140.4560573
40
0.184134
50
43.4415429
51
83.1661404
0
ARC
8
DEFAULT_255_1_234
10
23.8742171
20
140.3823771
40
0.258926
50
82.160215
51
90.1505798
0
ARC
8
DEFAULT_255_1_234
10
23.8710599
20
140.3286865
40
0.3126255
50
89.5460705
51
102.5418777
0
ARC
8
DEFAULT_255_1_234
10
23.8467685
20
140.4317665
40
0.2067346
50
102.1739365
51
129.2061916
0
ARC
8
DEFAULT_255_1_234
10
23.8388756
20
140.4442094
40
0.1921118
50
129.7279328
51
135.7542026
0
ARC
8
DEFAULT_255_1_234
10
23.8510284
20
140.4345045
40
0.2075944
50
136.175737
51
166.3674722
0
ARC
8
DEFAULT_255_1_234
10
23.9517203
20
140.4075182
40
0.3118201
50
165.9092917
51
178.8683903
0
ARC
8
DEFAULT_255_1_234
10
24.0382065
20
140.4028179
40
0.3983935
50
178.438168
51
180.0083905
0
ARC
8
DEFAULT_255_1_234
10
23.8980667
20
140.4067231
40
0.4068601
50
163.2878735
51
180.5581814
0
ARC
8
DEFAULT_255_1_234
10
23.8178928
20
140.428784
40
0.3237344
50
133.454115
51
162.9470031
0
ARC
8
DEFAULT_255_1_234
10
23.8357469
20
140.4098
40
0.349795
50
100.7869394
51
133.4384016
0
ARC
8
DEFAULT_255_1_234
10
23.8705241
20
140.2549319
40
0.5084616
50
89.6605301
51
101.3704185
0
ARC
8
DEFAULT_255_1_234
10
23.877158
20
140.2610496
40
0.502348
50
78.2171172
51
90.4130393
0
ARC
8
DEFAULT_255_1_234
10
23.9126658
20
140.4234637
40
0.3361092
50
55.9268222
51
78.4888551
0
ARC
8
DEFAULT_255_1_234
10
23.9323098
20
140.4573324
40
0.2970617
50
47.9292255
51
55.4054003
0
ARC
8
DEFAULT_255_1_234
10
23.9424659
20
140.4676502
40
0.2825983
50
4.3347696
51
48.0560701
0
ARC
8
DEFAULT_255_1_234
10
23.8329052
20
140.4506601
40
0.393225
50
359.925209
51
5.5967654
0
ARC
8
DEFAULT_255_1_234
10
23.8757944
20
140.4562816
40
0.3503892
50
337.8914096
51
358.9967724
0
ARC
8
DEFAULT_255_1_234
10
23.6044356
20
140.5609706
40
0.6412172
50
326.9135351
51
338.3505194
0
ARC
8
DEFAULT_255_1_234
10
23.205866
20
140.8164284
40
1.1146189
50
319.6472867
51
327.095818
0
ARC
8
DEFAULT_255_1_234
10
22.8225663
20
141.1326
40
1.6114559
50
317.2586784
51
319.9046139
0
LINE
8
DEFAULT_255_1_234
10
22.0775879
20
148.6848211
11
22.0775879
21
147.5154
0
LINE
8
DEFAULT_255_1_234
10
22.0775879
20
147.5154
11
21.9225753
21
147.5154
0
LINE
8
DEFAULT_255_1_234
10
21.9225753
20
147.5154
11
21.3338489
21
148.416561
0
LINE
8
DEFAULT_255_1_234
10
21.3338489
20
148.416561
11
21.3338489
21
147.5154
0
LINE
8
DEFAULT_255_1_234
10
21.3338489
20
147.5154
11
21.1788364
21
147.5154
0
LINE
8
DEFAULT_255_1_234
10
21.1788364
20
147.5154
11
21.1788364
21
148.6848211
0
LINE
8
DEFAULT_255_1_234
10
21.1788364
20
148.6848211
11
21.3338489
21
148.6848211
0
LINE
8
DEFAULT_255_1_234
10
21.3338489
20
148.6848211
11
21.9241817
21
147.7796442
0
LINE
8
DEFAULT_255_1_234
10
21.9241817
20
147.7796442
11
21.9241817
21
148.6848211
0
LINE
8
DEFAULT_255_1_234
10
21.9241817
20
148.6848211
11
22.0775879
21
148.6848211
0
LINE
8
DEFAULT_255_1_234
10
23.2510249
20
148.1362534
11
23.2510249
21
148.0623614
0
LINE
8
DEFAULT_255_1_234
10
22.3105083
20
148.0519201
11
22.3105083
21
148.1362534
0
LINE
8
DEFAULT_255_1_234
10
23.0976187
20
148.0511169
11
23.0976187
21
148.1378597
0
LINE
8
DEFAULT_255_1_234
10
22.4639145
20
148.148301
11
22.4639145
21
148.0623614
0
ARC
8
DEFAULT_255_1_234
10
22.3868275
20
148.0584015
40
0.8642064
50
350.487711
51
0.2625388
0
ARC
8
DEFAULT_255_1_234
10
22.6161516
20
148.0189578
40
0.631518
50
336.0277639
51
350.5787438
0
ARC
8
DEFAULT_255_1_234
10
22.750634
20
147.9581892
40
0.4839466
50
319.8877444
51
336.1328423
0
ARC
8
DEFAULT_255_1_234
10
22.810898
20
147.909958
40
0.4067874
50
302.4806467
51
319.6143626
0
ARC
8
DEFAULT_255_1_234
10
22.7993991
20
147.9321202
40
0.4316636
50
275.8195682
51
302.1884709
0
ARC
8
DEFAULT_255_1_234
10
22.7827624
20
148.0463665
40
0.5470306
50
269.9171439
51
276.3397983
0
ARC
8
DEFAULT_255_1_234
10
22.7782834
20
147.9777681
40
0.4784458
50
252.5219675
51
270.4416499
0
ARC
8
DEFAULT_255_1_234
10
22.7639093
20
147.9238592
40
0.422716
50
237.5352116
51
252.1857531
0
ARC
8
DEFAULT_255_1_234
10
22.7728289
20
147.9352363
40
0.4371052
50
209.063312
51
237.3492538
0
ARC
8
DEFAULT_255_1_234
10
22.8598137
20
147.9898685
40
0.5397041
50
205.1183774
51
209.6470015
0
ARC
8
DEFAULT_255_1_234
10
22.9395174
20
148.023683
40
0.6262326
50
188.7215458
51
204.8240747
0
ARC
8
DEFAULT_255_1_234
10
23.1392702
20
148.0573067
40
0.8287794
50
180.3723947
51
188.9252049
0
ARC
8
DEFAULT_255_1_234
10
23.1365453
20
148.1402402
40
0.8260467
50
169.5253763
51
180.2765336
0
ARC
8
DEFAULT_255_1_234
10
22.9462902
20
148.1752309
40
0.6326007
50
155.8315255
51
169.5089989
0
ARC
8
DEFAULT_255_1_234
10
22.8182404
20
148.2346348
40
0.4914567
50
139.6258461
51
156.0379525
0
ARC
8
DEFAULT_255_1_234
10
22.7592737
20
148.2820799
40
0.4158054
50
122.6416387
51
139.3430715
0
ARC
8
DEFAULT_255_1_234
10
22.7693357
20
148.2637451
40
0.4366739
50
93.0223692
51
122.455762
0
ARC
8
DEFAULT_255_1_234
10
22.7801353
20
148.1672709
40
0.5336137
50
89.975342
51
93.6341897
0
ARC
8
DEFAULT_255_1_234
10
22.7840133
20
148.2071242
40
0.4937738
50
73.746375
51
90.4233405
0
ARC
8
DEFAULT_255_1_234
10
22.8015711
20
148.2751287
40
0.4235786
50
57.662753
51
73.4518111
0
ARC
8
DEFAULT_255_1_234
10
22.8007718
20
148.2772832
40
0.4221899
50
29.1440151
51
57.414694
0
ARC
8
DEFAULT_255_1_234
10
22.7072912
20
148.2189005
40
0.5322966
50
24.0982783
51
29.7323517
0
ARC
8
DEFAULT_255_1_234
10
22.6039188
20
148.1760399
40
0.6441673
50
8.6655297
51
23.8241346
0
ARC
8
DEFAULT_255_1_234
10
22.3804926
20
148.1395854
40
0.8705386
50
359.7806941
51
8.8218784
0
ARC
8
DEFAULT_255_1_234
10
22.2657924
20
148.1421345
40
0.8318373
50
359.7055579
51
8.036044
0
ARC
8
DEFAULT_255_1_234
10
22.565793
20
148.1858239
40
0.5286768
50
7.8928306
51
20.2962107
0
ARC
8
DEFAULT_255_1_234
10
22.72855
20
148.2458395
40
0.3552073
50
20.3231126
51
36.4992797
0
ARC
8
DEFAULT_255_1_234
10
22.7971046
20
148.2986402
40
0.2686974
50
36.1437156
51
85.6627023
0
ARC
8
DEFAULT_255_1_234
10
22.7808592
20
148.1946221
40
0.373739
50
84.3852322
51
90.0757696
0
ARC
8
DEFAULT_255_1_234
10
22.7766265
20
148.2606839
40
0.3076997
50
89.3038458
51
109.9045693
0
ARC
8
DEFAULT_255_1_234
10
22.7673656
20
148.2989062
40
0.2686424
50
110.8228367
51
143.9179474
0
ARC
8
DEFAULT_255_1_234
10
22.8607316
20
148.2276236
40
0.3860887
50
143.5289163
51
163.2980757
0
ARC
8
DEFAULT_255_1_234
10
23.0515137
20
148.1676433
40
0.5860659
50
163.0418846
51
174.3140048
0
ARC
8
DEFAULT_255_1_234
10
23.2919249
20
148.1398854
40
0.8280531
50
174.0509143
51
179.4176892
0
ARC
8
DEFAULT_255_1_234
10
23.2414988
20
148.0581954
40
0.7775954
50
179.6930361
51
188.7906598
0
ARC
8
DEFAULT_255_1_234
10
22.9751467
20
148.0155935
40
0.5078633
50
188.6331305
51
202.5629587
0
ARC
8
DEFAULT_255_1_234
10
22.8497058
20
147.9651996
40
0.3726913
50
202.8081362
51
216.1193925
0
ARC
8
DEFAULT_255_1_234
10
22.7687629
20
147.9000676
40
0.2689577
50
215.0755913
51
264.6379694
0
ARC
8
DEFAULT_255_1_234
10
22.7814578
20
147.9831513
40
0.3528978
50
263.846392
51
270.0833719
0
ARC
8
DEFAULT_255_1_234
10
22.7855969
20
147.9573374
40
0.3271036
50
269.3649385
51
287.5152008
0
ARC
8
DEFAULT_255_1_234
10
22.8034126
20
147.8926238
40
0.2600406
50
288.0630309
51
323.8113348
0
ARC
8
DEFAULT_255_1_234
10
22.7162968
20
147.9576049
40
0.3687189
50
323.6547608
51
342.6590488
0
ARC
8
DEFAULT_255_1_234
10
22.5131583
20
148.0236952
40
0.5823286
50
342.4091907
51
353.6451149
0
ARC
8
DEFAULT_255_1_234
10
22.2300094
20
148.058919
40
0.8676442
50
353.4029884
51
359.4847795
0
LINE
8
DEFAULT_255_1_234
10
23.9321163
20
148.6904433
11
23.9321163
21
147.5154
0
LINE
8
DEFAULT_255_1_234
10
23.9321163
20
147.5154
11
23.7827259
21
147.5154
0
LINE
8
DEFAULT_255_1_234
10
23.7827259
20
147.5154
11
23.7827259
21
148.5057133
0
LINE
8
DEFAULT_255_1_234
10
23.7827259
20
148.5057133
11
23.4831421
21
148.3956785
0
LINE
8
DEFAULT_255_1_234
10
23.4831421
20
148.3956785
11
23.4831421
21
148.5306117
0
LINE
8
DEFAULT_255_1_234
10
23.4831421
20
148.5306117
11
23.9088242
21
148.6904433
0
LINE
8
DEFAULT_255_1_234
10
23.9088242
20
148.6904433
11
23.9321163
21
148.6904433
0
LINE
8
DEFAULT_255_1_234
10
23.195923
20
155.8239663
11
23.3509355
21
155.8239663
0
LINE
8
DEFAULT_255_1_234
10
22.4505777
20
155.9829947
11
22.4505777
21
156.0954391
0
LINE
8
DEFAULT_255_1_234
10
23.3509355
20
156.2464357
11
23.195923
21
156.2464357
0
LINE
8
DEFAULT_255_1_234
10
22.6055902
20
156.0914232
11
22.6055902
21
155.9781757
0
ARC
8
DEFAULT_255_1_234
10
22.8028742
20
155.8836846
40
0.5513052
50
340.1774281
51
353.7814284
0
ARC
8
DEFAULT_255_1_234
10
22.9600095
20
155.8251582
40
0.3836379
50
311.4558989
51
340.4421614
0
ARC
8
DEFAULT_255_1_234
10
22.9566763
20
155.8362528
40
0.3941894
50
282.4333181
51
310.7513653
0
ARC
8
DEFAULT_255_1_234
10
22.9127502
20
156.0177679
40
0.5809175
50
269.9358511
51
282.809604
0
ARC
8
DEFAULT_255_1_234
10
22.9075568
20
156.1635212
40
0.7266847
50
270.0021091
51
270.3581957
0
ARC
8
DEFAULT_255_1_234
10
22.9022985
20
155.9034585
40
0.4666519
50
250.7884749
51
270.6489167
0
ARC
8
DEFAULT_255_1_234
10
22.885482
20
155.8397319
40
0.4009729
50
219.3627325
51
250.0611886
0
ARC
8
DEFAULT_255_1_234
10
22.9684031
20
155.9102042
40
0.5097822
50
193.5479632
51
219.5756669
0
ARC
8
DEFAULT_255_1_234
10
23.2055652
20
155.9717919
40
0.7547848
50
181.1218675
51
193.87563
0
ARC
8
DEFAULT_255_1_234
10
23.4125833
20
155.982858
40
0.9620055
50
179.9918545
51
181.5394234
0
ARC
8
DEFAULT_255_1_234
10
23.2274935
20
156.0991788
40
0.7769248
50
169.5837241
51
180.2757934
0
ARC
8
DEFAULT_255_1_234
10
23.0437873
20
156.1331229
40
0.590109
50
155.0365899
51
169.6003176
0
ARC
8
DEFAULT_255_1_234
10
22.9302337
20
156.1878677
40
0.4640625
50
136.783148
51
155.2472683
0
ARC
8
DEFAULT_255_1_234
10
22.8912814
20
156.2209562
40
0.4130255
50
121.7633186
51
136.428115
0
ARC
8
DEFAULT_255_1_234
10
22.9047776
20
156.1960227
40
0.4413323
50
95.6459699
51
121.5490577
0
ARC
8
DEFAULT_255_1_234
10
22.9205058
20
156.0851949
40
0.55319
50
89.924208
51
96.1377933
0
ARC
8
DEFAULT_255_1_234
10
22.9255491
20
156.0970542
40
0.5413475
50
76.6779277
51
90.4563316
0
ARC
8
DEFAULT_255_1_234
10
22.9649114
20
156.2561114
40
0.3775041
50
47.485847
51
76.9287264
0
ARC
8
DEFAULT_255_1_234
10
22.9502087
20
156.2461159
40
0.3948286
50
16.5424086
51
46.8933463
0
ARC
8
DEFAULT_255_1_234
10
22.7894244
20
156.1932861
40
0.564021
50
5.4072051
51
17.0365086
0
ARC
8
DEFAULT_255_1_234
10
22.6455261
20
156.1701679
40
0.5556559
50
7.8891745
51
15.9239216
0
ARC
8
DEFAULT_255_1_234
10
22.8442274
20
156.2278631
40
0.3487515
50
15.7653144
51
27.9410532
0
ARC
8
DEFAULT_255_1_234
10
22.9546492
20
156.286979
40
0.2235026
50
27.8166557
51
46.4008329
0
ARC
8
DEFAULT_255_1_234
10
22.9596135
20
156.2864082
40
0.2205286
50
47.4371857
51
75.0698205
0
ARC
8
DEFAULT_255_1_234
10
22.9287529
20
156.1789765
40
0.3322915
50
74.7008593
51
87.8124495
0
ARC
8
DEFAULT_255_1_234
10
22.9214217
20
156.0733844
40
0.4380987
50
87.3814673
51
90.0240855
0
ARC
8
DEFAULT_255_1_234
10
22.917576
20
156.1911291
40
0.3203749
50
89.3451631
51
108.5745436
0
ARC
8
DEFAULT_255_1_234
10
22.9038865
20
156.2424908
40
0.2673494
50
109.2998449
51
143.3037509
0
ARC
8
DEFAULT_255_1_234
10
22.9800938
20
156.1838881
40
0.3634757
50
143.0753173
51
163.1916937
0
ARC
8
DEFAULT_255_1_234
10
23.1752666
20
156.1222967
40
0.5681262
50
162.9373603
51
174.6208611
0
ARC
8
DEFAULT_255_1_234
10
23.4378708
20
156.093501
40
0.8322832
50
174.3419979
51
180.1430411
0
ARC
8
DEFAULT_255_1_234
10
23.3447864
20
155.9740698
40
0.7392076
50
179.6817502
51
189.150529
0
ARC
8
DEFAULT_255_1_234
10
23.0947112
20
155.932419
40
0.4856932
50
188.9910863
51
203.5773039
0
ARC
8
DEFAULT_255_1_234
10
22.9867445
20
155.8876211
40
0.3688271
50
203.9077269
51
215.1312379
0
ARC
8
DEFAULT_255_1_234
10
22.8944539
20
155.8160941
40
0.2522457
50
213.9071664
51
263.8849284
0
ARC
8
DEFAULT_255_1_234
10
22.9069868
20
155.8945518
40
0.3316174
50
263.1758525
51
270.1031083
0
ARC
8
DEFAULT_255_1_234
10
22.910196
20
156.0192365
40
0.4563091
50
269.6719807
51
279.0609165
0
ARC
8
DEFAULT_255_1_234
10
22.9368728
20
155.8579907
40
0.2928759
50
278.8750225
51
293.6346586
0
ARC
8
DEFAULT_255_1_234
10
22.9688936
20
155.78279
40
0.2111472
50
293.8553404
51
310.0518804
0
ARC
8
DEFAULT_255_1_234
10
22.969379
20
155.7765516
40
0.2060917
50
311.0646779
51
332.0108348
0
ARC
8
DEFAULT_255_1_234
10
22.8501517
20
155.8422978
40
0.3422352
50
331.6588543
51
343.2878891
0
ARC
8
DEFAULT_255_1_234
10
22.6439032
20
155.9056798
40
0.5580003
50
343.1446044
51
351.010618
0
ARC
8
DEFAULT_255_1_234
10
22.4897678
20
155.9337871
40
0.7146438
50
350.7157277
51
351.1602153
0
LINE
8
DEFAULT_255_1_234
10
24.0111444
20
156.6279433
11
24.0111444
21
155.4529
0
LINE
8
DEFAULT_255_1_234
10
24.0111444
20
155.4529
11
23.8617541
21
155.4529
0
LINE
8
DEFAULT_255_1_234
10
23.8617541
20
155.4529
11
23.8617541
21
156.4432133
0
LINE
8
DEFAULT_255_1_234
10
23.8617541
20
156.4432133
11
23.5621703
21
156.3331785
0
LINE
8
DEFAULT_255_1_234
10
23.5621703
20
156.3331785
11
23.5621703
21
156.4681117
0
LINE
8
DEFAULT_255_1_234
10
23.5621703
20
156.4681117
11
23.9878524
21
156.6279433
0
LINE
8
DEFAULT_255_1_234
10
23.9878524
20
156.6279433
11
24.0111444
21
156.6279433
0
ENDSEC
0
EOF