0
SECTION
2
HEADER
9
$MEASUREMENT
70
1
0
ENDSEC
0
SECTION
2
TABLES
0
TABLE
2
LTYPE
0
LTYPE
72
65
70
64
2
CONTINUOUS
3
______
73
0
40
0
0
ENDTAB
0
TABLE
2
LAYER
0
LAYER
2
DEFAULT_255_2_778
70
0
62
255
6
CONTINUOUS
0
LAYER
2
DEFAULT_255_1_234
70
0
62
255
6
CONTINUOUS
0
ENDTAB
0
ENDSEC
0
SECTION
2
ENTITIES
0
ARC
8
DEFAULT_255_2_778
10
3.5700693
20
139.3052021
40
0.7914215
50
129.1312896
51
180.1450914
0
ARC
8
DEFAULT_255_2_778
10
3.5703345
20
139.3056893
40
0.7912112
50
89.854026
51
129.1684493
0
ARC
8
DEFAULT_255_2_778
10
25.7993937
20
139.3053758
40
0.7915249
50
39.4792447
51
90.147911
0
ARC
8
DEFAULT_255_2_778
10
25.7999935
20
139.3052224
40
0.7911595
50
359.8533901
51
39.5154338
0
ARC
8
DEFAULT_255_2_778
10
25.7996693
20
-1.9863501
40
0.7914836
50
309.4761667
51
0.1482649
0
ARC
8
DEFAULT_255_2_778
10
25.799398
20
-1.9867812
40
0.7913235
50
269.8517415
51
309.511178
0
ARC
8
DEFAULT_255_2_778
10
3.570342
20
-1.986723
40
0.7913815
50
219.1282118
51
270.1454017
0
ARC
8
DEFAULT_255_2_778
10
3.5700247
20
-1.9863406
40
0.7913769
50
179.8524075
51
219.1641908
0
LINE
8
DEFAULT_255_2_778
10
3.5723503
20
140.096898
11
25.7973503
21
140.096898
0
LINE
8
DEFAULT_255_2_778
10
26.5911503
20
139.303198
11
26.5911503
21
-1.984302
0
LINE
8
DEFAULT_255_2_778
10
25.7973503
20
-2.778102
11
3.5723503
21
-2.778102
0
LINE
8
DEFAULT_255_2_778
10
2.7786503
20
-1.984302
11
2.7786503
21
139.303198
0
LINE
8
DEFAULT_255_1_234
10
11.1079344
20
-0.1934909
11
10.8324458
21
-0.1934909
0
LINE
8
DEFAULT_255_1_234
10
10.8324458
20
-0.1934909
11
10.8324458
21
-0.6513
0
LINE
8
DEFAULT_255_1_234
10
10.8324458
20
-0.6513
11
10.6782364
21
-0.6513
0
LINE
8
DEFAULT_255_1_234
10
10.6782364
20
-0.6513
11
10.6782364
21
0.5181211
0
LINE
8
DEFAULT_255_1_234
10
10.6782364
20
0.5181211
11
11.1095407
21
0.5181211
0
LINE
8
DEFAULT_255_1_234
10
10.8324458
20
0.3912196
11
10.8324458
21
-0.0673926
0
LINE
8
DEFAULT_255_1_234
10
10.8324458
20
-0.0673926
11
11.1095407
21
-0.0673926
0
LINE
8
DEFAULT_255_1_234
10
11.1183756
20
0.3912196
11
10.8324458
21
0.3912196
0
ARC
8
DEFAULT_255_1_234
10
11.1137534
20
-0.0877805
40
0.6059162
50
78.8378113
51
90.3983573
0
ARC
8
DEFAULT_255_1_234
10
11.1553548
20
0.1142879
40
0.3996205
50
58.9632738
51
79.0810598
0
ARC
8
DEFAULT_255_1_234
10
11.185509
20
0.1702721
40
0.3361177
50
48.0197965
51
58.447194
0
ARC
8
DEFAULT_255_1_234
10
11.1943951
20
0.1788225
40
0.3238191
50
3.3375044
51
48.1766626
0
ARC
8
DEFAULT_255_1_234
10
11.071379
20
0.1611171
40
0.4477806
50
359.9477528
51
4.6829065
0
ARC
8
DEFAULT_255_1_234
10
11.0837107
20
0.1568628
40
0.4354656
50
346.1877825
51
0.5060252
0
ARC
8
DEFAULT_255_1_234
10
11.2195975
20
0.1215731
40
0.295089
50
310.8831995
51
346.5426355
0
ARC
8
DEFAULT_255_1_234
10
11.1887395
20
0.1632695
40
0.3468331
50
286.6925341
51
310.2288297
0
ARC
8
DEFAULT_255_1_234
10
11.1318226
20
0.3422882
40
0.5346654
50
274.6850312
51
287.0245141
0
ARC
8
DEFAULT_255_1_234
10
11.1092949
20
0.5631932
40
0.7566852
50
269.8969846
51
275.018904
0
ARC
8
DEFAULT_255_1_234
10
11.112054
20
0.3552707
40
0.4226708
50
269.6593078
51
279.4153575
0
ARC
8
DEFAULT_255_1_234
10
11.1377815
20
0.2062133
40
0.2714146
50
279.2049762
51
294.9900808
0
ARC
8
DEFAULT_255_1_234
10
11.1668141
20
0.1414508
40
0.2004525
50
295.2888114
51
311.2911209
0
ARC
8
DEFAULT_255_1_234
10
11.1739035
20
0.130922
40
0.1878703
50
311.7854996
51
347.2861051
0
ARC
8
DEFAULT_255_1_234
10
11.0755194
20
0.1562092
40
0.2894234
50
346.6893224
51
0.1059443
0
ARC
8
DEFAULT_255_1_234
10
11.0000089
20
0.1590685
40
0.3649409
50
359.6350983
51
0.0053152
0
ARC
8
DEFAULT_255_1_234
10
11.0970417
20
0.1615937
40
0.2679199
50
359.4672059
51
15.5933957
0
ARC
8
DEFAULT_255_1_234
10
11.1595306
20
0.1784779
40
0.2031932
50
15.7442113
51
46.6203375
0
ARC
8
DEFAULT_255_1_234
10
11.1447527
20
0.1614484
40
0.2257226
50
46.8628658
51
75.6676503
0
ARC
8
DEFAULT_255_1_234
10
11.1153347
20
0.0555718
40
0.3355939
50
75.276167
51
88.2915297
0
ARC
8
DEFAULT_255_1_234
10
11.1095054
20
-0.0322476
40
0.4235602
50
87.8575022
51
88.8000139
0
LINE
8
DEFAULT_255_1_234
10
11.8934384
20
-0.1155831
11
11.8934384
21
0.0056962
0
LINE
8
DEFAULT_255_1_234
10
11.8934384
20
0.0056962
11
12.0050795
21
0.0056962
0
LINE
8
DEFAULT_255_1_234
10
11.8147273
20
0.2113087
11
11.6661402
21
0.2113087
0
LINE
8
DEFAULT_255_1_234
10
11.6556989
20
-0.3428812
11
11.8050893
21
-0.3428812
0
LINE
8
DEFAULT_255_1_234
10
12.0050795
20
-0.1155831
11
11.8934384
21
-0.1155831
0
ARC
8
DEFAULT_255_1_234
10
12.0021662
20
0.3449713
40
0.3392876
50
270.4919872
51
281.8951556
0
ARC
8
DEFAULT_255_1_234
10
12.0262923
20
0.2347702
40
0.2264817
50
281.6691735
51
301.2943132
0
ARC
8
DEFAULT_255_1_234
10
12.0433134
20
0.2036304
40
0.1910381
50
301.7833094
51
311.7545298
0
ARC
8
DEFAULT_255_1_234
10
12.0524709
20
0.1934748
40
0.1773635
50
311.7323931
51
354.2802411
0
ARC
8
DEFAULT_255_1_234
10
11.9798335
20
0.2059722
40
0.2509385
50
353.0937916
51
0.1181479
0
ARC
8
DEFAULT_255_1_234
10
11.933712
20
0.2107386
40
0.2970898
50
359.1805295
51
15.0453146
0
ARC
8
DEFAULT_255_1_234
10
12.0682957
20
0.2499992
40
0.1569564
50
13.9577229
51
77.6713066
0
ARC
8
DEFAULT_255_1_234
10
12.0296486
20
0.1114949
40
0.3006298
50
76.1116566
51
90.7026153
0
ARC
8
DEFAULT_255_1_234
10
12.0237324
20
0.1388545
40
0.2732568
50
89.5324876
51
103.531937
0
ARC
8
DEFAULT_255_1_234
10
12.0036768
20
0.2187884
40
0.1908508
50
103.2931773
51
133.5619022
0
ARC
8
DEFAULT_255_1_234
10
11.9992256
20
0.2247375
40
0.1834746
50
133.8349307
51
173.5344437
0
ARC
8
DEFAULT_255_1_234
10
12.07153
20
0.2119213
40
0.2568033
50
172.5096846
51
180.1366907
0
ARC
8
DEFAULT_255_1_234
10
11.9764193
20
0.2153622
40
0.3103056
50
155.3484492
51
180.7484736
0
ARC
8
DEFAULT_255_1_234
10
11.9715283
20
0.2124846
40
0.3070957
50
131.5744599
51
154.4798489
0
ARC
8
DEFAULT_255_1_234
10
12.002843
20
0.180831
40
0.3515643
50
96.9875458
51
131.9690667
0
ARC
8
DEFAULT_255_1_234
10
12.024791
20
0.0562636
40
0.4779224
50
89.8596053
51
97.7825159
0
ARC
8
DEFAULT_255_1_234
10
12.0295973
20
0.0300616
40
0.5041361
50
78.3655447
51
90.4131539
0
ARC
8
DEFAULT_255_1_234
10
12.0653891
20
0.1959887
40
0.3344039
50
56.6229102
51
78.638727
0
ARC
8
DEFAULT_255_1_234
10
12.0868834
20
0.2335805
40
0.2912001
50
47.0253525
51
56.0854072
0
ARC
8
DEFAULT_255_1_234
10
12.0888614
20
0.2375223
40
0.2869704
50
10.9208013
51
46.7778124
0
ARC
8
DEFAULT_255_1_234
10
11.9524681
20
0.2059857
40
0.426899
50
359.6364486
51
11.6087304
0
ARC
8
DEFAULT_255_1_234
10
12.1359525
20
0.2044752
40
0.243409
50
332.3549906
51
359.7179418
0
ARC
8
DEFAULT_255_1_234
10
12.0709126
20
0.2353142
40
0.3153459
50
325.2333722
51
332.8745602
0
ARC
8
DEFAULT_255_1_234
10
12.086175
20
0.2246828
40
0.2967456
50
292.9802137
51
325.2392345
0
ARC
8
DEFAULT_255_1_234
10
12.0587124
20
0.2780863
40
0.3566604
50
292.5402179
51
293.6924929
0
ARC
8
DEFAULT_255_1_234
10
12.097972
20
-0.3673909
40
0.3307468
50
57.6435486
51
72.8625112
0
ARC
8
DEFAULT_255_1_234
10
12.133422
20
-0.3099451
40
0.2632492
50
36.7248896
51
57.4697979
0
ARC
8
DEFAULT_255_1_234
10
12.1322852
20
-0.308678
40
0.2634081
50
8.0545065
51
36.356114
0
ARC
8
DEFAULT_255_1_234
10
12.0460038
20
-0.3241826
40
0.3510261
50
359.8320645
51
8.5869982
0
ARC
8
DEFAULT_255_1_234
10
12.0084814
20
-0.3289899
40
0.3885653
50
343.9829931
51
0.5571613
0
ARC
8
DEFAULT_255_1_234
10
12.0971011
20
-0.3532562
40
0.2966924
50
311.6359546
51
343.7651759
0
ARC
8
DEFAULT_255_1_234
10
12.059258
20
-0.3105898
40
0.3537231
50
279.7829875
51
311.6255694
0
ARC
8
DEFAULT_255_1_234
10
12.0291356
20
-0.166872
40
0.5004971
50
269.7286406
51
280.3856417
0
ARC
8
DEFAULT_255_1_234
10
12.0229429
20
-0.1710004
40
0.4963778
50
256.6828919
51
270.4412052
0
ARC
8
DEFAULT_255_1_234
10
11.9890725
20
-0.3094606
40
0.3538406
50
229.4223008
51
256.8556159
0
ARC
8
DEFAULT_255_1_234
10
11.9476118
20
-0.3561264
40
0.2914296
50
181.818294
51
229.6455059
0
ARC
8
DEFAULT_255_1_234
10
12.0516074
20
-0.3430504
40
0.3959084
50
179.9755256
51
183.2323064
0
ARC
8
DEFAULT_255_1_234
10
12.034382
20
-0.3450963
40
0.2293034
50
179.4465117
51
196.2869258
0
ARC
8
DEFAULT_255_1_234
10
11.9856228
20
-0.3584349
40
0.1787621
50
196.5661473
51
227.705904
0
ARC
8
DEFAULT_255_1_234
10
12.0020323
20
-0.3400845
40
0.2033784
50
227.7652068
51
257.8762805
0
ARC
8
DEFAULT_255_1_234
10
12.0245293
20
-0.2457844
40
0.3003081
50
257.4584385
51
270.426602
0
ARC
8
DEFAULT_255_1_234
10
12.0290859
20
-0.2168004
40
0.329292
50
269.5962073
51
280.8789248
0
ARC
8
DEFAULT_255_1_234
10
12.0520388
20
-0.3314315
40
0.2123908
50
280.6346389
51
299.8595945
0
ARC
8
DEFAULT_255_1_234
10
12.0711294
20
-0.3676788
40
0.171457
50
300.3576302
51
314.5517981
0
ARC
8
DEFAULT_255_1_234
10
12.0628354
20
-0.3616081
40
0.1816095
50
315.0728369
51
345.0431014
0
ARC
8
DEFAULT_255_1_234
10
11.9705169
20
-0.3347159
40
0.2777492
50
344.5986631
51
357.9269593
0
ARC
8
DEFAULT_255_1_234
10
11.8809495
20
-0.3285724
40
0.3674917
50
357.4748886
51
0.0231117
0
ARC
8
DEFAULT_255_1_234
10
11.9832604
20
-0.3261321
40
0.2651907
50
359.5047933
51
13.4239635
0
ARC
8
DEFAULT_255_1_234
10
12.0699248
20
-0.3039522
40
0.1757509
50
12.9498199
51
48.7551375
0
ARC
8
DEFAULT_255_1_234
10
12.0516982
20
-0.32886
40
0.2065134
50
49.5088623
51
72.1836453
0
ARC
8
DEFAULT_255_1_234
10
12.0159135
20
-0.4350709
40
0.3185836
50
71.9010081
51
84.3554254
0
ARC
8
DEFAULT_255_1_234
10
11.9997766
20
-0.5711674
40
0.4556151
50
84.0193428
51
89.333121
0
LINE
8
DEFAULT_255_1_234
10
12.9255167
20
-0.0938974
11
12.9255167
21
-0.2151766
0
LINE
8
DEFAULT_255_1_234
10
12.9255167
20
-0.2151766
11
12.5335679
21
-0.2151766
0
LINE
8
DEFAULT_255_1_234
10
12.5335679
20
-0.2151766
11
12.5335679
21
-0.0938974
0
LINE
8
DEFAULT_255_1_234
10
12.5335679
20
-0.0938974
11
12.9255167
21
-0.0938974
0
LINE
8
DEFAULT_255_1_234
10
13.7881254
20
0.0402327
11
13.7881254
21
-0.1525291
0
LINE
8
DEFAULT_255_1_234
10
13.0500087
20
-0.1726084
11
13.0500087
21
0.0257755
0
LINE
8
DEFAULT_255_1_234
10
13.6395383
20
-0.1926877
11
13.6395383
21
0.0506739
0
LINE
8
DEFAULT_255_1_234
10
13.1985958
20
0.0619184
11
13.1985958
21
-0.1758211
0
ARC
8
DEFAULT_255_1_234
10
12.5634144
20
-0.1574195
40
1.2247208
50
353.8441951
51
0.2287902
0
ARC
8
DEFAULT_255_1_234
10
13.0273648
20
-0.2092194
40
0.7578929
50
344.4934747
51
353.9765454
0
ARC
8
DEFAULT_255_1_234
10
13.3266238
20
-0.2943019
40
0.4467846
50
329.2803592
51
344.7472793
0
ARC
8
DEFAULT_255_1_234
10
13.4259063
20
-0.3487982
40
0.3336173
50
324.9352394
51
328.6160465
0
ARC
8
DEFAULT_255_1_234
10
13.4636171
20
-0.3751573
40
0.2876076
50
280.580143
51
324.9173126
0
ARC
8
DEFAULT_255_1_234
10
13.4234964
20
-0.2080901
40
0.4592847
50
269.5977311
51
281.6734359
0
ARC
8
DEFAULT_255_1_234
10
13.416287
20
-0.2200827
40
0.4472986
50
256.6228859
51
270.51044
0
ARC
8
DEFAULT_255_1_234
10
13.3760847
20
-0.3749123
40
0.2873874
50
215.8618325
51
257.2788573
0
ARC
8
DEFAULT_255_1_234
10
13.4781879
20
-0.3064023
40
0.4102928
50
197.9693508
51
215.2623606
0
ARC
8
DEFAULT_255_1_234
10
13.7266995
20
-0.2225291
40
0.6725652
50
187.8816417
51
198.2346507
0
ARC
8
DEFAULT_255_1_234
10
14.1225203
20
-0.1653921
40
1.0724845
50
180.8976217
51
188.0055519
0
ARC
8
DEFAULT_255_1_234
10
14.4025391
20
-0.1550223
40
1.3526448
50
180.7449369
51
181.1510016
0
ARC
8
DEFAULT_255_1_234
10
14.244812
20
0.0306042
40
1.1948131
50
173.7675579
51
180.231553
0
ARC
8
DEFAULT_255_1_234
10
13.7930267
20
0.0816666
40
0.7401564
50
164.3058563
51
173.9002247
0
ARC
8
DEFAULT_255_1_234
10
13.5018336
20
0.1655656
40
0.4371288
50
148.7922025
51
164.568378
0
ARC
8
DEFAULT_255_1_234
10
13.4066788
20
0.2186929
40
0.3282386
50
144.5883898
51
148.1176286
0
ARC
8
DEFAULT_255_1_234
10
13.3723686
20
0.2426315
40
0.2864044
50
101.6440918
51
144.514236
0
ARC
8
DEFAULT_255_1_234
10
13.4148752
20
0.0737069
40
0.4604934
50
89.5284041
51
102.5819763
0
ARC
8
DEFAULT_255_1_234
10
13.422784
20
0.0698018
40
0.464401
50
77.0437873
51
90.5081339
0
ARC
8
DEFAULT_255_1_234
10
13.4629842
20
0.2340615
40
0.2953195
50
48.2778575
51
77.4994676
0
ARC
8
DEFAULT_255_1_234
10
13.4702473
20
0.2469746
40
0.2808655
50
36.3142134
51
47.6305865
0
ARC
8
DEFAULT_255_1_234
10
13.383378
20
0.1884515
40
0.3855453
50
18.2931786
51
35.6769206
0
ARC
8
DEFAULT_255_1_234
10
13.1290539
20
0.1011593
40
0.654423
50
8.024666
51
18.5605216
0
ARC
8
DEFAULT_255_1_234
10
12.7127459
20
0.0396792
40
1.0752407
50
1.1274072
51
8.1718305
0
ARC
8
DEFAULT_255_1_234
10
12.389165
20
0.0269885
40
1.3990231
50
0.5424119
51
1.3863029
0
ARC
8
DEFAULT_255_1_234
10
12.5713027
20
0.0542342
40
1.0682415
50
359.8090433
51
4.9407866
0
ARC
8
DEFAULT_255_1_234
10
12.9923041
20
0.0918113
40
0.6455691
50
4.8362157
51
12.2904523
0
ARC
8
DEFAULT_255_1_234
10
13.2678156
20
0.1531965
40
0.3633074
50
12.0805627
51
23.8173984
0
ARC
8
DEFAULT_255_1_234
10
13.3851862
20
0.2028919
40
0.2358723
50
24.2871213
51
31.3935614
0
ARC
8
DEFAULT_255_1_234
10
13.4376559
20
0.2372233
40
0.1732111
50
30.7407893
51
82.4657128
0
ARC
8
DEFAULT_255_1_234
10
13.4196693
20
0.1488691
40
0.263235
50
81.1060089
51
90.2184952
0
ARC
8
DEFAULT_255_1_234
10
13.4160992
20
0.1746924
40
0.2374236
50
89.3806855
51
105.6762551
0
ARC
8
DEFAULT_255_1_234
10
13.3977623
20
0.2413567
40
0.1682847
50
105.7981136
51
149.7388061
0
ARC
8
DEFAULT_255_1_234
10
13.5041701
20
0.177395
40
0.2924306
50
149.4208916
51
163.6286378
0
ARC
8
DEFAULT_255_1_234
10
13.7132589
20
0.113625
40
0.5110213
50
163.3763315
51
172.1410975
0
ARC
8
DEFAULT_255_1_234
10
14.0433308
20
0.0663518
40
0.8444586
50
172.0259487
51
178.0703232
0
ARC
8
DEFAULT_255_1_234
10
14.3463397
20
0.0519906
40
1.1477868
50
177.8631668
51
179.5044149
0
ARC
8
DEFAULT_255_1_234
10
14.2390802
20
-0.1794611
40
1.0404907
50
179.7995573
51
185.2460446
0
ARC
8
DEFAULT_255_1_234
10
13.8347841
20
-0.2177487
40
0.6343885
50
185.1411642
51
193.0079639
0
ARC
8
DEFAULT_255_1_234
10
13.5704314
20
-0.2802359
40
0.3627568
50
192.7897626
51
205.2507664
0
ARC
8
DEFAULT_255_1_234
10
13.4657861
20
-0.3269585
40
0.2481908
50
205.8005384
51
211.2537509
0
ARC
8
DEFAULT_255_1_234
10
13.4134301
20
-0.362042
40
0.1852521
50
210.3789793
51
238.4008143
0
ARC
8
DEFAULT_255_1_234
10
13.4114823
20
-0.3573624
40
0.1882621
50
239.6520629
51
265.9793761
0
ARC
8
DEFAULT_255_1_234
10
13.4200023
20
-0.2901573
40
0.2559272
50
265.1315437
51
270.060332
0
ARC
8
DEFAULT_255_1_234
10
13.4228802
20
-0.3225466
40
0.2235528
50
269.3314664
51
287.2178029
0
ARC
8
DEFAULT_255_1_234
10
13.4366654
20
-0.3728721
40
0.1714108
50
287.7958004
51
329.080874
0
ARC
8
DEFAULT_255_1_234
10
13.3409111
20
-0.313107
40
0.2842745
50
328.6634704
51
343.3325132
0
ARC
8
DEFAULT_255_1_234
10
13.1236131
20
-0.2454137
40
0.5118644
50
343.0499468
51
351.9393422
0
ARC
8
DEFAULT_255_1_234
10
12.7769431
20
-0.1943051
40
0.8622784
50
351.8069023
51
357.7959224
0
ARC
8
DEFAULT_255_1_234
10
12.4533987
20
-0.1775279
40
1.1862365
50
357.5871873
51
359.2677531
0
ARC
8
DEFAULT_255_1_234
10
14.405456
20
0.2103703
40
0.2822356
50
338.8763615
51
0.5166041
0
ARC
8
DEFAULT_255_1_234
10
14.4223214
20
0.2058208
40
0.2648703
50
325.8412414
51
338.4795939
0
ARC
8
DEFAULT_255_1_234
10
14.3832582
20
0.2329042
40
0.3124019
50
296.7586019
51
325.753654
0
ARC
8
DEFAULT_255_1_234
10
14.354469
20
0.2813789
40
0.368668
50
296.0902311
51
297.3618122
0
ARC
8
DEFAULT_255_1_234
10
14.3802148
20
-0.3740959
40
0.3518806
50
47.9009248
51
67.1946869
0
ARC
8
DEFAULT_255_1_234
10
14.399839
20
-0.3494605
40
0.320451
50
35.236241
51
47.551371
0
ARC
8
DEFAULT_255_1_234
10
14.4260008
20
-0.3320007
40
0.2890103
50
359.2759738
51
35.4014081
0
ARC
8
DEFAULT_255_1_234
10
14.3515039
20
-0.3393174
40
0.3635026
50
343.1294516
51
0.5776525
0
ARC
8
DEFAULT_255_1_234
10
14.4239584
20
-0.359267
40
0.2883832
50
310.8497458
51
342.744803
0
ARC
8
DEFAULT_255_1_234
10
14.3821697
20
-0.3115706
40
0.3517954
50
281.5473923
51
310.9169905
0
ARC
8
DEFAULT_255_1_234
10
14.3465147
20
-0.1562916
40
0.5110832
50
269.6192722
51
281.9789957
0
ARC
8
DEFAULT_255_1_234
10
14.3392936
20
-0.1562172
40
0.5111606
50
257.4584469
51
270.4287458
0
ARC
8
DEFAULT_255_1_234
10
14.3012079
20
-0.3165656
40
0.3463762
50
228.7553743
51
257.8484423
0
ARC
8
DEFAULT_255_1_234
10
14.2702277
20
-0.3538558
40
0.297916
50
184.0104442
51
228.5071787
0
ARC
8
DEFAULT_255_1_234
10
14.3865221
20
-0.3361488
40
0.4152734
50
179.9315461
51
185.3254504
0
ARC
8
DEFAULT_255_1_234
10
14.2688867
20
-0.3324008
40
0.2976554
50
145.6795913
51
180.6259649
0
ARC
8
DEFAULT_255_1_234
10
14.2852216
20
-0.3438071
40
0.3175776
50
115.5537925
51
145.6416199
0
ARC
8
DEFAULT_255_1_234
10
14.3193146
20
-0.4048972
40
0.3874232
50
113.2437915
51
116.2054627
0
ARC
8
DEFAULT_255_1_234
10
14.3040359
20
0.234958
40
0.3154751
50
222.9548379
51
244.1372485
0
ARC
8
DEFAULT_255_1_234
10
14.2918434
20
0.2212834
40
0.2972382
50
213.3439227
51
222.6271327
0
ARC
8
DEFAULT_255_1_234
10
14.2726369
20
0.2082308
40
0.274019
50
180.4316517
51
213.2713999
0
ARC
8
DEFAULT_255_1_234
10
14.330137
20
0.212911
40
0.33158
50
179.9992944
51
181.1655061
0
ARC
8
DEFAULT_255_1_234
10
14.3710787
20
0.2163561
40
0.3725376
50
164.6186108
51
180.5292368
0
ARC
8
DEFAULT_255_1_234
10
14.281265
20
0.2405101
40
0.2795349
50
132.2454369
51
164.5092287
0
ARC
8
DEFAULT_255_1_234
10
14.3099754
20
0.2080028
40
0.3229019
50
100.7052766
51
132.1387266
0
ARC
8
DEFAULT_255_1_234
10
14.3404726
20
0.0702086
40
0.4639835
50
89.6732617
51
101.2449487
0
ARC
8
DEFAULT_255_1_234
10
14.3466924
20
0.087699
40
0.4464999
50
76.2876631
51
90.4586123
0
ARC
8
DEFAULT_255_1_234
10
14.3773156
20
0.209922
40
0.3205023
50
47.8240157
51
76.4266918
0
ARC
8
DEFAULT_255_1_234
10
14.3995706
20
0.235959
40
0.2862661
50
6.9168658
51
47.6261438
0
ARC
8
DEFAULT_255_1_234
10
14.2809109
20
0.214037
40
0.4067708
50
359.8419705
51
7.9694496
0
ARC
8
DEFAULT_255_1_234
10
14.3151006
20
-0.3300075
40
0.2513121
50
359.4454068
51
16.9256425
0
ARC
8
DEFAULT_255_1_234
10
14.3619817
20
-0.3170967
40
0.2027071
50
17.292259
51
45.462717
0
ARC
8
DEFAULT_255_1_234
10
14.3565753
20
-0.3217566
40
0.2098212
50
45.3028762
51
83.1921472
0
ARC
8
DEFAULT_255_1_234
10
14.3422437
20
-0.4019105
40
0.2911472
50
82.2614531
51
90.143954
0
ARC
8
DEFAULT_255_1_234
10
14.3391557
20
-0.378605
40
0.2678513
50
89.4959189
51
104.8579811
0
ARC
8
DEFAULT_255_1_234
10
14.3214816
20
-0.311611
40
0.1985654
50
104.8855873
51
135.2448349
0
ARC
8
DEFAULT_255_1_234
10
14.3264589
20
-0.3160664
40
0.2052373
50
135.3398955
51
172.104394
0
ARC
8
DEFAULT_255_1_234
10
14.4071647
20
-0.3315075
40
0.2873299
50
171.2651929
51
180.1859362
0
ARC
8
DEFAULT_255_1_234
10
14.3902348
20
-0.3347267
40
0.2704083
50
179.515471
51
193.6466734
0
ARC
8
DEFAULT_255_1_234
10
14.3086117
20
-0.3555223
40
0.1861855
50
193.3540587
51
225.8256931
0
ARC
8
DEFAULT_255_1_234
10
14.3126874
20
-0.3484476
40
0.1941102
50
226.418029
51
255.8553723
0
ARC
8
DEFAULT_255_1_234
10
14.3383307
20
-0.2548002
40
0.2911917
50
255.4655572
51
268.7985967
0
ARC
8
DEFAULT_255_1_234
10
14.3430499
20
-0.1709509
40
0.3751331
50
268.3464808
51
270.0104874
0
ARC
8
DEFAULT_255_1_234
10
14.3453887
20
-0.2393862
40
0.3067064
50
269.575914
51
282.0823146
0
ARC
8
DEFAULT_255_1_234
10
14.3678796
20
-0.3388197
40
0.2047712
50
281.7522535
51
306.6056425
0
ARC
8
DEFAULT_255_1_234
10
14.3777222
20
-0.3549513
40
0.1859604
50
307.1350025
51
314.0277951
0
ARC
8
DEFAULT_255_1_234
10
14.3741306
20
-0.3523234
40
0.1903475
50
314.2553419
51
350.169324
0
ARC
8
DEFAULT_255_1_234
10
14.2889775
20
-0.3338591
40
0.2774269
50
349.4145679
51
0.2930737
0
ARC
8
DEFAULT_255_1_234
10
14.3410208
20
0.1820353
40
0.2300764
50
89.477591
51
105.729794
0
ARC
8
DEFAULT_255_1_234
10
14.3274122
20
0.2325637
40
0.1777519
50
105.922966
51
135.1662921
0
ARC
8
DEFAULT_255_1_234
10
14.3294624
20
0.2311419
40
0.1802087
50
135.3053131
51
168.9882338
0
ARC
8
DEFAULT_255_1_234
10
14.4122196
20
0.2121721
40
0.2650806
50
168.3802067
51
180.3602358
0
ARC
8
DEFAULT_255_1_234
10
14.3893776
20
0.2084041
40
0.2422425
50
179.5029707
51
194.9126783
0
ARC
8
DEFAULT_255_1_234
10
14.3308437
20
0.193011
40
0.1817188
50
194.9722181
51
224.1943972
0
ARC
8
DEFAULT_255_1_234
10
14.3280304
20
0.1907169
40
0.1781027
50
224.2961434
51
262.0157375
0
ARC
8
DEFAULT_255_1_234
10
14.3422547
20
0.2638661
40
0.2525492
50
261.1250369
51
270.1959853
0
ARC
8
DEFAULT_255_1_234
10
14.3452302
20
0.2451339
40
0.233825
50
269.4825617
51
285.0988277
0
ARC
8
DEFAULT_255_1_234
10
14.3606461
20
0.187299
40
0.1739712
50
285.1585659
51
315.9484648
0
ARC
8
DEFAULT_255_1_234
10
14.3517473
20
0.1954886
40
0.1860616
50
316.0412958
51
351.9162715
0
ARC
8
DEFAULT_255_1_234
10
14.2784428
20
0.2096245
40
0.2606517
50
351.1056823
51
0.1936567
0
ARC
8
DEFAULT_255_1_234
10
14.3047257
20
0.2126369
40
0.234377
50
359.4789506
51
16.0679113
0
ARC
8
DEFAULT_255_1_234
10
14.3523216
20
0.225481
40
0.1850875
50
16.3251951
51
44.791304
0
ARC
8
DEFAULT_255_1_234
10
14.3505497
20
0.2255339
40
0.186312
50
44.3958661
51
88.2498933
0
ARC
8
DEFAULT_255_1_234
10
14.3432051
20
0.1644154
40
0.2476868
50
86.9833827
51
90.0200148
0
LINE
8
DEFAULT_255_1_234
10
15.7486728
20
0.5181211
11
15.7486728
21
0.3912196
0
LINE
8
DEFAULT_255_1_234
10
15.7486728
20
0.3912196
11
15.3727874
21
0.3912196
0
LINE
8
DEFAULT_255_1_234
10
15.3727874
20
0.3912196
11
15.3727874
21
-0.6513
0
LINE
8
DEFAULT_255_1_234
10
15.3727874
20
-0.6513
11
15.2193812
21
-0.6513
0
LINE
8
DEFAULT_255_1_234
10
15.2193812
20
-0.6513
11
15.2193812
21
0.3912196
0
LINE
8
DEFAULT_255_1_234
10
15.2193812
20
0.3912196
11
14.844299
21
0.3912196
0
LINE
8
DEFAULT_255_1_234
10
14.844299
20
0.3912196
11
14.844299
21
0.5181211
0
LINE
8
DEFAULT_255_1_234
10
14.844299
20
0.5181211
11
15.7486728
21
0.5181211
0
LINE
8
DEFAULT_255_1_234
10
16.6161005
20
-0.6513
11
16.5044593
21
-0.3460939
0
LINE
8
DEFAULT_255_1_234
10
16.5044593
20
-0.3460939
11
16.0145233
21
-0.3460939
0
LINE
8
DEFAULT_255_1_234
10
16.0145233
20
-0.3460939
11
15.9044885
21
-0.6513
0
LINE
8
DEFAULT_255_1_234
10
15.9044885
20
-0.6513
11
15.7454601
21
-0.6513
0
LINE
8
DEFAULT_255_1_234
10
15.7454601
20
-0.6513
11
16.1920247
21
0.5181211
0
LINE
8
DEFAULT_255_1_234
10
16.1920247
20
0.5181211
11
16.3269579
21
0.5181211
0
LINE
8
DEFAULT_255_1_234
10
16.3269579
20
0.5181211
11
16.7743257
21
-0.6513
0
LINE
8
DEFAULT_255_1_234
10
16.7743257
20
-0.6513
11
16.6161005
21
-0.6513
0
LINE
8
DEFAULT_255_1_234
10
16.2594913
20
0.3277689
11
16.0611074
21
-0.2191925
0
LINE
8
DEFAULT_255_1_234
10
16.0611074
20
-0.2191925
11
16.4586784
21
-0.2191925
0
LINE
8
DEFAULT_255_1_234
10
16.4586784
20
-0.2191925
11
16.2594913
21
0.3277689
0
LINE
8
DEFAULT_255_1_234
10
17.7076137
20
0.1799849
11
17.5526012
21
0.1799849
0
LINE
8
DEFAULT_255_1_234
10
16.8602653
20
-0.3123606
11
17.0152779
21
-0.3123606
0
ARC
8
DEFAULT_255_1_234
10
17.6184825
20
1.0746768
40
1.252368
50
248.9199003
51
254.1439814
0
ARC
8
DEFAULT_255_1_234
10
17.4504319
20
0.6420234
40
0.788226
50
241.633709
51
249.0064503
0
ARC
8
DEFAULT_255_1_234
10
17.2975714
20
0.3619317
40
0.4691427
50
230.498225
51
241.8087113
0
ARC
8
DEFAULT_255_1_234
10
17.2191288
20
0.2619906
40
0.3421437
50
227.4064532
51
229.9881192
0
ARC
8
DEFAULT_255_1_234
10
17.1703809
20
0.2144088
40
0.2741476
50
200.6781896
51
228.1763934
0
ARC
8
DEFAULT_255_1_234
10
17.1776119
20
0.2129077
40
0.2804109
50
179.5061581
51
199.8694617
0
ARC
8
DEFAULT_255_1_234
10
17.1766871
20
0.220321
40
0.2795204
50
132.4834203
51
181.0242172
0
ARC
8
DEFAULT_255_1_234
10
17.2362453
20
0.1640704
40
0.3612768
50
129.2532479
51
133.4242687
0
ARC
8
DEFAULT_255_1_234
10
17.2508903
20
0.1420965
40
0.3875675
50
101.98776
51
128.8742646
0
ARC
8
DEFAULT_255_1_234
10
17.2907514
20
-0.0300259
40
0.5642249
50
89.5906553
51
102.3169264
0
ARC
8
DEFAULT_255_1_234
10
17.2978006
20
0.0018148
40
0.5323783
50
77.2360837
51
90.3248275
0
ARC
8
DEFAULT_255_1_234
10
17.3185085
20
0.09854
40
0.4334697
50
63.837784
51
77.0809408
0
ARC
8
DEFAULT_255_1_234
10
17.3462847
20
0.1502911
40
0.3747796
50
45.9864267
51
64.1607727
0
ARC
8
DEFAULT_255_1_234
10
17.3723728
20
0.1800866
40
0.3352302
50
32.2747395
51
45.6547121
0
ARC
8
DEFAULT_255_1_234
10
17.3790169
20
0.181988
40
0.328603
50
359.6507365
51
32.6130309
0
ARC
8
DEFAULT_255_1_234
10
17.2847264
20
0.182466
40
0.2678863
50
359.469343
51
14.9832209
0
ARC
8
DEFAULT_255_1_234
10
17.3552326
20
0.2013539
40
0.1948938
50
14.9781179
51
48.2004265
0
ARC
8
DEFAULT_255_1_234
10
17.338797
20
0.1806983
40
0.2212521
50
48.5927837
51
74.1241538
0
ARC
8
DEFAULT_255_1_234
10
17.305446
20
0.0706248
40
0.3362561
50
73.7888341
51
86.6652678
0
ARC
8
DEFAULT_255_1_234
10
17.2952026
20
-0.0501119
40
0.4573953
50
86.2640471
51
90.0526343
0
ARC
8
DEFAULT_255_1_234
10
17.2923738
20
-0.0105808
40
0.4178709
50
89.6697524
51
99.2309573
0
ARC
8
DEFAULT_255_1_234
10
17.2681189
20
0.1338964
40
0.2713749
50
99.069534
51
113.7658566
0
ARC
8
DEFAULT_255_1_234
10
17.240738
20
0.1984677
40
0.2012469
50
114.0401004
51
127.9850673
0
ARC
8
DEFAULT_255_1_234
10
17.2166944
20
0.228073
40
0.1631167
50
127.7287463
51
176.7105154
0
ARC
8
DEFAULT_255_1_234
10
17.2845661
20
0.2179693
40
0.2315392
50
175.1779447
51
180.0581938
0
ARC
8
DEFAULT_255_1_234
10
17.2002508
20
0.2167428
40
0.1472271
50
179.6142195
51
228.1246017
0
ARC
8
DEFAULT_255_1_234
10
17.2444177
20
0.2576308
40
0.2072299
50
226.5779593
51
230.8800004
0
ARC
8
DEFAULT_255_1_234
10
17.2915256
20
0.3201636
40
0.2854818
50
231.4635071
51
241.9260842
0
ARC
8
DEFAULT_255_1_234
10
17.4112434
20
0.54048
40
0.53622
50
241.7178533
51
248.3259551
0
ARC
8
DEFAULT_255_1_234
10
17.5497805
20
0.8837064
40
0.9063478
50
248.2007737
51
252.4528373
0
ARC
8
DEFAULT_255_1_234
10
17.670153
20
1.2558441
40
1.2974635
50
252.3391078
51
254.3469452
0
ARC
8
DEFAULT_255_1_234
10
16.9159233
20
-1.4418852
40
1.5037162
50
71.0197183
51
74.4087047
0
ARC
8
DEFAULT_255_1_234
10
17.0853918
20
-0.9526889
40
0.9859993
50
66.1847285
51
71.086374
0
ARC
8
DEFAULT_255_1_234
10
17.2410231
20
-0.60228
40
0.6025855
50
59.3536294
51
66.2691831
0
ARC
8
DEFAULT_255_1_234
10
17.3298883
20
-0.4519391
40
0.4279449
50
49.1020879
51
59.3293958
0
ARC
8
DEFAULT_255_1_234
10
17.4117623
20
-0.3586166
40
0.3038015
50
32.7919921
51
49.2505539
0
ARC
8
DEFAULT_255_1_234
10
17.4438713
20
-0.3357809
40
0.264448
50
31.1181161
51
32.4005348
0
ARC
8
DEFAULT_255_1_234
10
17.435025
20
-0.3393221
40
0.2738556
50
8.1116974
51
30.7958831
0
ARC
8
DEFAULT_255_1_234
10
17.3539919
20
-0.3531247
40
0.3560327
50
359.8389159
51
8.4706516
0
ARC
8
DEFAULT_255_1_234
10
17.416571
20
-0.3579863
40
0.2934776
50
337.4731098
51
0.7537279
0
ARC
8
DEFAULT_255_1_234
10
17.4344405
20
-0.3599613
40
0.2762607
50
307.5917067
51
336.4315538
0
ARC
8
DEFAULT_255_1_234
10
17.3884233
20
-0.3086898
40
0.3449979
50
307.6551545
51
308.4529766
0
ARC
8
DEFAULT_255_1_234
10
17.3653952
20
-0.273175
40
0.3871988
50
284.3734338
51
307.1424381
0
ARC
8
DEFAULT_255_1_234
10
17.3158782
20
-0.0910068
40
0.5759636
50
272.4382747
51
284.646547
0
ARC
8
DEFAULT_255_1_234
10
17.3031991
20
0.0889893
40
0.7563528
50
269.9708387
51
272.8178037
0
ARC
8
DEFAULT_255_1_234
10
17.298903
20
-0.1148284
40
0.5525489
50
248.2707594
51
270.4055579
0
ARC
8
DEFAULT_255_1_234
10
17.2934771
20
-0.1338808
40
0.5328452
50
246.1383403
51
248.0542782
0
ARC
8
DEFAULT_255_1_234
10
17.251615
20
-0.2218157
40
0.4355005
50
233.1670131
51
246.4950969
0
ARC
8
DEFAULT_255_1_234
10
17.1962055
20
-0.2966188
40
0.3424126
50
215.3403242
51
233.0843104
0
ARC
8
DEFAULT_255_1_234
10
17.1689487
20
-0.3164451
40
0.3087104
50
179.2419209
51
215.2648451
0
ARC
8
DEFAULT_255_1_234
10
17.245708
20
-0.3150334
40
0.2304457
50
179.335461
51
199.1045811
0
ARC
8
DEFAULT_255_1_234
10
17.2124757
20
-0.3237234
40
0.1962176
50
199.8828939
51
232.7063202
0
ARC
8
DEFAULT_255_1_234
10
17.2597025
20
-0.2643212
40
0.2720938
50
232.3738199
51
255.5136649
0
ARC
8
DEFAULT_255_1_234
10
17.2937892
20
-0.1399165
40
0.4010747
50
255.2446292
51
267.5320849
0
ARC
8
DEFAULT_255_1_234
10
17.3025515
20
-0.0166298
40
0.5246356
50
267.1557994
51
270.0286766
0
ARC
8
DEFAULT_255_1_234
10
17.3053288
20
-0.061005
40
0.4802668
50
269.7000017
51
278.1660162
0
ARC
8
DEFAULT_255_1_234
10
17.3309292
20
-0.2340485
40
0.3053425
50
278.0231263
51
290.625471
0
ARC
8
DEFAULT_255_1_234
10
17.3656979
20
-0.3267975
40
0.206291
50
290.6619762
51
307.0370976
0
ARC
8
DEFAULT_255_1_234
10
17.3957369
20
-0.3636496
40
0.1587906
50
306.3943566
51
355.3030547
0
ARC
8
DEFAULT_255_1_234
10
17.34453
20
-0.3559887
40
0.2104809
50
354.3660432
51
0.0698737
0
ARC
8
DEFAULT_255_1_234
10
17.3587645
20
-0.3537383
40
0.1962563
50
359.417946
51
16.1971788
0
ARC
8
DEFAULT_255_1_234
10
17.4042956
20
-0.3412582
40
0.149053
50
16.4723299
51
52.6262157
0
ARC
8
DEFAULT_255_1_234
10
17.322201
20
-0.4496567
40
0.2850296
50
52.7386432
51
62.4979148
0
ARC
8
DEFAULT_255_1_234
10
17.1837086
20
-0.7102717
40
0.5801521
50
62.2515216
51
68.1220564
0
ARC
8
DEFAULT_255_1_234
10
17.0116997
20
-1.1330128
40
1.0365451
50
68.0062803
51
71.8053402
0
ARC
8
DEFAULT_255_1_234
10
16.8321369
20
-1.6715242
40
1.6042013
50
71.7183119
51
73.9258742
0
LINE
8
DEFAULT_255_1_234
10
8.5475344
20
134.0825091
11
8.2720458
21
134.0825091
0
LINE
8
DEFAULT_255_1_234
10
8.2720458
20
134.0825091
11
8.2720458
21
133.6247
0
LINE
8
DEFAULT_255_1_234
10
8.2720458
20
133.6247
11
8.1178364
21
133.6247
0
LINE
8
DEFAULT_255_1_234
10
8.1178364
20
133.6247
11
8.1178364
21
134.7941211
0
LINE
8
DEFAULT_255_1_234
10
8.1178364
20
134.7941211
11
8.5491407
21
134.7941211
0
LINE
8
DEFAULT_255_1_234
10
8.2720458
20
134.6672196
11
8.2720458
21
134.2086074
0
LINE
8
DEFAULT_255_1_234
10
8.2720458
20
134.2086074
11
8.5491407
21
134.2086074
0
LINE
8
DEFAULT_255_1_234
10
8.5579756
20
134.6672196
11
8.2720458
21
134.6672196
0
ARC
8
DEFAULT_255_1_234
10
8.5533534
20
134.1882195
40
0.6059162
50
78.8378113
51
90.3983573
0
ARC
8
DEFAULT_255_1_234
10
8.5949548
20
134.3902879
40
0.3996205
50
58.9632738
51
79.0810598
0
ARC
8
DEFAULT_255_1_234
10
8.625109
20
134.4462721
40
0.3361177
50
48.0197965
51
58.447194
0
ARC
8
DEFAULT_255_1_234
10
8.6339951
20
134.4548225
40
0.3238191
50
3.3375044
51
48.1766626
0
ARC
8
DEFAULT_255_1_234
10
8.510979
20
134.4371171
40
0.4477806
50
359.9477528
51
4.6829065
0
ARC
8
DEFAULT_255_1_234
10
8.5233107
20
134.4328628
40
0.4354656
50
346.1877825
51
0.5060252
0
ARC
8
DEFAULT_255_1_234
10
8.6591975
20
134.3975731
40
0.295089
50
310.8831995
51
346.5426355
0
ARC
8
DEFAULT_255_1_234
10
8.6283395
20
134.4392695
40
0.3468331
50
286.6925341
51
310.2288297
0
ARC
8
DEFAULT_255_1_234
10
8.5714226
20
134.6182882
40
0.5346654
50
274.6850312
51
287.0245141
0
ARC
8
DEFAULT_255_1_234
10
8.5488949
20
134.8391932
40
0.7566852
50
269.8969846
51
275.018904
0
ARC
8
DEFAULT_255_1_234
10
8.551654
20
134.6312707
40
0.4226708
50
269.6593078
51
279.4153575
0
ARC
8
DEFAULT_255_1_234
10
8.5773815
20
134.4822133
40
0.2714146
50
279.2049762
51
294.9900808
0
ARC
8
DEFAULT_255_1_234
10
8.6064141
20
134.4174508
40
0.2004525
50
295.2888114
51
311.2911209
0
ARC
8
DEFAULT_255_1_234
10
8.6135035
20
134.406922
40
0.1878703
50
311.7854996
51
347.2861051
0
ARC
8
DEFAULT_255_1_234
10
8.5151194
20
134.4322092
40
0.2894234
50
346.6893224
51
0.1059443
0
ARC
8
DEFAULT_255_1_234
10
8.4396089
20
134.4350685
40
0.3649409
50
359.6350983
51
0.0053152
0
ARC
8
DEFAULT_255_1_234
10
8.5366417
20
134.4375937
40
0.2679199
50
359.4672059
51
15.5933957
0
ARC
8
DEFAULT_255_1_234
10
8.5991306
20
134.4544779
40
0.2031932
50
15.7442113
51
46.6203375
0
ARC
8
DEFAULT_255_1_234
10
8.5843527
20
134.4374484
40
0.2257226
50
46.8628658
51
75.6676503
0
ARC
8
DEFAULT_255_1_234
10
8.5549347
20
134.3315718
40
0.3355939
50
75.276167
51
88.2915297
0
ARC
8
DEFAULT_255_1_234
10
8.5491054
20
134.2437524
40
0.4235602
50
87.8575022
51
88.8000139
0
LINE
8
DEFAULT_255_1_234
10
9.5523048
20
134.4985531
11
9.5523048
21
134.3604072
0
LINE
8
DEFAULT_255_1_234
10
9.2808321
20
134.2415375
11
9.2808321
21
133.6247
0
LINE
8
DEFAULT_255_1_234
10
9.2808321
20
133.6247
11
9.1322449
21
133.6247
0
LINE
8
DEFAULT_255_1_234
10
9.1322449
20
133.6247
11
9.1322449
21
134.4937341
0
LINE
8
DEFAULT_255_1_234
10
9.1322449
20
134.4937341
11
9.2768162
21
134.4937341
0
LINE
8
DEFAULT_255_1_234
10
9.2768162
20
134.4937341
11
9.2792257
21
134.3933374
0
ARC
8
DEFAULT_255_1_234
10
9.4856454
20
133.9544342
40
0.4114092
50
80.6754243
51
86.8932892
0
ARC
8
DEFAULT_255_1_234
10
9.4795988
20
133.85767
40
0.5083596
50
86.8038578
51
90.0431435
0
ARC
8
DEFAULT_255_1_234
10
9.4758969
20
134.1033866
40
0.2626638
50
89.2759698
51
106.6213787
0
ARC
8
DEFAULT_255_1_234
10
9.4554533
20
134.177683
40
0.1856317
50
107.1346045
51
157.6458115
0
ARC
8
DEFAULT_255_1_234
10
9.5246134
20
134.1393311
40
0.2643398
50
155.6586782
51
157.2539184
0
ARC
8
DEFAULT_255_1_234
10
9.5041337
20
134.2562157
40
0.2634121
50
127.8165941
51
148.6302098
0
ARC
8
DEFAULT_255_1_234
10
9.4787806
20
134.2822218
40
0.2273596
50
91.3329982
51
126.7875809
0
ARC
8
DEFAULT_255_1_234
10
9.4863746
20
134.2107195
40
0.299078
50
89.986594
51
92.4688449
0
ARC
8
DEFAULT_255_1_234
10
9.4872141
20
134.2382078
40
0.2715908
50
85.3589899
51
90.1623399
0
ARC
8
DEFAULT_255_1_234
10
9.4956657
20
134.3386164
40
0.1708278
50
78.401942
51
85.4594656
0
ARC
8
DEFAULT_255_1_234
10
9.5101541
20
134.4077236
40
0.1002194
50
67.7858312
51
78.5728455
0
ARC
8
DEFAULT_255_1_234
10
9.5209393
20
134.4356887
40
0.0702548
50
63.4835954
51
67.3062642
0
LINE
8
DEFAULT_255_1_234
10
9.6334254
20
134.0568075
11
9.6334254
21
134.0672488
0
LINE
8
DEFAULT_255_1_234
10
10.4245516
20
134.0600202
11
10.4245516
21
134.049579
0
ARC
8
DEFAULT_255_1_234
10
10.1920433
20
134.0704837
40
0.5586273
50
166.3003825
51
180.3317926
0
ARC
8
DEFAULT_255_1_234
10
10.1057593
20
134.0897964
40
0.4702272
50
153.8608245
51
166.0967125
0
ARC
8
DEFAULT_255_1_234
10
10.0391995
20
134.125475
40
0.3947658
50
135.1316692
51
154.253643
0
ARC
8
DEFAULT_255_1_234
10
10.0113555
20
134.1500666
40
0.3576898
50
121.7044358
51
134.776924
0
ARC
8
DEFAULT_255_1_234
10
10.0180548
20
134.1371867
40
0.3721701
50
93.4002104
51
121.5398234
0
ARC
8
DEFAULT_255_1_234
10
10.0275504
20
134.0546228
40
0.4551749
50
89.9706281
51
93.9769836
0
ARC
8
DEFAULT_255_1_234
10
10.0322596
20
134.0936362
40
0.4161854
50
71.3323442
51
90.6161982
0
ARC
8
DEFAULT_255_1_234
10
10.0485293
20
134.1538578
40
0.3539455
50
41.1815071
51
70.707185
0
ARC
8
DEFAULT_255_1_234
10
10.0007693
20
134.1104919
40
0.4184468
50
12.1971897
51
41.3445735
0
ARC
8
DEFAULT_255_1_234
10
9.80817
20
134.0646425
40
0.616399
50
359.5703439
51
12.5804035
0
ARC
8
DEFAULT_255_1_234
10
9.8554775
20
134.0464116
40
0.5690829
50
347.0197749
51
0.3188898
0
ARC
8
DEFAULT_255_1_234
10
9.9513277
20
134.0257808
40
0.4710501
50
334.3504053
51
346.846361
0
ARC
8
DEFAULT_255_1_234
10
10.0358701
20
133.9818805
40
0.3758475
50
310.422922
51
334.8045033
0
ARC
8
DEFAULT_255_1_234
10
10.0440526
20
133.9754782
40
0.3656736
50
301.8486886
51
310.097356
0
ARC
8
DEFAULT_255_1_234
10
10.0408252
20
133.9830638
40
0.3738224
50
274.307774
51
301.655379
0
ARC
8
DEFAULT_255_1_234
10
10.029756
20
134.0708361
40
0.4621997
50
269.9546461
51
274.8588071
0
ARC
8
DEFAULT_255_1_234
10
10.0248493
20
134.0207249
40
0.4121134
50
250.888809
51
270.631312
0
ARC
8
DEFAULT_255_1_234
10
10.0098413
20
133.9648277
40
0.3544073
50
221.1701932
51
250.2227191
0
ARC
8
DEFAULT_255_1_234
10
10.0582568
20
134.0089439
40
0.4198961
50
191.6263638
51
221.3526367
0
ARC
8
DEFAULT_255_1_234
10
10.2470563
20
134.0526329
40
0.6136451
50
179.610213
51
192.0693181
0
ARC
8
DEFAULT_255_1_234
10
10.2893791
20
134.0463633
40
0.5065736
50
179.636298
51
190.6162791
0
ARC
8
DEFAULT_255_1_234
10
10.1251459
20
134.014359
40
0.3392576
50
190.4136628
51
208.7170242
0
ARC
8
DEFAULT_255_1_234
10
10.0741084
20
133.9890366
40
0.2823401
50
209.1867941
51
217.4225593
0
ARC
8
DEFAULT_255_1_234
10
10.0211918
20
133.9424558
40
0.2120636
50
216.1156896
51
265.2575835
0
ARC
8
DEFAULT_255_1_234
10
10.0291066
20
133.9998109
40
0.2698952
50
264.5897417
51
270.0601757
0
ARC
8
DEFAULT_255_1_234
10
10.0324127
20
133.9618185
40
0.2319225
50
269.2532621
51
291.8792492
0
ARC
8
DEFAULT_255_1_234
10
10.0353348
20
133.9440238
40
0.2143562
50
292.9269754
51
323.1776747
0
ARC
8
DEFAULT_255_1_234
10
9.996017
20
133.9788452
40
0.2667346
50
322.2518483
51
323.0930371
0
ARC
8
DEFAULT_255_1_234
10
9.9665829
20
133.996999
40
0.3011886
50
323.6941278
51
343.8493282
0
ARC
8
DEFAULT_255_1_234
10
9.8087372
20
134.045035
40
0.4661719
50
343.5748474
51
355.0079071
0
ARC
8
DEFAULT_255_1_234
10
9.6079618
20
134.0658424
40
0.6680042
50
354.7285225
51
0.1206288
0
ARC
8
DEFAULT_255_1_234
10
9.7848084
20
134.0704751
40
0.4911667
50
359.623636
51
11.2015604
0
ARC
8
DEFAULT_255_1_234
10
9.9382311
20
134.102064
40
0.3345323
50
10.9989411
51
30.8319188
0
ARC
8
DEFAULT_255_1_234
10
9.9778184
20
134.1229297
40
0.2898553
50
31.3008956
51
37.3959224
0
ARC
8
DEFAULT_255_1_234
10
10.0274762
20
134.1648653
40
0.2249582
50
36.5915954
51
62.2442953
0
ARC
8
DEFAULT_255_1_234
10
10.0321216
20
134.1645602
40
0.2231053
50
63.3365542
51
89.7195421
0
ARC
8
DEFAULT_255_1_234
10
10.0278069
20
134.1076884
40
0.2800267
50
88.8936788
51
90.0047485
0
ARC
8
DEFAULT_255_1_234
10
10.0246429
20
134.1649787
40
0.2227586
50
89.1921125
51
114.7099455
0
ARC
8
DEFAULT_255_1_234
10
10.0275193
20
134.1687628
40
0.2205633
50
115.7997161
51
142.2900762
0
ARC
8
DEFAULT_255_1_234
10
10.0713925
20
134.1297658
40
0.2791541
50
141.4658779
51
142.3795754
0
ARC
8
DEFAULT_255_1_234
10
10.082283
20
134.1254557
40
0.2904292
50
143.0175714
51
163.234115
0
ARC
8
DEFAULT_255_1_234
10
10.2401002
20
134.0755054
40
0.4559523
50
162.9447461
51
174.3732162
0
ARC
8
DEFAULT_255_1_234
10
10.4546816
20
134.0514143
40
0.6718682
50
174.1228657
51
180.1565175
0
LINE
8
DEFAULT_255_1_234
10
10.5747451
20
134.0552012
11
10.5747451
21
134.0664456
0
LINE
8
DEFAULT_255_1_234
10
11.1594557
20
134.405385
11
11.1594557
21
134.858375
0
LINE
8
DEFAULT_255_1_234
10
11.1594557
20
134.858375
11
11.3080428
21
134.858375
0
LINE
8
DEFAULT_255_1_234
10
11.3080428
20
134.858375
11
11.3080428
21
133.6247
0
LINE
8
DEFAULT_255_1_234
10
11.3080428
20
133.6247
11
11.1715033
21
133.6247
0
LINE
8
DEFAULT_255_1_234
10
11.1715033
20
133.6247
11
11.1642747
21
133.7178682
0
LINE
8
DEFAULT_255_1_234
10
11.1594557
20
133.8616363
11
11.1594557
21
134.2608137
0
ARC
8
DEFAULT_255_1_234
10
11.2622605
20
134.0708457
40
0.6875294
50
169.1661407
51
180.3666851
0
ARC
8
DEFAULT_255_1_234
10
11.042625
20
134.1146387
40
0.4635805
50
150.2838427
51
169.3798909
0
ARC
8
DEFAULT_255_1_234
10
10.9792867
20
134.1470238
40
0.392532
50
142.1062393
51
149.806405
0
ARC
8
DEFAULT_255_1_234
10
10.9220599
20
134.1968749
40
0.3167807
50
118.4283255
51
142.8643566
0
ARC
8
DEFAULT_255_1_234
10
10.9121944
20
134.2031137
40
0.3066506
50
89.9199246
51
117.3621547
0
ARC
8
DEFAULT_255_1_234
10
10.9176923
20
134.1273731
40
0.3824245
50
89.9987914
51
90.7595231
0
ARC
8
DEFAULT_255_1_234
10
10.9214314
20
134.1508667
40
0.3589502
50
72.8978905
51
90.5955712
0
ARC
8
DEFAULT_255_1_234
10
10.9412262
20
134.2223123
40
0.2848505
50
39.9932841
51
72.477307
0
ARC
8
DEFAULT_255_1_234
10
10.938301
20
133.9010579
40
0.2908996
50
275.084999
51
320.969419
0
ARC
8
DEFAULT_255_1_234
10
10.916873
20
134.0277893
40
0.4191533
50
269.8935077
51
276.4672393
0
ARC
8
DEFAULT_255_1_234
10
10.9100745
20
133.9010703
40
0.2924958
50
222.0839186
51
271.1792213
0
ARC
8
DEFAULT_255_1_234
10
10.9711255
20
133.9635816
40
0.3797413
50
217.5160585
51
222.9101888
0
ARC
8
DEFAULT_255_1_234
10
11.0205094
20
133.9975781
40
0.4396261
50
193.0962774
51
217.1109254
0
ARC
8
DEFAULT_255_1_234
10
11.2162193
20
134.0464128
40
0.6413192
50
181.1070734
51
193.3838631
0
ARC
8
DEFAULT_255_1_234
10
11.3828252
20
134.0550869
40
0.8080801
50
179.9919009
51
181.4937549
0
ARC
8
DEFAULT_255_1_234
10
11.3011854
20
134.046472
40
0.5778615
50
179.6919417
51
188.6549204
0
ARC
8
DEFAULT_255_1_234
10
11.099227
20
134.0146672
40
0.3734182
50
188.4936033
51
202.2187731
0
ARC
8
DEFAULT_255_1_234
10
11.0024978
20
133.9763391
40
0.2693801
50
202.4517848
51
215.9307642
0
ARC
8
DEFAULT_255_1_234
10
10.9432424
20
133.9291191
40
0.1937215
50
214.9062306
51
264.2077075
0
ARC
8
DEFAULT_255_1_234
10
10.9526252
20
133.988915
40
0.2541804
50
263.4637896
51
270.0934907
0
ARC
8
DEFAULT_255_1_234
10
10.9566169
20
133.9797045
40
0.2449958
50
269.1634649
51
291.0931088
0
ARC
8
DEFAULT_255_1_234
10
10.9647874
20
133.9464994
40
0.2111194
50
292.2674853
51
328.1937478
0
ARC
8
DEFAULT_255_1_234
10
10.8956292
20
133.9964026
40
0.2962539
50
327.0410354
51
332.9414029
0
ARC
8
DEFAULT_255_1_234
10
10.936949
20
134.1440886
40
0.2512647
50
27.6811062
51
48.7893196
0
ARC
8
DEFAULT_255_1_234
10
10.9652771
20
134.1701916
40
0.2130039
50
49.8959006
51
87.010286
0
ARC
8
DEFAULT_255_1_234
10
10.9548629
20
134.0914504
40
0.292249
50
85.7764096
51
90.0424572
0
ARC
8
DEFAULT_255_1_234
10
10.9519345
20
134.1574006
40
0.2263149
50
89.313423
51
109.4265906
0
ARC
8
DEFAULT_255_1_234
10
10.9445056
20
134.1878962
40
0.1951098
50
110.3478057
51
145.1577858
0
ARC
8
DEFAULT_255_1_234
10
11.0098849
20
134.140275
40
0.2759807
50
144.7982748
51
162.8715388
0
ARC
8
DEFAULT_255_1_234
10
11.1793499
20
134.0857842
40
0.453983
50
162.5984223
51
173.3418672
0
ARC
8
DEFAULT_255_1_234
10
11.4461277
20
134.0526851
40
0.7228019
50
173.1877442
51
180.2462216
0
LINE
8
DEFAULT_255_1_234
10
12.0782865
20
133.6247
11
12.0750738
21
133.7106396
0
LINE
8
DEFAULT_255_1_234
10
11.535341
20
133.9282997
11
11.535341
21
134.4937341
0
LINE
8
DEFAULT_255_1_234
10
11.535341
20
134.4937341
11
11.6839282
21
134.4937341
0
LINE
8
DEFAULT_255_1_234
10
11.6839282
20
134.4937341
11
11.6839282
21
133.9323156
0
LINE
8
DEFAULT_255_1_234
10
12.071058
20
133.8616363
11
12.071058
21
134.4937341
0
LINE
8
DEFAULT_255_1_234
10
12.071058
20
134.4937341
11
12.2196451
21
134.4937341
0
LINE
8
DEFAULT_255_1_234
10
12.2196451
20
134.4937341
11
12.2196451
21
133.6247
0
LINE
8
DEFAULT_255_1_234
10
12.2196451
20
133.6247
11
12.0782865
21
133.6247
0
ARC
8
DEFAULT_255_1_234
10
11.8635203
20
133.892406
40
0.2789157
50
282.5436552
51
319.3308843
0
ARC
8
DEFAULT_255_1_234
10
11.8248036
20
134.0430137
40
0.4343667
50
269.8917857
51
283.214153
0
ARC
8
DEFAULT_255_1_234
10
11.8204721
20
134.1590183
40
0.5503818
50
269.9995424
51
270.3655186
0
ARC
8
DEFAULT_255_1_234
10
11.8174197
20
133.989953
40
0.3813286
50
257.7355913
51
270.4579866
0
ARC
8
DEFAULT_255_1_234
10
11.7876896
20
133.8600503
40
0.2480795
50
233.3384413
51
258.0721298
0
ARC
8
DEFAULT_255_1_234
10
11.7742503
20
133.8381041
40
0.2224626
50
221.9626381
51
232.7401232
0
ARC
8
DEFAULT_255_1_234
10
11.8022552
20
133.859633
40
0.2576959
50
197.9450831
51
221.3585622
0
ARC
8
DEFAULT_255_1_234
10
11.9417747
20
133.9072997
40
0.4051213
50
185.8088195
51
198.2790125
0
ARC
8
DEFAULT_255_1_234
10
12.130955
20
133.9297963
40
0.5956158
50
180.1439627
51
186.1199408
0
ARC
8
DEFAULT_255_1_234
10
12.0408418
20
133.928756
40
0.3569313
50
179.4285986
51
191.0735588
0
ARC
8
DEFAULT_255_1_234
10
11.8724846
20
133.8940017
40
0.1850421
50
190.5251661
51
212.6990766
0
ARC
8
DEFAULT_255_1_234
10
11.8260639
20
133.868383
40
0.1321852
50
214.2246197
51
264.4398755
0
ARC
8
DEFAULT_255_1_234
10
11.8437975
20
133.9593426
40
0.224609
50
262.1850223
51
270.1952455
0
ARC
8
DEFAULT_255_1_234
10
11.8479865
20
134.0869524
40
0.3522342
50
269.4431043
51
282.9585023
0
ARC
8
DEFAULT_255_1_234
10
11.8816555
20
133.9499561
40
0.2111871
50
282.391263
51
311.9722193
0
ARC
8
DEFAULT_255_1_234
10
11.8824152
20
133.9426809
40
0.2053153
50
313.1724425
51
336.7506893
0
LINE
8
DEFAULT_255_1_234
10
12.9987237
20
133.8985823
11
13.1392792
21
133.8985823
0
LINE
8
DEFAULT_255_1_234
10
12.4067846
20
134.0511853
11
12.4067846
21
134.0760837
0
LINE
8
DEFAULT_255_1_234
10
13.1392792
20
134.1949534
11
12.9987237
21
134.1949534
0
LINE
8
DEFAULT_255_1_234
10
12.5553718
20
134.0704615
11
12.5553718
21
134.0423504
0
ARC
8
DEFAULT_255_1_234
10
12.7975273
20
133.9439121
40
0.2140268
50
269.0327816
51
309.2224514
0
ARC
8
DEFAULT_255_1_234
10
12.8185027
20
133.9224108
40
0.1841255
50
308.396669
51
329.6984113
0
ARC
8
DEFAULT_255_1_234
10
12.8322882
20
133.911982
40
0.166974
50
330.401383
51
355.3970571
0
ARC
8
DEFAULT_255_1_234
10
12.8779748
20
133.9137082
40
0.2617417
50
329.2357853
51
356.6870514
0
ARC
8
DEFAULT_255_1_234
10
12.822977
20
133.9427971
40
0.3238945
50
324.8706984
51
329.7905871
0
ARC
8
DEFAULT_255_1_234
10
12.8151489
20
133.9495106
40
0.3341614
50
298.8769168
51
324.7016144
0
ARC
8
DEFAULT_255_1_234
10
12.781968
20
134.0023917
40
0.3965068
50
296.9023738
51
299.385174
0
ARC
8
DEFAULT_255_1_234
10
12.7949294
20
133.9736422
40
0.365007
50
269.8406811
51
297.1299281
0
ARC
8
DEFAULT_255_1_234
10
12.789595
20
134.0374407
40
0.4288259
50
253.315473
51
270.5771285
0
ARC
8
DEFAULT_255_1_234
10
12.7648985
20
133.9480739
40
0.3361372
50
221.1002312
51
252.9744583
0
ARC
8
DEFAULT_255_1_234
10
12.8108983
20
133.987559
40
0.3967576
50
194.5394537
51
221.0302238
0
ARC
8
DEFAULT_255_1_234
10
12.9957804
20
134.0390952
40
0.5886672
50
182.0499201
51
194.8773585
0
ARC
8
DEFAULT_255_1_234
10
13.1728002
20
134.050906
40
0.7660157
50
179.9791086
51
182.4591564
0
ARC
8
DEFAULT_255_1_234
10
12.9990046
20
134.0790498
40
0.5922274
50
168.614861
51
180.2869651
0
ARC
8
DEFAULT_255_1_234
10
12.8788191
20
134.1026269
40
0.4697532
50
154.9162259
51
168.5402336
0
ARC
8
DEFAULT_255_1_234
10
12.7866699
20
134.148163
40
0.3669966
50
133.5746694
51
155.2558665
0
ARC
8
DEFAULT_255_1_234
10
12.7703857
20
134.1620467
40
0.3457206
50
122.0165146
51
133.2055214
0
ARC
8
DEFAULT_255_1_234
10
12.7739696
20
134.1532361
40
0.355095
50
97.8731644
51
121.7531281
0
ARC
8
DEFAULT_255_1_234
10
12.7918779
20
134.0475159
40
0.4622833
50
89.8471353
51
98.2769494
0
ARC
8
DEFAULT_255_1_234
10
12.7967531
20
134.1085091
40
0.401305
50
73.3760412
51
90.5199766
0
ARC
8
DEFAULT_255_1_234
10
12.8163895
20
134.1807516
40
0.3264695
50
47.7085968
51
73.0509704
0
ARC
8
DEFAULT_255_1_234
10
12.8293765
20
134.1920128
40
0.309407
50
3.7443473
51
48.0843753
0
ARC
8
DEFAULT_255_1_234
10
12.7306714
20
134.1762614
40
0.4090351
50
2.6192045
51
5.0432185
0
ARC
8
DEFAULT_255_1_234
10
12.7763568
20
134.1802592
40
0.2228519
50
3.780656
51
23.9356886
0
ARC
8
DEFAULT_255_1_234
10
12.7992184
20
134.1883155
40
0.198697
50
24.4869552
51
46.9440088
0
ARC
8
DEFAULT_255_1_234
10
12.7993034
20
134.1906484
40
0.1969404
50
46.498716
51
89.3298174
0
ARC
8
DEFAULT_255_1_234
10
12.7931388
20
134.1311723
40
0.2565428
50
88.1083975
51
90.0061569
0
ARC
8
DEFAULT_255_1_234
10
12.7903818
20
134.1365759
40
0.251154
50
89.3773333
51
107.2071161
0
ARC
8
DEFAULT_255_1_234
10
12.7760941
20
134.188319
40
0.1975072
50
107.6883219
51
143.3583002
0
ARC
8
DEFAULT_255_1_234
10
12.8328325
20
134.1456873
40
0.2684762
50
143.2846717
51
162.935323
0
ARC
8
DEFAULT_255_1_234
10
12.9833926
20
134.0973652
40
0.4265927
50
162.6650068
51
174.0805419
0
ARC
8
DEFAULT_255_1_234
10
13.1976766
20
134.0724636
40
0.6423078
50
173.8423985
51
180.1785963
0
ARC
8
DEFAULT_255_1_234
10
13.1428866
20
134.0393039
40
0.5875227
50
179.7028978
51
188.2277152
0
ARC
8
DEFAULT_255_1_234
10
12.9327167
20
134.0078247
40
0.3750127
50
188.0629871
51
201.1160002
0
ARC
8
DEFAULT_255_1_234
10
12.8229366
20
133.9659238
40
0.2575093
50
201.2187293
51
216.9761968
0
ARC
8
DEFAULT_255_1_234
10
12.7777929
20
133.9320993
40
0.2010998
50
217.0135981
51
265.2056839
0
ARC
8
DEFAULT_255_1_234
10
12.7933788
20
134.0242695
40
0.2943543
50
263.681807
51
270.104251
0
LINE
8
DEFAULT_255_1_234
10
13.3593488
20
134.7041656
11
13.5079359
21
134.7041656
0
LINE
8
DEFAULT_255_1_234
10
13.5079359
20
134.7041656
11
13.5079359
21
134.4937341
0
LINE
8
DEFAULT_255_1_234
10
13.5079359
20
134.4937341
11
13.6701771
21
134.4937341
0
LINE
8
DEFAULT_255_1_234
10
13.6701771
20
134.4937341
11
13.6701771
21
134.3788802
0
LINE
8
DEFAULT_255_1_234
10
13.6701771
20
134.3788802
11
13.5079359
21
134.3788802
0
LINE
8
DEFAULT_255_1_234
10
13.5079359
20
134.3788802
11
13.5079359
21
133.8399506
0
LINE
8
DEFAULT_255_1_234
10
13.6741929
20
133.7451761
11
13.6741929
21
133.6247
0
LINE
8
DEFAULT_255_1_234
10
13.3593488
20
133.8399506
11
13.3593488
21
134.3788802
0
LINE
8
DEFAULT_255_1_234
10
13.3593488
20
134.3788802
11
13.2011235
21
134.3788802
0
LINE
8
DEFAULT_255_1_234
10
13.2011235
20
134.3788802
11
13.2011235
21
134.4937341
0
LINE
8
DEFAULT_255_1_234
10
13.2011235
20
134.4937341
11
13.3593488
21
134.4937341
0
LINE
8
DEFAULT_255_1_234
10
13.3593488
20
134.4937341
11
13.3593488
21
134.7041656
0
ARC
8
DEFAULT_255_1_234
10
13.7086862
20
133.8389084
40
0.200753
50
179.7025659
51
187.917967
0
ARC
8
DEFAULT_255_1_234
10
13.6340888
20
133.8281724
40
0.1253883
50
187.7545981
51
200.2447476
0
ARC
8
DEFAULT_255_1_234
10
13.5920209
20
133.8124859
40
0.0804913
50
200.130383
51
219.174133
0
ARC
8
DEFAULT_255_1_234
10
13.5784386
20
133.8032515
40
0.0641445
50
220.4434483
51
249.6172
0
ARC
8
DEFAULT_255_1_234
10
13.5939236
20
133.8421968
40
0.1060489
50
249.1032952
51
262.775154
0
ARC
8
DEFAULT_255_1_234
10
13.6027408
20
133.9050715
40
0.1695354
50
262.4913187
51
270.2611758
0
ARC
8
DEFAULT_255_1_234
10
13.6024825
20
133.9266103
40
0.191075
50
270.3091804
51
275.6625139
0
ARC
8
DEFAULT_255_1_234
10
13.588205
20
134.0767435
40
0.3418851
50
275.5610264
51
279.0879356
0
ARC
8
DEFAULT_255_1_234
10
13.5551927
20
134.2862699
40
0.5539959
50
279.0365489
51
281.5011378
0
ARC
8
DEFAULT_255_1_234
10
13.5195004
20
134.4666423
40
0.7378639
50
281.4243939
51
282.1017894
0
ARC
8
DEFAULT_255_1_234
10
13.5538251
20
134.0584858
40
0.4501761
50
275.2597045
51
285.5083879
0
ARC
8
DEFAULT_255_1_234
10
13.5599576
20
134.0028606
40
0.3942242
50
270.0268409
51
275.1132796
0
ARC
8
DEFAULT_255_1_234
10
13.5579541
20
133.8701614
40
0.261534
50
257.3573315
51
270.479383
0
ARC
8
DEFAULT_255_1_234
10
13.5366431
20
133.7803406
40
0.1692304
50
230.8037497
51
257.741658
0
ARC
8
DEFAULT_255_1_234
10
13.5298335
20
133.7693777
40
0.1564393
50
219.974146
51
230.1990686
0
ARC
8
DEFAULT_255_1_234
10
13.5630281
20
133.7947579
40
0.1981916
50
196.5084186
51
219.4318458
0
ARC
8
DEFAULT_255_1_234
10
13.6645727
20
133.8266194
40
0.3046086
50
184.6404872
51
196.8269686
0
ARC
8
DEFAULT_255_1_234
10
13.7890791
20
133.8391908
40
0.4297309
50
179.8986958
51
184.9681077
0
LINE
8
DEFAULT_255_1_234
10
14.0051005
20
134.4937341
11
14.0051005
21
133.6247
0
LINE
8
DEFAULT_255_1_234
10
14.0051005
20
133.6247
11
13.8565134
21
133.6247
0
LINE
8
DEFAULT_255_1_234
10
13.8565134
20
133.6247
11
13.8565134
21
134.4937341
0
LINE
8
DEFAULT_255_1_234
10
13.8565134
20
134.4937341
11
14.0051005
21
134.4937341
0
ARC
8
DEFAULT_255_1_234
10
13.9423282
20
134.7251889
40
0.097867
50
161.415052
51
180.5526306
0
ARC
8
DEFAULT_255_1_234
10
13.9299061
20
134.7286077
40
0.0850062
50
138.1827368
51
160.9307106
0
ARC
8
DEFAULT_255_1_234
10
13.9189006
20
134.7381588
40
0.0704362
50
104.6368899
51
138.0039868
0
ARC
8
DEFAULT_255_1_234
10
13.9296161
20
134.7014963
40
0.1086221
50
92.0600725
51
105.2189128
0
ARC
8
DEFAULT_255_1_234
10
13.9319509
20
134.6672117
40
0.1429728
50
89.9756393
51
92.5012496
0
ARC
8
DEFAULT_255_1_234
10
13.9329529
20
134.6897731
40
0.1204151
50
78.0235316
51
90.4478182
0
ARC
8
DEFAULT_255_1_234
10
13.9421621
20
134.7311295
40
0.0780493
50
55.051506
51
78.3369085
0
ARC
8
DEFAULT_255_1_234
10
13.9471895
20
134.7395711
40
0.0682538
50
42.0501187
51
54.4513741
0
ARC
8
DEFAULT_255_1_234
10
13.9336762
20
134.7271798
40
0.0865878
50
1.7497075
51
42.1496013
0
ARC
8
DEFAULT_255_1_234
10
13.9082095
20
134.7242738
40
0.1121515
50
359.9852656
51
2.8364544
0
ARC
8
DEFAULT_255_1_234
10
13.9248087
20
134.7233229
40
0.0955566
50
342.1070653
51
0.552888
0
ARC
8
DEFAULT_255_1_234
10
13.9390784
20
134.7193904
40
0.0807713
50
316.7107116
51
341.6516965
0
ARC
8
DEFAULT_255_1_234
10
13.9457822
20
134.7133823
40
0.0717724
50
285.4397031
51
316.5324284
0
ARC
8
DEFAULT_255_1_234
10
13.9347739
20
134.7499554
40
0.1099597
50
272.3547054
51
285.8953117
0
ARC
8
DEFAULT_255_1_234
10
13.9320897
20
134.7865048
40
0.1465932
50
269.9695369
51
272.8160237
0
ARC
8
DEFAULT_255_1_234
10
13.9311078
20
134.7645863
40
0.1246779
50
258.8431134
51
270.4153935
0
ARC
8
DEFAULT_255_1_234
10
13.922112
20
134.7210414
40
0.0802162
50
238.5431189
51
259.1288175
0
ARC
8
DEFAULT_255_1_234
10
13.9153005
20
134.7086856
40
0.0661247
50
222.5062634
51
237.9906969
0
ARC
8
DEFAULT_255_1_234
10
13.9280593
20
134.7202889
40
0.0833707
50
184.1069131
51
222.460413
0
ARC
8
DEFAULT_255_1_234
10
13.9549833
20
134.7241349
40
0.1105176
50
179.9429482
51
185.0960898
0
LINE
8
DEFAULT_255_1_234
10
14.3087002
20
134.4937341
11
14.529573
21
133.8262966
0
LINE
8
DEFAULT_255_1_234
10
14.529573
20
133.8262966
11
14.7448236
21
134.4937341
0
LINE
8
DEFAULT_255_1_234
10
14.7448236
20
134.4937341
11
14.8966235
21
134.4937341
0
LINE
8
DEFAULT_255_1_234
10
14.8966235
20
134.4937341
11
14.584992
21
133.6247
0
LINE
8
DEFAULT_255_1_234
10
14.584992
20
133.6247
11
14.4717445
21
133.6247
0
LINE
8
DEFAULT_255_1_234
10
14.4717445
20
133.6247
11
14.1569004
21
134.4937341
0
LINE
8
DEFAULT_255_1_234
10
14.1569004
20
134.4937341
11
14.3087002
21
134.4937341
0
LINE
8
DEFAULT_255_1_234
10
15.2010264
20
134.4937341
11
15.2010264
21
133.6247
0
LINE
8
DEFAULT_255_1_234
10
15.2010264
20
133.6247
11
15.0524392
21
133.6247
0
LINE
8
DEFAULT_255_1_234
10
15.0524392
20
133.6247
11
15.0524392
21
134.4937341
0
LINE
8
DEFAULT_255_1_234
10
15.0524392
20
134.4937341
11
15.2010264
21
134.4937341
0
ARC
8
DEFAULT_255_1_234
10
15.1382541
20
134.7251889
40
0.097867
50
161.415052
51
180.5526306
0
ARC
8
DEFAULT_255_1_234
10
15.1258319
20
134.7286077
40
0.0850062
50
138.1827368
51
160.9307106
0
ARC
8
DEFAULT_255_1_234
10
15.1148265
20
134.7381588
40
0.0704362
50
104.6368899
51
138.0039868
0
ARC
8
DEFAULT_255_1_234
10
15.1255419
20
134.7014963
40
0.1086221
50
92.0600725
51
105.2189128
0
ARC
8
DEFAULT_255_1_234
10
15.1278768
20
134.6672117
40
0.1429728
50
89.9756393
51
92.5012496
0
ARC
8
DEFAULT_255_1_234
10
15.1288787
20
134.6897731
40
0.1204151
50
78.0235316
51
90.4478182
0
ARC
8
DEFAULT_255_1_234
10
15.1380879
20
134.7311295
40
0.0780493
50
55.051506
51
78.3369085
0
ARC
8
DEFAULT_255_1_234
10
15.1431153
20
134.7395711
40
0.0682538
50
42.0501187
51
54.4513741
0
ARC
8
DEFAULT_255_1_234
10
15.129602
20
134.7271798
40
0.0865878
50
1.7497075
51
42.1496013
0
ARC
8
DEFAULT_255_1_234
10
15.1041353
20
134.7242738
40
0.1121515
50
359.9852656
51
2.8364544
0
ARC
8
DEFAULT_255_1_234
10
15.1207345
20
134.7233229
40
0.0955566
50
342.1070653
51
0.552888
0
ARC
8
DEFAULT_255_1_234
10
15.1350043
20
134.7193904
40
0.0807713
50
316.7107116
51
341.6516965
0
ARC
8
DEFAULT_255_1_234
10
15.141708
20
134.7133823
40
0.0717724
50
285.4397031
51
316.5324284
0
ARC
8
DEFAULT_255_1_234
10
15.1306997
20
134.7499554
40
0.1099597
50
272.3547054
51
285.8953117
0
ARC
8
DEFAULT_255_1_234
10
15.1280155
20
134.7865048
40
0.1465932
50
269.9695369
51
272.8160237
0
ARC
8
DEFAULT_255_1_234
10
15.1270336
20
134.7645863
40
0.1246779
50
258.8431134
51
270.4153935
0
ARC
8
DEFAULT_255_1_234
10
15.1180379
20
134.7210414
40
0.0802162
50
238.5431189
51
259.1288175
0
ARC
8
DEFAULT_255_1_234
10
15.1112264
20
134.7086856
40
0.0661247
50
222.5062634
51
237.9906969
0
ARC
8
DEFAULT_255_1_234
10
15.1239851
20
134.7202889
40
0.0833707
50
184.1069131
51
222.460413
0
ARC
8
DEFAULT_255_1_234
10
15.1509092
20
134.7241349
40
0.1105176
50
179.9429482
51
185.0960898
0
LINE
8
DEFAULT_255_1_234
10
15.4917753
20
134.7041656
11
15.6403625
21
134.7041656
0
LINE
8
DEFAULT_255_1_234
10
15.6403625
20
134.7041656
11
15.6403625
21
134.4937341
0
LINE
8
DEFAULT_255_1_234
10
15.6403625
20
134.4937341
11
15.8026036
21
134.4937341
0
LINE
8
DEFAULT_255_1_234
10
15.8026036
20
134.4937341
11
15.8026036
21
134.3788802
0
LINE
8
DEFAULT_255_1_234
10
15.8026036
20
134.3788802
11
15.6403625
21
134.3788802
0
LINE
8
DEFAULT_255_1_234
10
15.6403625
20
134.3788802
11
15.6403625
21
133.8399506
0
LINE
8
DEFAULT_255_1_234
10
15.8066194
20
133.7451761
11
15.8066194
21
133.6247
0
LINE
8
DEFAULT_255_1_234
10
15.4917753
20
133.8399506
11
15.4917753
21
134.3788802
0
LINE
8
DEFAULT_255_1_234
10
15.4917753
20
134.3788802
11
15.33355
21
134.3788802
0
LINE
8
DEFAULT_255_1_234
10
15.33355
20
134.3788802
11
15.33355
21
134.4937341
0
LINE
8
DEFAULT_255_1_234
10
15.33355
20
134.4937341
11
15.4917753
21
134.4937341
0
LINE
8
DEFAULT_255_1_234
10
15.4917753
20
134.4937341
11
15.4917753
21
134.7041656
0
ARC
8
DEFAULT_255_1_234
10
15.8411127
20
133.8389084
40
0.200753
50
179.7025659
51
187.917967
0
ARC
8
DEFAULT_255_1_234
10
15.7665153
20
133.8281724
40
0.1253883
50
187.7545981
51
200.2447476
0
ARC
8
DEFAULT_255_1_234
10
15.7244474
20
133.8124859
40
0.0804913
50
200.130383
51
219.174133
0
ARC
8
DEFAULT_255_1_234
10
15.7108651
20
133.8032515
40
0.0641445
50
220.4434483
51
249.6172
0
ARC
8
DEFAULT_255_1_234
10
15.7263501
20
133.8421968
40
0.1060489
50
249.1032952
51
262.775154
0
ARC
8
DEFAULT_255_1_234
10
15.7351673
20
133.9050715
40
0.1695354
50
262.4913187
51
270.2611758
0
ARC
8
DEFAULT_255_1_234
10
15.7349091
20
133.9266103
40
0.191075
50
270.3091804
51
275.6625139
0
ARC
8
DEFAULT_255_1_234
10
15.7206315
20
134.0767435
40
0.3418851
50
275.5610264
51
279.0879356
0
ARC
8
DEFAULT_255_1_234
10
15.6876192
20
134.2862699
40
0.5539959
50
279.0365489
51
281.5011378
0
ARC
8
DEFAULT_255_1_234
10
15.6519269
20
134.4666423
40
0.7378639
50
281.4243939
51
282.1017894
0
ARC
8
DEFAULT_255_1_234
10
15.6862516
20
134.0584858
40
0.4501761
50
275.2597045
51
285.5083879
0
ARC
8
DEFAULT_255_1_234
10
15.6923841
20
134.0028606
40
0.3942242
50
270.0268409
51
275.1132796
0
ARC
8
DEFAULT_255_1_234
10
15.6903806
20
133.8701614
40
0.261534
50
257.3573315
51
270.479383
0
ARC
8
DEFAULT_255_1_234
10
15.6690697
20
133.7803406
40
0.1692304
50
230.8037497
51
257.741658
0
ARC
8
DEFAULT_255_1_234
10
15.66226
20
133.7693777
40
0.1564393
50
219.974146
51
230.1990686
0
ARC
8
DEFAULT_255_1_234
10
15.6954546
20
133.7947579
40
0.1981916
50
196.5084186
51
219.4318458
0
ARC
8
DEFAULT_255_1_234
10
15.7969992
20
133.8266194
40
0.3046086
50
184.6404872
51
196.8269686
0
ARC
8
DEFAULT_255_1_234
10
15.9215056
20
133.8391908
40
0.4297309
50
179.8986958
51
184.9681077
0
LINE
8
DEFAULT_255_1_234
10
16.0435557
20
134.4937341
11
16.2604126
21
133.8423601
0
LINE
8
DEFAULT_255_1_234
10
16.2604126
20
133.8423601
11
16.4628125
21
134.4937341
0
LINE
8
DEFAULT_255_1_234
10
16.4628125
20
134.4937341
11
16.6218409
21
134.4937341
0
LINE
8
DEFAULT_255_1_234
10
16.6218409
20
134.4937341
11
16.2724603
21
133.49057
0
LINE
8
DEFAULT_255_1_234
10
16.0146415
20
133.273713
11
15.9865304
21
133.2761226
0
LINE
8
DEFAULT_255_1_234
10
15.9865304
20
133.2761226
11
15.9311114
21
133.2865638
0
LINE
8
DEFAULT_255_1_234
10
15.9311114
20
133.2865638
11
15.9311114
21
133.4070399
0
LINE
8
DEFAULT_255_1_234
10
15.9311114
20
133.4070399
11
15.9712701
21
133.4038272
0
LINE
8
DEFAULT_255_1_234
10
16.1584096
20
133.545989
11
16.1913397
21
133.6343381
0
LINE
8
DEFAULT_255_1_234
10
16.1913397
20
133.6343381
11
15.8813146
21
134.4937341
0
LINE
8
DEFAULT_255_1_234
10
15.8813146
20
134.4937341
11
16.0435557
21
134.4937341
0
ARC
8
DEFAULT_255_1_234
10
15.8089945
20
133.6590403
40
0.4931356
50
327.7224013
51
340.0237316
0
ARC
8
DEFAULT_255_1_234
10
15.9842161
20
133.545872
40
0.2845645
50
305.2163759
51
328.1469174
0
ARC
8
DEFAULT_255_1_234
10
16.0187212
20
133.5049893
40
0.2313123
50
268.9893887
51
304.0733175
0
ARC
8
DEFAULT_255_1_234
10
15.9727414
20
133.7073864
40
0.3035628
50
269.7222887
51
278.0404605
0
ARC
8
DEFAULT_255_1_234
10
15.9883237
20
133.6013823
40
0.1964222
50
277.8648378
51
290.8634365
0
ARC
8
DEFAULT_255_1_234
10
16.0091226
20
133.5458422
40
0.1371168
50
291.0076295
51
305.5967213
0
ARC
8
DEFAULT_255_1_234
10
16.0072417
20
133.5442702
40
0.1369553
50
306.6194038
51
324.1023288
0
ARC
8
DEFAULT_255_1_234
10
15.9325231
20
133.59972
40
0.2299972
50
323.8264381
51
334.2987676
0
ARC
8
DEFAULT_255_1_234
10
15.808134
20
133.6608087
40
0.3685747
50
334.1277399
51
340.8153554
0
ARC
8
DEFAULT_255_1_234
10
15.7105275
20
133.6967465
40
0.4725741
50
340.5889714
51
341.3967148
0
LINE
8
DEFAULT_255_1_234
10
16.955158
20
134.1604169
11
16.955158
21
134.2816962
0
LINE
8
DEFAULT_255_1_234
10
16.955158
20
134.2816962
11
17.0667992
21
134.2816962
0
LINE
8
DEFAULT_255_1_234
10
16.876447
20
134.4873087
11
16.7278598
21
134.4873087
0
LINE
8
DEFAULT_255_1_234
10
16.7174186
20
133.9331188
11
16.8668089
21
133.9331188
0
LINE
8
DEFAULT_255_1_234
10
17.0667992
20
134.1604169
11
16.955158
21
134.1604169
0
ARC
8
DEFAULT_255_1_234
10
17.0638858
20
134.6209713
40
0.3392876
50
270.4919872
51
281.8951556
0
ARC
8
DEFAULT_255_1_234
10
17.088012
20
134.5107702
40
0.2264817
50
281.6691735
51
301.2943132
0
ARC
8
DEFAULT_255_1_234
10
17.105033
20
134.4796304
40
0.1910381
50
301.7833094
51
311.7545298
0
ARC
8
DEFAULT_255_1_234
10
17.1141906
20
134.4694748
40
0.1773635
50
311.7323931
51
354.2802411
0
ARC
8
DEFAULT_255_1_234
10
17.0415531
20
134.4819722
40
0.2509385
50
353.0937916
51
0.1181479
0
ARC
8
DEFAULT_255_1_234
10
16.9954316
20
134.4867386
40
0.2970898
50
359.1805295
51
15.0453146
0
ARC
8
DEFAULT_255_1_234
10
17.1300153
20
134.5259992
40
0.1569564
50
13.9577229
51
77.6713066
0
ARC
8
DEFAULT_255_1_234
10
17.0913682
20
134.3874949
40
0.3006298
50
76.1116566
51
90.7026153
0
ARC
8
DEFAULT_255_1_234
10
17.085452
20
134.4148545
40
0.2732568
50
89.5324876
51
103.531937
0
ARC
8
DEFAULT_255_1_234
10
17.0653965
20
134.4947884
40
0.1908508
50
103.2931773
51
133.5619022
0
ARC
8
DEFAULT_255_1_234
10
17.0609453
20
134.5007375
40
0.1834746
50
133.8349307
51
173.5344437
0
ARC
8
DEFAULT_255_1_234
10
17.1332496
20
134.4879213
40
0.2568033
50
172.5096846
51
180.1366907
0
ARC
8
DEFAULT_255_1_234
10
17.038139
20
134.4913622
40
0.3103056
50
155.3484492
51
180.7484736
0
ARC
8
DEFAULT_255_1_234
10
17.0332479
20
134.4884846
40
0.3070957
50
131.5744599
51
154.4798489
0
ARC
8
DEFAULT_255_1_234
10
17.0645626
20
134.456831
40
0.3515643
50
96.9875458
51
131.9690667
0
ARC
8
DEFAULT_255_1_234
10
17.0865106
20
134.3322636
40
0.4779224
50
89.8596053
51
97.7825159
0
ARC
8
DEFAULT_255_1_234
10
17.0913169
20
134.3060616
40
0.5041361
50
78.3655447
51
90.4131539
0
ARC
8
DEFAULT_255_1_234
10
17.1271087
20
134.4719887
40
0.3344039
50
56.6229102
51
78.638727
0
ARC
8
DEFAULT_255_1_234
10
17.1486031
20
134.5095805
40
0.2912001
50
47.0253525
51
56.0854072
0
ARC
8
DEFAULT_255_1_234
10
17.1505811
20
134.5135223
40
0.2869704
50
10.9208013
51
46.7778124
0
ARC
8
DEFAULT_255_1_234
10
17.0141878
20
134.4819857
40
0.426899
50
359.6364486
51
11.6087304
0
ARC
8
DEFAULT_255_1_234
10
17.1976722
20
134.4804752
40
0.243409
50
332.3549906
51
359.7179418
0
ARC
8
DEFAULT_255_1_234
10
17.1326323
20
134.5113142
40
0.3153459
50
325.2333722
51
332.8745602
0
ARC
8
DEFAULT_255_1_234
10
17.1478947
20
134.5006828
40
0.2967456
50
292.9802137
51
325.2392345
0
ARC
8
DEFAULT_255_1_234
10
17.1204321
20
134.5540863
40
0.3566604
50
292.5402179
51
293.6924929
0
ARC
8
DEFAULT_255_1_234
10
17.1596917
20
133.9086091
40
0.3307468
50
57.6435486
51
72.8625112
0
ARC
8
DEFAULT_255_1_234
10
17.1951416
20
133.9660549
40
0.2632492
50
36.7248896
51
57.4697979
0
ARC
8
DEFAULT_255_1_234
10
17.1940049
20
133.967322
40
0.2634081
50
8.0545065
51
36.356114
0
ARC
8
DEFAULT_255_1_234
10
17.1077234
20
133.9518174
40
0.3510261
50
359.8320645
51
8.5869982
0
ARC
8
DEFAULT_255_1_234
10
17.070201
20
133.9470101
40
0.3885653
50
343.9829931
51
0.5571613
0
ARC
8
DEFAULT_255_1_234
10
17.1588208
20
133.9227438
40
0.2966924
50
311.6359546
51
343.7651759
0
ARC
8
DEFAULT_255_1_234
10
17.1209777
20
133.9654102
40
0.3537231
50
279.7829875
51
311.6255694
0
ARC
8
DEFAULT_255_1_234
10
17.0908553
20
134.109128
40
0.5004971
50
269.7286406
51
280.3856417
0
ARC
8
DEFAULT_255_1_234
10
17.0846626
20
134.1049996
40
0.4963778
50
256.6828919
51
270.4412052
0
ARC
8
DEFAULT_255_1_234
10
17.0507921
20
133.9665394
40
0.3538406
50
229.4223008
51
256.8556159
0
ARC
8
DEFAULT_255_1_234
10
17.0093314
20
133.9198736
40
0.2914296
50
181.818294
51
229.6455059
0
ARC
8
DEFAULT_255_1_234
10
17.113327
20
133.9329496
40
0.3959084
50
179.9755256
51
183.2323064
0
ARC
8
DEFAULT_255_1_234
10
17.0961016
20
133.9309037
40
0.2293034
50
179.4465117
51
196.2869258
0
ARC
8
DEFAULT_255_1_234
10
17.0473424
20
133.9175651
40
0.1787621
50
196.5661473
51
227.705904
0
ARC
8
DEFAULT_255_1_234
10
17.0637519
20
133.9359155
40
0.2033784
50
227.7652068
51
257.8762805
0
ARC
8
DEFAULT_255_1_234
10
17.0862489
20
134.0302156
40
0.3003081
50
257.4584385
51
270.426602
0
ARC
8
DEFAULT_255_1_234
10
17.0908055
20
134.0591996
40
0.329292
50
269.5962073
51
280.8789248
0
ARC
8
DEFAULT_255_1_234
10
17.1137584
20
133.9445685
40
0.2123908
50
280.6346389
51
299.8595945
0
ARC
8
DEFAULT_255_1_234
10
17.1328491
20
133.9083212
40
0.171457
50
300.3576302
51
314.5517981
0
ARC
8
DEFAULT_255_1_234
10
17.1245551
20
133.9143919
40
0.1816095
50
315.0728369
51
345.0431014
0
ARC
8
DEFAULT_255_1_234
10
17.0322365
20
133.9412841
40
0.2777492
50
344.5986631
51
357.9269593
0
ARC
8
DEFAULT_255_1_234
10
16.9426692
20
133.9474276
40
0.3674917
50
357.4748886
51
0.0231117
0
ARC
8
DEFAULT_255_1_234
10
17.0449801
20
133.9498679
40
0.2651907
50
359.5047933
51
13.4239635
0
ARC
8
DEFAULT_255_1_234
10
17.1316445
20
133.9720478
40
0.1757509
50
12.9498199
51
48.7551375
0
ARC
8
DEFAULT_255_1_234
10
17.1134179
20
133.94714
40
0.2065134
50
49.5088623
51
72.1836453
0
ARC
8
DEFAULT_255_1_234
10
17.0776331
20
133.8409291
40
0.3185836
50
71.9010081
51
84.3554254
0
ARC
8
DEFAULT_255_1_234
10
17.0614963
20
133.7048326
40
0.4556151
50
84.0193428
51
89.333121
0
LINE
8
DEFAULT_255_1_234
10
18.3960519
20
134.3162327
11
18.3960519
21
134.1234709
0
LINE
8
DEFAULT_255_1_234
10
17.6579351
20
134.1033916
11
17.6579351
21
134.3017755
0
LINE
8
DEFAULT_255_1_234
10
18.2474647
20
134.0833123
11
18.2474647
21
134.3266739
0
LINE
8
DEFAULT_255_1_234
10
17.8065223
20
134.3379184
11
17.8065223
21
134.1001789
0
ARC
8
DEFAULT_255_1_234
10
17.1713408
20
134.1185805
40
1.2247208
50
353.8441951
51
0.2287902
0
ARC
8
DEFAULT_255_1_234
10
17.6352912
20
134.0667806
40
0.7578929
50
344.4934747
51
353.9765454
0
ARC
8
DEFAULT_255_1_234
10
17.9345502
20
133.9816981
40
0.4467846
50
329.2803592
51
344.7472793
0
ARC
8
DEFAULT_255_1_234
10
18.0338327
20
133.9272018
40
0.3336173
50
324.9352394
51
328.6160465
0
ARC
8
DEFAULT_255_1_234
10
18.0715436
20
133.9008427
40
0.2876076
50
280.580143
51
324.9173126
0
ARC
8
DEFAULT_255_1_234
10
18.0314228
20
134.0679099
40
0.4592847
50
269.5977311
51
281.6734359
0
ARC
8
DEFAULT_255_1_234
10
18.0242134
20
134.0559173
40
0.4472986
50
256.6228859
51
270.51044
0
ARC
8
DEFAULT_255_1_234
10
17.9840112
20
133.9010877
40
0.2873874
50
215.8618325
51
257.2788573
0
ARC
8
DEFAULT_255_1_234
10
18.0861143
20
133.9695977
40
0.4102928
50
197.9693508
51
215.2623606
0
ARC
8
DEFAULT_255_1_234
10
18.3346259
20
134.0534709
40
0.6725652
50
187.8816417
51
198.2346507
0
ARC
8
DEFAULT_255_1_234
10
18.7304467
20
134.1106079
40
1.0724845
50
180.8976217
51
188.0055519
0
ARC
8
DEFAULT_255_1_234
10
19.0104655
20
134.1209777
40
1.3526448
50
180.7449369
51
181.1510016
0
ARC
8
DEFAULT_255_1_234
10
18.8527384
20
134.3066042
40
1.1948131
50
173.7675579
51
180.231553
0
ARC
8
DEFAULT_255_1_234
10
18.4009531
20
134.3576666
40
0.7401564
50
164.3058563
51
173.9002247
0
ARC
8
DEFAULT_255_1_234
10
18.10976
20
134.4415656
40
0.4371288
50
148.7922025
51
164.568378
0
ARC
8
DEFAULT_255_1_234
10
18.0146052
20
134.4946929
40
0.3282386
50
144.5883898
51
148.1176286
0
ARC
8
DEFAULT_255_1_234
10
17.980295
20
134.5186315
40
0.2864044
50
101.6440918
51
144.514236
0
ARC
8
DEFAULT_255_1_234
10
18.0228017
20
134.3497069
40
0.4604934
50
89.5284041
51
102.5819763
0
ARC
8
DEFAULT_255_1_234
10
18.0307104
20
134.3458018
40
0.464401
50
77.0437873
51
90.5081339
0
ARC
8
DEFAULT_255_1_234
10
18.0709106
20
134.5100615
40
0.2953195
50
48.2778575
51
77.4994676
0
ARC
8
DEFAULT_255_1_234
10
18.0781737
20
134.5229746
40
0.2808655
50
36.3142134
51
47.6305865
0
ARC
8
DEFAULT_255_1_234
10
17.9913044
20
134.4644515
40
0.3855453
50
18.2931786
51
35.6769206
0
ARC
8
DEFAULT_255_1_234
10
17.7369803
20
134.3771593
40
0.654423
50
8.024666
51
18.5605216
0
ARC
8
DEFAULT_255_1_234
10
17.3206723
20
134.3156792
40
1.0752407
50
1.1274072
51
8.1718305
0
ARC
8
DEFAULT_255_1_234
10
16.9970914
20
134.3029885
40
1.3990231
50
0.5424119
51
1.3863029
0
ARC
8
DEFAULT_255_1_234
10
17.1792292
20
134.3302342
40
1.0682415
50
359.8090433
51
4.9407866
0
ARC
8
DEFAULT_255_1_234
10
17.6002306
20
134.3678113
40
0.6455691
50
4.8362157
51
12.2904523
0
ARC
8
DEFAULT_255_1_234
10
17.875742
20
134.4291965
40
0.3633074
50
12.0805627
51
23.8173984
0
ARC
8
DEFAULT_255_1_234
10
17.9931126
20
134.4788919
40
0.2358723
50
24.2871213
51
31.3935614
0
ARC
8
DEFAULT_255_1_234
10
18.0455823
20
134.5132233
40
0.1732111
50
30.7407893
51
82.4657128
0
ARC
8
DEFAULT_255_1_234
10
18.0275957
20
134.4248691
40
0.263235
50
81.1060089
51
90.2184952
0
ARC
8
DEFAULT_255_1_234
10
18.0240256
20
134.4506924
40
0.2374236
50
89.3806855
51
105.6762551
0
ARC
8
DEFAULT_255_1_234
10
18.0056887
20
134.5173567
40
0.1682847
50
105.7981136
51
149.7388061
0
ARC
8
DEFAULT_255_1_234
10
18.1120965
20
134.453395
40
0.2924306
50
149.4208916
51
163.6286378
0
ARC
8
DEFAULT_255_1_234
10
18.3211853
20
134.389625
40
0.5110213
50
163.3763315
51
172.1410975
0
ARC
8
DEFAULT_255_1_234
10
18.6512572
20
134.3423518
40
0.8444586
50
172.0259487
51
178.0703232
0
ARC
8
DEFAULT_255_1_234
10
18.9542662
20
134.3279906
40
1.1477868
50
177.8631668
51
179.5044149
0
ARC
8
DEFAULT_255_1_234
10
18.8470066
20
134.0965389
40
1.0404907
50
179.7995573
51
185.2460446
0
ARC
8
DEFAULT_255_1_234
10
18.4427105
20
134.0582513
40
0.6343885
50
185.1411642
51
193.0079639
0
ARC
8
DEFAULT_255_1_234
10
18.1783578
20
133.9957641
40
0.3627568
50
192.7897626
51
205.2507664
0
ARC
8
DEFAULT_255_1_234
10
18.0737125
20
133.9490415
40
0.2481908
50
205.8005384
51
211.2537509
0
ARC
8
DEFAULT_255_1_234
10
18.0213565
20
133.913958
40
0.1852521
50
210.3789793
51
238.4008143
0
ARC
8
DEFAULT_255_1_234
10
18.0194087
20
133.9186376
40
0.1882621
50
239.6520629
51
265.9793761
0
ARC
8
DEFAULT_255_1_234
10
18.0279288
20
133.9858427
40
0.2559272
50
265.1315437
51
270.060332
0
ARC
8
DEFAULT_255_1_234
10
18.0308066
20
133.9534534
40
0.2235528
50
269.3314664
51
287.2178029
0
ARC
8
DEFAULT_255_1_234
10
18.0445918
20
133.9031279
40
0.1714108
50
287.7958004
51
329.080874
0
ARC
8
DEFAULT_255_1_234
10
17.9488375
20
133.962893
40
0.2842745
50
328.6634704
51
343.3325132
0
ARC
8
DEFAULT_255_1_234
10
17.7315395
20
134.0305863
40
0.5118644
50
343.0499468
51
351.9393422
0
ARC
8
DEFAULT_255_1_234
10
17.3848695
20
134.0816949
40
0.8622784
50
351.8069023
51
357.7959224
0
ARC
8
DEFAULT_255_1_234
10
17.0613251
20
134.0984721
40
1.1862365
50
357.5871873
51
359.2677531
0
LINE
8
DEFAULT_255_1_234
10
19.3197018
20
134.3162327
11
19.3197018
21
134.1234709
0
LINE
8
DEFAULT_255_1_234
10
18.581585
20
134.1033916
11
18.581585
21
134.3017755
0
LINE
8
DEFAULT_255_1_234
10
19.1711146
20
134.0833123
11
19.1711146
21
134.3266739
0
LINE
8
DEFAULT_255_1_234
10
18.7301722
20
134.3379184
11
18.7301722
21
134.1001789
0
ARC
8
DEFAULT_255_1_234
10
18.0949907
20
134.1185805
40
1.2247208
50
353.8441951
51
0.2287902
0
ARC
8
DEFAULT_255_1_234
10
18.5589411
20
134.0667806
40
0.7578929
50
344.4934747
51
353.9765454
0
ARC
8
DEFAULT_255_1_234
10
18.8582001
20
133.9816981
40
0.4467846
50
329.2803592
51
344.7472793
0
ARC
8
DEFAULT_255_1_234
10
18.9574826
20
133.9272018
40
0.3336173
50
324.9352394
51
328.6160465
0
ARC
8
DEFAULT_255_1_234
10
18.9951935
20
133.9008427
40
0.2876076
50
280.580143
51
324.9173126
0
ARC
8
DEFAULT_255_1_234
10
18.9550727
20
134.0679099
40
0.4592847
50
269.5977311
51
281.6734359
0
ARC
8
DEFAULT_255_1_234
10
18.9478633
20
134.0559173
40
0.4472986
50
256.6228859
51
270.51044
0
ARC
8
DEFAULT_255_1_234
10
18.9076611
20
133.9010877
40
0.2873874
50
215.8618325
51
257.2788573
0
ARC
8
DEFAULT_255_1_234
10
19.0097642
20
133.9695977
40
0.4102928
50
197.9693508
51
215.2623606
0
ARC
8
DEFAULT_255_1_234
10
19.2582758
20
134.0534709
40
0.6725652
50
187.8816417
51
198.2346507
0
ARC
8
DEFAULT_255_1_234
10
19.6540966
20
134.1106079
40
1.0724845
50
180.8976217
51
188.0055519
0
ARC
8
DEFAULT_255_1_234
10
19.9341154
20
134.1209777
40
1.3526448
50
180.7449369
51
181.1510016
0
ARC
8
DEFAULT_255_1_234
10
19.7763883
20
134.3066042
40
1.1948131
50
173.7675579
51
180.231553
0
ARC
8
DEFAULT_255_1_234
10
19.324603
20
134.3576666
40
0.7401564
50
164.3058563
51
173.9002247
0
ARC
8
DEFAULT_255_1_234
10
19.0334099
20
134.4415656
40
0.4371288
50
148.7922025
51
164.568378
0
ARC
8
DEFAULT_255_1_234
10
18.9382551
20
134.4946929
40
0.3282386
50
144.5883898
51
148.1176286
0
ARC
8
DEFAULT_255_1_234
10
18.9039449
20
134.5186315
40
0.2864044
50
101.6440918
51
144.514236
0
ARC
8
DEFAULT_255_1_234
10
18.9464516
20
134.3497069
40
0.4604934
50
89.5284041
51
102.5819763
0
ARC
8
DEFAULT_255_1_234
10
18.9543603
20
134.3458018
40
0.464401
50
77.0437873
51
90.5081339
0
ARC
8
DEFAULT_255_1_234
10
18.9945605
20
134.5100615
40
0.2953195
50
48.2778575
51
77.4994676
0
ARC
8
DEFAULT_255_1_234
10
19.0018236
20
134.5229746
40
0.2808655
50
36.3142134
51
47.6305865
0
ARC
8
DEFAULT_255_1_234
10
18.9149543
20
134.4644515
40
0.3855453
50
18.2931786
51
35.6769206
0
ARC
8
DEFAULT_255_1_234
10
18.6606302
20
134.3771593
40
0.654423
50
8.024666
51
18.5605216
0
ARC
8
DEFAULT_255_1_234
10
18.2443222
20
134.3156792
40
1.0752407
50
1.1274072
51
8.1718305
0
ARC
8
DEFAULT_255_1_234
10
17.9207413
20
134.3029885
40
1.3990231
50
0.5424119
51
1.3863029
0
ARC
8
DEFAULT_255_1_234
10
18.1028791
20
134.3302342
40
1.0682415
50
359.8090433
51
4.9407866
0
ARC
8
DEFAULT_255_1_234
10
18.5238805
20
134.3678113
40
0.6455691
50
4.8362157
51
12.2904523
0
ARC
8
DEFAULT_255_1_234
10
18.799392
20
134.4291965
40
0.3633074
50
12.0805627
51
23.8173984
0
ARC
8
DEFAULT_255_1_234
10
18.9167625
20
134.4788919
40
0.2358723
50
24.2871213
51
31.3935614
0
ARC
8
DEFAULT_255_1_234
10
18.9692322
20
134.5132233
40
0.1732111
50
30.7407893
51
82.4657128
0
ARC
8
DEFAULT_255_1_234
10
18.9512456
20
134.4248691
40
0.263235
50
81.1060089
51
90.2184952
0
ARC
8
DEFAULT_255_1_234
10
18.9476755
20
134.4506924
40
0.2374236
50
89.3806855
51
105.6762551
0
ARC
8
DEFAULT_255_1_234
10
18.9293386
20
134.5173567
40
0.1682847
50
105.7981136
51
149.7388061
0
ARC
8
DEFAULT_255_1_234
10
19.0357464
20
134.453395
40
0.2924306
50
149.4208916
51
163.6286378
0
ARC
8
DEFAULT_255_1_234
10
19.2448352
20
134.389625
40
0.5110213
50
163.3763315
51
172.1410975
0
ARC
8
DEFAULT_255_1_234
10
19.5749071
20
134.3423518
40
0.8444586
50
172.0259487
51
178.0703232
0
ARC
8
DEFAULT_255_1_234
10
19.8779161
20
134.3279906
40
1.1477868
50
177.8631668
51
179.5044149
0
ARC
8
DEFAULT_255_1_234
10
19.7706565
20
134.0965389
40
1.0404907
50
179.7995573
51
185.2460446
0
ARC
8
DEFAULT_255_1_234
10
19.3663604
20
134.0582513
40
0.6343885
50
185.1411642
51
193.0079639
0
ARC
8
DEFAULT_255_1_234
10
19.1020077
20
133.9957641
40
0.3627568
50
192.7897626
51
205.2507664
0
ARC
8
DEFAULT_255_1_234
10
18.9973624
20
133.9490415
40
0.2481908
50
205.8005384
51
211.2537509
0
ARC
8
DEFAULT_255_1_234
10
18.9450064
20
133.913958
40
0.1852521
50
210.3789793
51
238.4008143
0
ARC
8
DEFAULT_255_1_234
10
18.9430586
20
133.9186376
40
0.1882621
50
239.6520629
51
265.9793761
0
ARC
8
DEFAULT_255_1_234
10
18.9515787
20
133.9858427
40
0.2559272
50
265.1315437
51
270.060332
0
ARC
8
DEFAULT_255_1_234
10
18.9544565
20
133.9534534
40
0.2235528
50
269.3314664
51
287.2178029
0
ARC
8
DEFAULT_255_1_234
10
18.9682417
20
133.9031279
40
0.1714108
50
287.7958004
51
329.080874
0
ARC
8
DEFAULT_255_1_234
10
18.8724874
20
133.962893
40
0.2842745
50
328.6634704
51
343.3325132
0
ARC
8
DEFAULT_255_1_234
10
18.6551894
20
134.0305863
40
0.5118644
50
343.0499468
51
351.9393422
0
ARC
8
DEFAULT_255_1_234
10
18.3085194
20
134.0816949
40
0.8622784
50
351.8069023
51
357.7959224
0
ARC
8
DEFAULT_255_1_234
10
17.984975
20
134.0984721
40
1.1862365
50
357.5871873
51
359.2677531
0
LINE
8
DEFAULT_255_1_234
10
20.2433517
20
134.3162327
11
20.2433517
21
134.1234709
0
LINE
8
DEFAULT_255_1_234
10
19.5052349
20
134.1033916
11
19.5052349
21
134.3017755
0
LINE
8
DEFAULT_255_1_234
10
20.0947645
20
134.0833123
11
20.0947645
21
134.3266739
0
LINE
8
DEFAULT_255_1_234
10
19.6538221
20
134.3379184
11
19.6538221
21
134.1001789
0
ARC
8
DEFAULT_255_1_234
10
19.0186406
20
134.1185805
40
1.2247208
50
353.8441951
51
0.2287902
0
ARC
8
DEFAULT_255_1_234
10
19.482591
20
134.0667806
40
0.7578929
50
344.4934747
51
353.9765454
0
ARC
8
DEFAULT_255_1_234
10
19.78185
20
133.9816981
40
0.4467846
50
329.2803592
51
344.7472793
0
ARC
8
DEFAULT_255_1_234
10
19.8811325
20
133.9272018
40
0.3336173
50
324.9352394
51
328.6160465
0
ARC
8
DEFAULT_255_1_234
10
19.9188434
20
133.9008427
40
0.2876076
50
280.580143
51
324.9173126
0
ARC
8
DEFAULT_255_1_234
10
19.8787226
20
134.0679099
40
0.4592847
50
269.5977311
51
281.6734359
0
ARC
8
DEFAULT_255_1_234
10
19.8715132
20
134.0559173
40
0.4472986
50
256.6228859
51
270.51044
0
ARC
8
DEFAULT_255_1_234
10
19.831311
20
133.9010877
40
0.2873874
50
215.8618325
51
257.2788573
0
ARC
8
DEFAULT_255_1_234
10
19.9334141
20
133.9695977
40
0.4102928
50
197.9693508
51
215.2623606
0
ARC
8
DEFAULT_255_1_234
10
20.1819257
20
134.0534709
40
0.6725652
50
187.8816417
51
198.2346507
0
ARC
8
DEFAULT_255_1_234
10
20.5777465
20
134.1106079
40
1.0724845
50
180.8976217
51
188.0055519
0
ARC
8
DEFAULT_255_1_234
10
20.8577653
20
134.1209777
40
1.3526448
50
180.7449369
51
181.1510016
0
ARC
8
DEFAULT_255_1_234
10
20.7000382
20
134.3066042
40
1.1948131
50
173.7675579
51
180.231553
0
ARC
8
DEFAULT_255_1_234
10
20.2482529
20
134.3576666
40
0.7401564
50
164.3058563
51
173.9002247
0
ARC
8
DEFAULT_255_1_234
10
19.9570598
20
134.4415656
40
0.4371288
50
148.7922025
51
164.568378
0
ARC
8
DEFAULT_255_1_234
10
19.861905
20
134.4946929
40
0.3282386
50
144.5883898
51
148.1176286
0
ARC
8
DEFAULT_255_1_234
10
19.8275948
20
134.5186315
40
0.2864044
50
101.6440918
51
144.514236
0
ARC
8
DEFAULT_255_1_234
10
19.8701015
20
134.3497069
40
0.4604934
50
89.5284041
51
102.5819763
0
ARC
8
DEFAULT_255_1_234
10
19.8780102
20
134.3458018
40
0.464401
50
77.0437873
51
90.5081339
0
ARC
8
DEFAULT_255_1_234
10
19.9182104
20
134.5100615
40
0.2953195
50
48.2778575
51
77.4994676
0
ARC
8
DEFAULT_255_1_234
10
19.9254735
20
134.5229746
40
0.2808655
50
36.3142134
51
47.6305865
0
ARC
8
DEFAULT_255_1_234
10
19.8386042
20
134.4644515
40
0.3855453
50
18.2931786
51
35.6769206
0
ARC
8
DEFAULT_255_1_234
10
19.5842801
20
134.3771593
40
0.654423
50
8.024666
51
18.5605216
0
ARC
8
DEFAULT_255_1_234
10
19.1679721
20
134.3156792
40
1.0752407
50
1.1274072
51
8.1718305
0
ARC
8
DEFAULT_255_1_234
10
18.8443912
20
134.3029885
40
1.3990231
50
0.5424119
51
1.3863029
0
ARC
8
DEFAULT_255_1_234
10
19.026529
20
134.3302342
40
1.0682415
50
359.8090433
51
4.9407866
0
ARC
8
DEFAULT_255_1_234
10
19.4475304
20
134.3678113
40
0.6455691
50
4.8362157
51
12.2904523
0
ARC
8
DEFAULT_255_1_234
10
19.7230419
20
134.4291965
40
0.3633074
50
12.0805627
51
23.8173984
0
ARC
8
DEFAULT_255_1_234
10
19.8404124
20
134.4788919
40
0.2358723
50
24.2871213
51
31.3935614
0
ARC
8
DEFAULT_255_1_234
10
19.8928821
20
134.5132233
40
0.1732111
50
30.7407893
51
82.4657128
0
ARC
8
DEFAULT_255_1_234
10
19.8748955
20
134.4248691
40
0.263235
50
81.1060089
51
90.2184952
0
ARC
8
DEFAULT_255_1_234
10
19.8713254
20
134.4506924
40
0.2374236
50
89.3806855
51
105.6762551
0
ARC
8
DEFAULT_255_1_234
10
19.8529885
20
134.5173567
40
0.1682847
50
105.7981136
51
149.7388061
0
ARC
8
DEFAULT_255_1_234
10
19.9593963
20
134.453395
40
0.2924306
50
149.4208916
51
163.6286378
0
ARC
8
DEFAULT_255_1_234
10
20.1684851
20
134.389625
40
0.5110213
50
163.3763315
51
172.1410975
0
ARC
8
DEFAULT_255_1_234
10
20.498557
20
134.3423518
40
0.8444586
50
172.0259487
51
178.0703232
0
ARC
8
DEFAULT_255_1_234
10
20.801566
20
134.3279906
40
1.1477868
50
177.8631668
51
179.5044149
0
ARC
8
DEFAULT_255_1_234
10
20.6943064
20
134.0965389
40
1.0404907
50
179.7995573
51
185.2460446
0
ARC
8
DEFAULT_255_1_234
10
20.2900104
20
134.0582513
40
0.6343885
50
185.1411642
51
193.0079639
0
ARC
8
DEFAULT_255_1_234
10
20.0256576
20
133.9957641
40
0.3627568
50
192.7897626
51
205.2507664
0
ARC
8
DEFAULT_255_1_234
10
19.9210123
20
133.9490415
40
0.2481908
50
205.8005384
51
211.2537509
0
ARC
8
DEFAULT_255_1_234
10
19.8686564
20
133.913958
40
0.1852521
50
210.3789793
51
238.4008143
0
ARC
8
DEFAULT_255_1_234
10
19.8667085
20
133.9186376
40
0.1882621
50
239.6520629
51
265.9793761
0
ARC
8
DEFAULT_255_1_234
10
19.8752286
20
133.9858427
40
0.2559272
50
265.1315437
51
270.060332
0
ARC
8
DEFAULT_255_1_234
10
19.8781064
20
133.9534534
40
0.2235528
50
269.3314664
51
287.2178029
0
ARC
8
DEFAULT_255_1_234
10
19.8918916
20
133.9031279
40
0.1714108
50
287.7958004
51
329.080874
0
ARC
8
DEFAULT_255_1_234
10
19.7961373
20
133.962893
40
0.2842745
50
328.6634704
51
343.3325132
0
ARC
8
DEFAULT_255_1_234
10
19.5788393
20
134.0305863
40
0.5118644
50
343.0499468
51
351.9393422
0
ARC
8
DEFAULT_255_1_234
10
19.2321693
20
134.0816949
40
0.8622784
50
351.8069023
51
357.7959224
0
ARC
8
DEFAULT_255_1_234
10
18.9086249
20
134.0984721
40
1.1862365
50
357.5871873
51
359.2677531
0
ARC
8
DEFAULT_255_2_778
10
21.9705968
20
136.6564327
40
0.3998203
50
186.2132484
51
214.6493538
0
ARC
8
DEFAULT_255_2_778
10
21.8841482
20
136.6167342
40
0.306577
50
217.73315
51
266.8103771
0
ARC
8
DEFAULT_255_2_778
10
21.9236889
20
136.827346
40
0.5198043
50
263.7489618
51
266.7837018
0
ARC
8
DEFAULT_255_2_778
10
21.9002315
20
136.6332587
40
0.2400661
50
195.3205632
51
268.6379359
0
ARC
8
DEFAULT_255_2_778
10
22.1727069
20
136.7590098
40
0.5383454
50
193.3112816
51
200.5737177
0
ARC
8
DEFAULT_255_2_778
10
21.9557782
20
136.6062585
40
0.3083015
50
141.9315536
51
174.6395313
0
ARC
8
DEFAULT_255_2_778
10
21.8946342
20
136.6321429
40
0.2448175
50
90.025547
51
137.8738944
0
ARC
8
DEFAULT_255_2_778
10
21.8900516
20
136.6502521
40
0.3116405
50
89.1775175
51
162.365692
0
ARC
8
DEFAULT_255_2_778
10
22.1498498
20
136.518457
40
0.6009893
50
157.8900335
51
162.6116752
0
LINE
8
DEFAULT_255_2_778
10
18.967225
20
136.7009604
11
18.967225
21
136.6131604
0
LINE
8
DEFAULT_255_2_778
10
18.967225
20
136.6131604
11
21.573125
21
136.6131604
0
LINE
8
DEFAULT_255_2_778
10
21.894525
20
136.3083604
11
21.894525
21
136.3932604
0
LINE
8
DEFAULT_255_2_778
10
21.894525
20
136.8769604
11
21.894525
21
136.9618604
0
LINE
8
DEFAULT_255_2_778
10
21.576325
20
136.6980604
11
18.973525
21
136.6980604
0
ARC
8
DEFAULT_255_2_778
10
19.6924911
20
137.9865064
40
0.0240119
50
28.9725327
51
103.4850922
0
ARC
8
DEFAULT_255_2_778
10
19.6675258
20
137.7713978
40
0.2392435
50
85.3570436
51
90.3180147
0
ARC
8
DEFAULT_255_2_778
10
19.6830481
20
137.3742259
40
0.7359887
50
91.4445043
51
94.5082143
0
ARC
8
DEFAULT_255_2_778
10
19.6762883
20
137.5995799
40
0.510537
50
90.0204411
51
91.3236595
0
ARC
8
DEFAULT_255_2_778
10
19.6819035
20
137.8751894
40
0.234999
50
77.9191012
51
91.4136047
0
ARC
8
DEFAULT_255_2_778
10
19.7290393
20
138.0714469
40
0.0335995
50
19.4828986
51
86.5059996
0
ARC
8
DEFAULT_255_2_778
10
19.7399806
20
138.079061
40
0.0210433
50
359.8753665
51
9.8287108
0
ARC
8
DEFAULT_255_2_778
10
19.7114031
20
138.0839275
40
0.0498633
50
318.6549341
51
354.3463421
0
ARC
8
DEFAULT_255_2_778
10
19.5933
20
138.1716044
40
0.1968255
50
312.3913188
51
322.2071703
0
ARC
8
DEFAULT_255_2_778
10
19.7074994
20
137.9833784
40
0.0466808
50
7.8211356
51
66.6544263
0
ARC
8
DEFAULT_255_2_778
10
19.5739503
20
137.9555306
40
0.1830194
50
4.3516874
51
10.7699648
0
ARC
8
DEFAULT_255_2_778
10
19.7790881
20
137.9656912
40
0.0229506
50
170.6553415
51
230.4661874
0
ARC
8
DEFAULT_255_2_778
10
19.7669101
20
137.9561667
40
0.0085297
50
253.4430888
51
270.5900942
0
ARC
8
DEFAULT_255_2_778
10
19.6866504
20
138.053095
40
0.0341371
50
13.1090465
51
106.1583193
0
ARC
8
DEFAULT_255_2_778
10
19.6697504
20
137.9080182
40
0.1780193
50
87.6176468
51
90.0490737
0
ARC
8
DEFAULT_255_2_778
10
19.6795828
20
138.1048746
40
0.0666888
50
261.3891358
51
304.5653386
0
ARC
8
DEFAULT_255_2_778
10
19.7083184
20
138.0575951
40
0.0118802
50
319.9940947
51
0.6866831
0
ARC
8
DEFAULT_255_2_778
10
19.6912745
20
138.0294613
40
0.1602765
50
89.8843696
51
180.00852
0
ARC
8
DEFAULT_255_2_778
10
19.6921123
20
138.0296526
40
0.1600857
50
359.923006
51
90.1841118
0
ARC
8
DEFAULT_255_2_778
10
19.6920276
20
138.0292075
40
0.1601705
50
269.8462838
51
0.0822692
0
ARC
8
DEFAULT_255_2_778
10
19.6911681
20
138.0292074
40
0.1601705
50
179.9177057
51
270.1537517
0
ARC
8
DEFAULT_255_2_778
10
19.6944702
20
138.0305588
40
0.1256773
50
179.9900739
51
180.5112141
0
ARC
8
DEFAULT_255_2_778
10
19.6932324
20
138.0306978
40
0.1244397
50
135.616881
51
180.0539568
0
ARC
8
DEFAULT_255_2_778
10
19.6929982
20
138.0309377
40
0.1241046
50
90.5079979
51
135.6204406
0
ARC
8
DEFAULT_255_2_778
10
19.6907186
20
138.0309908
40
0.1240523
50
44.368794
51
89.4552913
0
ARC
8
DEFAULT_255_2_778
10
19.6904635
20
138.0306978
40
0.1244397
50
359.9460432
51
44.383119
0
ARC
8
DEFAULT_255_2_778
10
19.6892256
20
138.0305588
40
0.1256775
50
359.4887859
51
0.0099261
0
ARC
8
DEFAULT_255_2_778
10
19.6892212
20
138.0283161
40
0.1256817
50
359.9900717
51
0.5112118
0
ARC
8
DEFAULT_255_2_778
10
19.6902314
20
138.0281718
40
0.1246718
50
315.6604182
51
0.0563277
0
ARC
8
DEFAULT_255_2_778
10
19.6905411
20
138.028201
40
0.1244709
50
270.6245561
51
315.5511616
0
ARC
8
DEFAULT_255_2_778
10
19.6931761
20
138.0282548
40
0.1245239
50
224.4596468
51
269.4118891
0
ARC
8
DEFAULT_255_2_778
10
19.6934644
20
138.0281718
40
0.1246718
50
179.9436723
51
224.3395818
0
ARC
8
DEFAULT_255_2_778
10
19.6944746
20
138.0283161
40
0.1256819
50
179.4887882
51
180.0099283
0
LINE
8
DEFAULT_255_2_778
10
19.7671979
20
137.9479375
11
19.7262979
21
137.9479375
0
LINE
8
DEFAULT_255_2_778
10
19.7262979
20
137.9479375
11
19.7134979
21
137.9981375
0
LINE
8
DEFAULT_255_2_778
10
19.6661979
20
138.0106375
11
19.6661979
21
137.9479375
0
LINE
8
DEFAULT_255_2_778
10
19.6661979
20
137.9479375
11
19.6283979
21
137.9479375
0
LINE
8
DEFAULT_255_2_778
10
19.6283979
20
137.9479375
11
19.6251979
21
138.1079375
0
LINE
8
DEFAULT_255_2_778
10
19.7669979
20
137.9476375
11
19.7671979
21
137.9479375
0
LINE
8
DEFAULT_255_2_778
10
19.6695979
20
138.0860375
11
19.6695979
21
138.0389375
0
LINE
8
DEFAULT_255_2_778
10
19.5309979
20
138.0294375
11
19.5309979
21
138.0294375
0
LINE
8
DEFAULT_255_2_778
10
19.5687979
20
138.0294375
11
19.5687979
21
138.0294375
0
ARC
8
DEFAULT_255_2_778
10
19.5739995
20
136.9632562
40
0.4679169
50
114.816099
51
123.1671443
0
ARC
8
DEFAULT_255_2_778
10
19.524052
20
137.0721633
40
0.3481031
50
104.1803266
51
114.8776204
0
ARC
8
DEFAULT_255_2_778
10
19.5023429
20
137.1594534
40
0.2581547
50
90.3368173
51
104.2549448
0
ARC
8
DEFAULT_255_2_778
10
19.5036163
20
137.2335304
40
0.1840945
50
63.1258397
51
90.8686801
0
ARC
8
DEFAULT_255_2_778
10
19.5291143
20
137.2807442
40
0.1304613
50
15.1320717
51
63.7415875
0
ARC
8
DEFAULT_255_2_778
10
19.5491883
20
137.2886768
40
0.1090393
50
0.0473462
51
13.8618027
0
ARC
8
DEFAULT_255_2_778
10
19.5515456
20
137.2887625
40
0.1066819
50
356.2550712
51
0.0023505
0
ARC
8
DEFAULT_255_2_778
10
19.5419228
20
137.2912506
40
0.1164614
50
310.1750055
51
355.3427743
0
ARC
8
DEFAULT_255_2_778
10
19.4908137
20
137.3485087
40
0.1931944
50
288.8572085
51
310.8015881
0
ARC
8
DEFAULT_255_2_778
10
19.4433414
20
137.480877
40
0.3338085
50
275.3110996
51
289.2247685
0
ARC
8
DEFAULT_255_2_778
10
19.4242391
20
137.64378
40
0.4977958
50
269.8679804
51
275.7647658
0
ARC
8
DEFAULT_255_2_778
10
19.4233676
20
137.753531
40
0.6075455
50
267.4793058
51
269.9740161
0
ARC
8
DEFAULT_255_2_778
10
19.4257943
20
137.8138112
40
0.6678741
50
266.4216467
51
267.4987577
0
ARC
8
DEFAULT_255_2_778
10
19.422452
20
136.5220134
40
0.5604389
50
91.0217468
51
93.9229074
0
ARC
8
DEFAULT_255_2_778
10
19.421632
20
136.556433
40
0.5260103
50
90.0043513
51
90.9992991
0
ARC
8
DEFAULT_255_2_778
10
19.4248572
20
136.6600358
40
0.4224201
50
76.9825049
51
90.4428784
0
ARC
8
DEFAULT_255_2_778
10
19.4590596
20
136.8033148
40
0.275121
50
58.6325554
51
77.2011897
0
ARC
8
DEFAULT_255_2_778
10
19.5161406
20
136.8939596
40
0.1680195
50
29.9877642
51
59.1630288
0
ARC
8
DEFAULT_255_2_778
10
19.5599511
20
136.9213921
40
0.1163776
50
9.0489212
51
29.0705153
0
ARC
8
DEFAULT_255_2_778
10
19.5730912
20
136.9240276
40
0.1029877
50
0.0324126
51
8.7506937
0
ARC
8
DEFAULT_255_2_778
10
19.5688012
20
136.9259846
40
0.1072945
50
305.5021173
51
358.9859994
0
ARC
8
DEFAULT_255_2_778
10
19.5189388
20
136.9896115
40
0.1880848
50
283.9052409
51
306.6117621
0
ARC
8
DEFAULT_255_2_778
10
19.4842897
20
137.1191786
40
0.3221912
50
270.2533372
51
284.3492228
0
ARC
8
DEFAULT_255_2_778
10
19.4797621
20
137.2147522
40
0.4178041
50
269.9968243
51
270.8162745
0
ARC
8
DEFAULT_255_2_778
10
19.4811269
20
137.2881966
40
0.4912505
50
263.1637922
51
269.8381166
0
ARC
8
DEFAULT_255_2_778
10
19.4991981
20
137.4417433
40
0.6458567
50
257.6179181
51
263.1934389
0
ARC
8
DEFAULT_255_2_778
10
19.5387802
20
137.6235151
40
0.831888
50
252.9189114
51
257.6396732
0
ARC
8
DEFAULT_255_2_778
10
19.5797461
20
137.761657
40
0.9759703
50
251.5522315
51
253.0020903
0
ARC
8
DEFAULT_255_2_778
10
19.5248934
20
137.3132091
40
0.6169724
50
245.6907954
51
253.3086054
0
ARC
8
DEFAULT_255_2_778
10
19.4937986
20
137.2089052
40
0.5081326
50
253.2890695
51
262.3539513
0
ARC
8
DEFAULT_255_2_778
10
19.4835519
20
137.1361064
40
0.4346178
50
262.4158537
51
269.9226498
0
ARC
8
DEFAULT_255_2_778
10
19.4858877
20
137.0588156
40
0.3573384
50
269.531384
51
291.1392741
0
ARC
8
DEFAULT_255_2_778
10
19.5139103
20
136.9885904
40
0.2817342
50
290.9743163
51
319.8315111
0
ARC
8
DEFAULT_255_2_778
10
19.5703324
20
136.9422128
40
0.208706
50
319.5693811
51
352.147275
0
ARC
8
DEFAULT_255_2_778
10
19.6080843
20
136.9341331
40
0.170228
50
353.1052432
51
359.9694768
0
ARC
8
DEFAULT_255_2_778
10
19.619217
20
136.9340923
40
0.1590954
50
359.9820323
51
48.1680262
0
ARC
8
DEFAULT_255_2_778
10
19.5685344
20
136.8791109
40
0.2338675
50
47.8999999
51
68.5994477
0
ARC
8
DEFAULT_255_2_778
10
19.515911
20
136.7503112
40
0.3729934
50
68.2925482
51
81.2254538
0
ARC
8
DEFAULT_255_2_778
10
19.5841972
20
137.2668084
40
0.148307
50
265.5964328
51
269.9780427
0
ARC
8
DEFAULT_255_2_778
10
19.5760096
20
137.2734336
40
0.1551453
50
273.004087
51
349.8612615
0
ARC
8
DEFAULT_255_2_778
10
19.5123628
20
137.3025954
40
0.2236176
50
345.3721348
51
359.9751256
0
ARC
8
DEFAULT_255_2_778
10
19.5339585
20
137.3024983
40
0.2020219
50
4e-7
51
0.2280423
0
ARC
8
DEFAULT_255_2_778
10
19.5597555
20
137.3096481
40
0.1763376
50
357.9376831
51
63.2925076
0
ARC
8
DEFAULT_255_2_778
10
19.5460136
20
137.2681165
40
0.2197074
50
64.9591354
51
87.7288567
0
ARC
8
DEFAULT_255_2_778
10
19.538318
20
137.1902926
40
0.2978108
50
86.8427678
51
90.0256913
0
ARC
8
DEFAULT_255_2_778
10
19.5400484
20
137.1150446
40
0.3730632
50
90.2862735
51
99.8078285
0
ARC
8
DEFAULT_255_2_778
10
19.5660703
20
136.9608047
40
0.5294817
50
99.7394106
51
106.9636812
0
ARC
8
DEFAULT_255_2_778
10
19.623885
20
136.7685819
40
0.7302097
50
106.9021021
51
112.2967575
0
ARC
8
DEFAULT_255_2_778
10
19.7194539
20
136.5347038
40
0.9828604
50
112.2786278
51
116.8488609
0
LINE
8
DEFAULT_255_2_778
10
19.2755562
20
137.4116129
11
19.27541
21
137.4115392
0
LINE
8
DEFAULT_255_2_778
10
19.38411
20
137.1472392
11
19.38411
21
137.0811392
0
LINE
8
DEFAULT_255_2_778
10
19.27091
20
136.8358392
11
19.27091
21
136.7509392
0
LINE
8
DEFAULT_255_2_778
10
19.27541
20
137.4115392
11
19.32251
21
137.3501392
0
ARC
8
DEFAULT_255_2_778
10
21.6488206
20
137.0979013
40
0.5330281
50
158.8297779
51
180.8126209
0
ARC
8
DEFAULT_255_2_778
10
21.343991
20
137.2240829
40
0.2033429
50
124.0119958
51
160.9659866
0
ARC
8
DEFAULT_255_2_778
10
21.2740044
20
137.317462
40
0.0869831
50
90.4994457
51
120.2017555
0
ARC
8
DEFAULT_255_2_778
10
21.259695
20
137.2790586
40
0.1261132
50
24.6798401
51
83.8315083
0
ARC
8
DEFAULT_255_2_778
10
21.0022098
20
137.123952
40
0.4261556
50
6.130385
51
29.1785479
0
ARC
8
DEFAULT_255_2_778
10
20.8145698
20
137.0909702
40
0.6163766
50
359.941576
51
7.3161118
0
ARC
8
DEFAULT_255_2_778
10
20.8987917
20
137.0827366
40
0.5322088
50
338.8055679
51
0.8187669
0
ARC
8
DEFAULT_255_2_778
10
21.2030615
20
136.9566684
40
0.203082
50
303.9150541
51
340.932466
0
ARC
8
DEFAULT_255_2_778
10
21.2725052
20
136.8637902
40
0.0874515
50
270.4854298
51
300.1080748
0
ARC
8
DEFAULT_255_2_778
10
21.2868786
20
136.9020041
40
0.1263997
50
204.3281643
51
263.8084993
0
ARC
8
DEFAULT_255_2_778
10
21.5494907
20
137.0580123
40
0.4313014
50
185.613152
51
208.8453558
0
ARC
8
DEFAULT_255_2_778
10
21.7379678
20
137.0897819
40
0.6221217
50
179.9484445
51
186.8272745
0
ARC
8
DEFAULT_255_2_778
10
21.5393129
20
137.0944048
40
0.5243157
50
152.5254433
51
180.7827883
0
ARC
8
DEFAULT_255_2_778
10
21.3135207
20
137.2218837
40
0.2653266
50
108.4095367
51
154.4544086
0
ARC
8
DEFAULT_255_2_778
10
21.2764902
20
137.3006783
40
0.1791635
50
90.0140927
51
105.1293658
0
ARC
8
DEFAULT_255_2_778
10
21.2620587
20
137.2489205
40
0.231369
50
28.2822033
51
86.4348199
0
ARC
8
DEFAULT_255_2_778
10
21.0415486
20
137.1017258
40
0.4959362
50
2.837394
51
31.1881489
0
ARC
8
DEFAULT_255_2_778
10
20.9400984
20
137.0873304
40
0.5980477
50
359.9914968
51
3.7337628
0
ARC
8
DEFAULT_255_2_778
10
21.0133925
20
137.0801164
40
0.524802
50
332.6504535
51
0.7779361
0
ARC
8
DEFAULT_255_2_778
10
21.2392804
20
136.9531026
40
0.265965
50
288.44039
51
334.5981325
0
ARC
8
DEFAULT_255_2_778
10
21.2764066
20
136.8743438
40
0.1798021
50
270.0125899
51
285.1541198
0
ARC
8
DEFAULT_255_2_778
10
21.29065
20
136.9251186
40
0.2310141
50
208.1688806
51
266.4749618
0
ARC
8
DEFAULT_255_2_778
10
21.5126878
20
137.0725235
40
0.4969751
50
182.8019459
51
211.0671432
0
ARC
8
DEFAULT_255_2_778
10
21.6166146
20
137.0871537
40
0.6015684
50
179.9916184
51
183.7098813
0
LINE
8
DEFAULT_255_2_778
10
21.1158462
20
137.0903417
11
21.1158462
21
137.0903417
0
LINE
8
DEFAULT_255_2_778
10
21.0150462
20
137.0872417
11
21.0150462
21
137.0872417
0
ARC
8
DEFAULT_255_2_778
10
21.0564338
20
137.0979013
40
0.5330281
50
158.8297779
51
180.8126209
0
ARC
8
DEFAULT_255_2_778
10
20.7516043
20
137.2240829
40
0.2033429
50
124.0119958
51
160.9659866
0
ARC
8
DEFAULT_255_2_778
10
20.6816176
20
137.317462
40
0.0869831
50
90.4994457
51
120.2017555
0
ARC
8
DEFAULT_255_2_778
10
20.6673082
20
137.2790586
40
0.1261132
50
24.6798401
51
83.8315083
0
ARC
8
DEFAULT_255_2_778
10
20.4098231
20
137.123952
40
0.4261556
50
6.130385
51
29.1785479
0
ARC
8
DEFAULT_255_2_778
10
20.2221831
20
137.0909702
40
0.6163766
50
359.941576
51
7.3161118
0
ARC
8
DEFAULT_255_2_778
10
20.3064049
20
137.0827366
40
0.5322088
50
338.8055679
51
0.8187669
0
ARC
8
DEFAULT_255_2_778
10
20.6106747
20
136.9566684
40
0.203082
50
303.9150541
51
340.932466
0
ARC
8
DEFAULT_255_2_778
10
20.6801185
20
136.8637902
40
0.0874515
50
270.4854298
51
300.1080748
0
ARC
8
DEFAULT_255_2_778
10
20.6944918
20
136.9020041
40
0.1263997
50
204.3281643
51
263.8084993
0
ARC
8
DEFAULT_255_2_778
10
20.9571039
20
137.0580123
40
0.4313014
50
185.613152
51
208.8453558
0
ARC
8
DEFAULT_255_2_778
10
21.145581
20
137.0897819
40
0.6221217
50
179.9484445
51
186.8272745
0
ARC
8
DEFAULT_255_2_778
10
20.9469261
20
137.0944048
40
0.5243157
50
152.5254433
51
180.7827883
0
ARC
8
DEFAULT_255_2_778
10
20.7211339
20
137.2218837
40
0.2653266
50
108.4095367
51
154.4544086
0
ARC
8
DEFAULT_255_2_778
10
20.6841034
20
137.3006783
40
0.1791635
50
90.0140927
51
105.1293658
0
ARC
8
DEFAULT_255_2_778
10
20.6696719
20
137.2489205
40
0.231369
50
28.2822033
51
86.4348199
0
ARC
8
DEFAULT_255_2_778
10
20.4491618
20
137.1017258
40
0.4959362
50
2.837394
51
31.1881489
0
ARC
8
DEFAULT_255_2_778
10
20.3477116
20
137.0873304
40
0.5980477
50
359.9914968
51
3.7337628
0
ARC
8
DEFAULT_255_2_778
10
20.4210058
20
137.0801164
40
0.524802
50
332.6504535
51
0.7779361
0
ARC
8
DEFAULT_255_2_778
10
20.6468936
20
136.9531026
40
0.265965
50
288.44039
51
334.5981325
0
ARC
8
DEFAULT_255_2_778
10
20.6840199
20
136.8743438
40
0.1798021
50
270.0125899
51
285.1541198
0
ARC
8
DEFAULT_255_2_778
10
20.6982632
20
136.9251186
40
0.2310141
50
208.1688806
51
266.4749618
0
ARC
8
DEFAULT_255_2_778
10
20.920301
20
137.0725235
40
0.4969751
50
182.8019459
51
211.0671432
0
ARC
8
DEFAULT_255_2_778
10
21.0242279
20
137.0871537
40
0.6015684
50
179.9916184
51
183.7098813
0
LINE
8
DEFAULT_255_2_778
10
20.5234594
20
137.0903417
11
20.5234594
21
137.0903417
0
LINE
8
DEFAULT_255_2_778
10
20.4226594
20
137.0872417
11
20.4226594
21
137.0872417
0
ARC
8
DEFAULT_255_2_778
10
20.4640338
20
137.0979013
40
0.5330281
50
158.8297779
51
180.8126209
0
ARC
8
DEFAULT_255_2_778
10
20.1592043
20
137.2240829
40
0.2033429
50
124.0119958
51
160.9659866
0
ARC
8
DEFAULT_255_2_778
10
20.0892176
20
137.317462
40
0.0869831
50
90.4994457
51
120.2017555
0
ARC
8
DEFAULT_255_2_778
10
20.0749082
20
137.2790586
40
0.1261132
50
24.6798401
51
83.8315083
0
ARC
8
DEFAULT_255_2_778
10
19.8174231
20
137.123952
40
0.4261556
50
6.130385
51
29.1785479
0
ARC
8
DEFAULT_255_2_778
10
19.6297831
20
137.0909702
40
0.6163766
50
359.941576
51
7.3161118
0
ARC
8
DEFAULT_255_2_778
10
19.7140049
20
137.0827366
40
0.5322088
50
338.8055679
51
0.8187669
0
ARC
8
DEFAULT_255_2_778
10
20.0182747
20
136.9566684
40
0.203082
50
303.9150541
51
340.932466
0
ARC
8
DEFAULT_255_2_778
10
20.0877185
20
136.8637902
40
0.0874515
50
270.4854298
51
300.1080748
0
ARC
8
DEFAULT_255_2_778
10
20.1020918
20
136.9020041
40
0.1263997
50
204.3281643
51
263.8084993
0
ARC
8
DEFAULT_255_2_778
10
20.3647039
20
137.0580123
40
0.4313014
50
185.613152
51
208.8453558
0
ARC
8
DEFAULT_255_2_778
10
20.553181
20
137.0897819
40
0.6221217
50
179.9484445
51
186.8272745
0
ARC
8
DEFAULT_255_2_778
10
20.3542427
20
137.0944257
40
0.5240325
50
152.511927
51
180.7855003
0
ARC
8
DEFAULT_255_2_778
10
20.1281483
20
137.2223056
40
0.264594
50
107.9689651
51
154.4798484
0
ARC
8
DEFAULT_255_2_778
10
20.0919909
20
137.3001433
40
0.1796984
50
90.01006
51
104.6572928
0
ARC
8
DEFAULT_255_2_778
10
20.0777541
20
137.2492502
40
0.2310286
50
28.1748595
51
86.4748124
0
ARC
8
DEFAULT_255_2_778
10
19.8559078
20
137.1019241
40
0.4967862
50
2.8051578
51
31.0734515
0
ARC
8
DEFAULT_255_2_778
10
19.7523096
20
137.0873293
40
0.6010497
50
359.9916466
51
3.711491
0
ARC
8
DEFAULT_255_2_778
10
19.8283191
20
137.0801382
40
0.5250883
50
332.6639313
51
0.7751279
0
ARC
8
DEFAULT_255_2_778
10
20.0541076
20
136.953345
40
0.2664398
50
288.748604
51
334.5889087
0
ARC
8
DEFAULT_255_2_778
10
20.091909
20
136.8737814
40
0.1792398
50
270.0161048
51
285.4790874
0
ARC
8
DEFAULT_255_2_778
10
20.1063274
20
136.9255162
40
0.231421
50
208.2265906
51
266.4404307
0
ARC
8
DEFAULT_255_2_778
10
20.327262
20
137.0727124
40
0.4963409
50
182.827365
51
211.1367331
0
ARC
8
DEFAULT_255_2_778
10
20.4293456
20
137.0871562
40
0.5990863
50
179.9918267
51
183.7255174
0
LINE
8
DEFAULT_255_2_778
10
19.9310594
20
137.0903417
11
19.9310594
21
137.0903417
0
LINE
8
DEFAULT_255_2_778
10
19.8302594
20
137.0872417
11
19.8302594
21
137.0872417
0
ARC
8
DEFAULT_255_2_778
10
22.0340737
20
136.6394444
40
0.1933064
50
91.2007449
51
181.3742454
0
ARC
8
DEFAULT_255_2_778
10
22.0259721
20
136.6394444
40
0.1933064
50
358.6257546
51
88.7992551
0
ARC
8
DEFAULT_255_2_778
10
22.0260368
20
136.6301105
40
0.1932432
50
271.1819413
51
1.3930197
0
ARC
8
DEFAULT_255_2_778
10
22.0340093
20
136.6301106
40
0.1932434
50
178.6070028
51
268.8179775
0
LINE
8
DEFAULT_255_2_778
10
21.8408229
20
136.6348083
11
21.8408229
21
136.6348083
0
ARC
8
DEFAULT_255_2_778
10
22.5002079
20
136.6395071
40
0.1932422
50
91.1816293
51
181.3933249
0
ARC
8
DEFAULT_255_2_778
10
22.4921721
20
136.6394444
40
0.1933064
50
358.6257546
51
88.7992551
0
ARC
8
DEFAULT_255_2_778
10
22.4922368
20
136.6301105
40
0.1932432
50
271.1819413
51
1.3930197
0
ARC
8
DEFAULT_255_2_778
10
22.5001435
20
136.6300476
40
0.193179
50
178.5878493
51
268.8370891
0
LINE
8
DEFAULT_255_2_778
10
22.3070229
20
136.6348083
11
22.3070229
21
136.6348083
0
ARC
8
DEFAULT_255_2_778
10
22.9667079
20
136.6522071
40
0.1932422
50
91.1816293
51
181.3933249
0
ARC
8
DEFAULT_255_2_778
10
22.9586721
20
136.6521444
40
0.1933064
50
358.6257546
51
88.7992551
0
ARC
8
DEFAULT_255_2_778
10
22.9587368
20
136.6428105
40
0.1932432
50
271.1819413
51
1.3930197
0
ARC
8
DEFAULT_255_2_778
10
22.9666435
20
136.6427476
40
0.193179
50
178.5878493
51
268.8370891
0
LINE
8
DEFAULT_255_2_778
10
22.7735229
20
136.6475083
11
22.7735229
21
136.6475083
0
LINE
8
DEFAULT_255_2_778
10
21.8953365
20
136.391124
11
21.8662365
21
136.395924
0
LINE
8
DEFAULT_255_2_778
10
21.8662365
20
136.395924
11
21.8056365
21
136.405724
0
LINE
8
DEFAULT_255_2_778
10
21.8056365
20
136.405724
11
21.7296365
21
136.463924
0
LINE
8
DEFAULT_255_2_778
10
21.7296365
20
136.463924
11
21.6725365
21
136.539624
0
LINE
8
DEFAULT_255_2_778
10
21.6725365
20
136.539624
11
21.6473365
21
136.633024
0
LINE
8
DEFAULT_255_2_778
10
21.6473365
20
136.633024
11
21.6725365
21
136.726624
0
LINE
8
DEFAULT_255_2_778
10
21.6725365
20
136.726624
11
21.7291365
21
136.803424
0
LINE
8
DEFAULT_255_2_778
10
21.7291365
20
136.803424
11
21.8050365
21
136.862924
0
LINE
8
DEFAULT_255_2_778
10
21.8050365
20
136.862924
11
21.8662365
21
136.872924
0
LINE
8
DEFAULT_255_2_778
10
21.8662365
20
136.872924
11
21.8955365
21
136.877724
0
LINE
8
DEFAULT_255_2_778
10
21.8955365
20
136.308124
11
21.8543365
21
136.313624
0
LINE
8
DEFAULT_255_2_778
10
21.8543365
20
136.313624
11
21.7704365
21
136.325024
0
LINE
8
DEFAULT_255_2_778
10
21.7704365
20
136.325024
11
21.6680365
21
136.399624
0
LINE
8
DEFAULT_255_2_778
10
21.6680365
20
136.399624
11
21.5947365
21
136.498324
0
LINE
8
DEFAULT_255_2_778
10
21.5947365
20
136.498324
11
21.5730365
21
136.613924
0
ARC
8
DEFAULT_255_2_778
10
8.4839378
20
137.6308433
40
0.4373747
50
56.3665942
51
72.7074496
0
ARC
8
DEFAULT_255_2_778
10
8.5212053
20
137.7444036
40
0.3178747
50
73.036784
51
89.7973226
0
ARC
8
DEFAULT_255_2_778
10
8.5285513
20
137.7220167
40
0.3403165
50
91.0475309
51
125.5485458
0
ARC
8
DEFAULT_255_2_778
10
8.6942904
20
137.4731582
40
0.6392287
50
124.6669492
51
139.114563
0
ARC
8
DEFAULT_255_2_778
10
8.9357319
20
137.2497476
40
0.9680575
50
138.4713305
51
142.1157612
0
ARC
8
DEFAULT_255_2_778
10
8.5582787
20
137.2804798
40
0.5212765
50
117.7453356
51
135.8758074
0
ARC
8
DEFAULT_255_2_778
10
8.4611378
20
137.4628273
40
0.3146729
50
90.4656379
51
117.5483702
0
ARC
8
DEFAULT_255_2_778
10
8.4550272
20
137.4475634
40
0.3299454
50
64.3679478
51
89.3829577
0
ARC
8
DEFAULT_255_2_778
10
8.4227062
20
137.3659901
40
0.4175182
50
64.8738747
51
65.2115951
0
LINE
8
DEFAULT_255_2_778
10
8.1716896
20
137.8442008
11
8.1716896
21
138.0202008
0
LINE
8
DEFAULT_255_2_778
10
8.1716896
20
138.0202008
11
7.8313896
21
138.0202008
0
LINE
8
DEFAULT_255_2_778
10
7.8313896
20
138.0202008
11
7.8313896
21
136.8015008
0
LINE
8
DEFAULT_255_2_778
10
7.8313896
20
136.8015008
11
8.1967896
21
136.8015008
0
LINE
8
DEFAULT_255_2_778
10
8.1967896
20
136.8015008
11
8.1840896
21
137.6434008
0
LINE
8
DEFAULT_255_2_778
10
8.5999896
20
137.7440008
11
8.7261896
21
137.9950008
0
ARC
8
DEFAULT_255_2_778
10
12.3459297
20
137.1889166
40
0.1058286
50
290.4109967
51
338.4144294
0
ARC
8
DEFAULT_255_2_778
10
12.161995
20
137.558021
40
0.5177505
50
282.5203845
51
295.2483499
0
ARC
8
DEFAULT_255_2_778
10
12.2164596
20
137.4246179
40
0.3756367
50
270.2518229
51
277.9224239
0
ARC
8
DEFAULT_255_2_778
10
12.2019255
20
137.2121058
40
0.163922
50
191.9135594
51
275.6664103
0
ARC
8
DEFAULT_255_2_778
10
12.266424
20
137.3396972
40
0.6680449
50
207.8643513
51
221.7718618
0
ARC
8
DEFAULT_255_2_778
10
12.0489477
20
137.1332613
40
0.3684417
50
220.3588923
51
270.0277924
0
ARC
8
DEFAULT_255_2_778
10
12.0434926
20
137.2653085
40
0.5005206
50
270.6449322
51
287.6494066
0
ARC
8
DEFAULT_255_2_778
10
11.9529907
20
137.5612608
40
0.8099892
50
287.4026496
51
297.6988649
0
ARC
8
DEFAULT_255_2_778
10
11.7449905
20
137.9644576
40
1.2636684
50
297.5514274
51
304.3018591
0
LINE
8
DEFAULT_255_2_778
10
12.0415344
20
137.1782664
11
12.0351344
21
138.0262664
0
LINE
8
DEFAULT_255_2_778
10
12.0351344
20
138.0262664
11
11.6758344
21
138.0262664
0
LINE
8
DEFAULT_255_2_778
10
11.6758344
20
138.0262664
11
11.6758344
21
137.0274664
0
LINE
8
DEFAULT_255_2_778
10
12.4571344
20
136.9205664
11
12.4698344
21
136.8075664
0
LINE
8
DEFAULT_255_2_778
10
12.4698344
20
136.8075664
11
12.8101344
21
136.8075664
0
LINE
8
DEFAULT_255_2_778
10
12.8101344
20
136.8075664
11
12.8101344
21
138.0389664
0
LINE
8
DEFAULT_255_2_778
10
12.8101344
20
138.0389664
11
12.4444344
21
138.0389664
0
LINE
8
DEFAULT_255_2_778
10
12.4444344
20
138.0389664
11
12.4444344
21
137.1467664
0
LINE
8
DEFAULT_255_2_778
10
15.1797344
20
136.8012664
11
15.1797344
21
138.0326664
0
LINE
8
DEFAULT_255_2_778
10
15.1797344
20
138.0326664
11
15.5453344
21
138.0326664
0
LINE
8
DEFAULT_255_2_778
10
15.5453344
20
138.0326664
11
15.5453344
21
136.8012664
0
LINE
8
DEFAULT_255_2_778
10
15.5453344
20
136.8012664
11
15.1797344
21
136.8012664
0
ARC
8
DEFAULT_255_2_778
10
15.3647435
20
138.425366
40
0.1978332
50
90.7257917
51
180.9507563
0
ARC
8
DEFAULT_255_2_778
10
15.3597161
20
138.4254493
40
0.1977501
50
359.0247012
51
89.2694187
0
ARC
8
DEFAULT_255_2_778
10
15.3597161
20
138.4187174
40
0.1977501
50
270.7305813
51
0.9752988
0
ARC
8
DEFAULT_255_2_778
10
15.3647435
20
138.4188007
40
0.1978332
50
179.0492437
51
269.2742083
0
LINE
8
DEFAULT_255_2_778
10
15.1669375
20
138.4220833
11
15.1669375
21
138.4220833
0
LINE
8
DEFAULT_255_2_778
10
16.8727729
20
136.7979854
11
16.8727729
21
138.0293854
0
LINE
8
DEFAULT_255_2_778
10
16.8727729
20
138.0293854
11
17.2384729
21
138.0293854
0
LINE
8
DEFAULT_255_2_778
10
17.2384729
20
138.0293854
11
17.2384729
21
136.7979854
0
LINE
8
DEFAULT_255_2_778
10
17.2384729
20
136.7979854
11
16.8727729
21
136.7979854
0
ARC
8
DEFAULT_255_2_778
10
17.0581435
20
138.422166
40
0.1978332
50
90.7257917
51
180.9507563
0
ARC
8
DEFAULT_255_2_778
10
17.0531161
20
138.4222493
40
0.1977501
50
359.0247012
51
89.2694187
0
ARC
8
DEFAULT_255_2_778
10
17.0531161
20
138.4155174
40
0.1977501
50
270.7305813
51
0.9752988
0
ARC
8
DEFAULT_255_2_778
10
17.0581435
20
138.4156007
40
0.1978332
50
179.0492437
51
269.2742083
0
LINE
8
DEFAULT_255_2_778
10
16.8603375
20
138.4188833
11
16.8603375
21
138.4188833
0
ARC
8
DEFAULT_255_2_778
10
13.7517901
20
137.2109013
40
0.434232
50
284.0737984
51
307.1283935
0
ARC
8
DEFAULT_255_2_778
10
13.660277
20
137.5474778
40
0.7829896
50
272.5675489
51
284.5802087
0
ARC
8
DEFAULT_255_2_778
10
13.6343582
20
137.9063726
40
1.1427274
50
269.9523961
51
273.0596894
0
ARC
8
DEFAULT_255_2_778
10
13.6382461
20
138.2880502
40
1.5244123
50
264.3721605
51
269.8181894
0
ARC
8
DEFAULT_255_2_778
10
13.7027307
20
138.9598242
40
2.1992727
50
260.3040359
51
264.4165702
0
ARC
8
DEFAULT_255_2_778
10
13.7920328
20
139.5122479
40
2.75885
50
259.2299789
51
260.4081406
0
ARC
8
DEFAULT_255_2_778
10
13.5129832
20
137.3618106
40
0.6077178
50
188.8927198
51
247.0988028
0
ARC
8
DEFAULT_255_2_778
10
13.8555322
20
137.452954
40
0.9609548
50
185.1081288
51
191.1050073
0
ARC
8
DEFAULT_255_2_778
10
13.7233219
20
137.3804493
40
0.8250312
50
161.5072483
51
180.9066349
0
ARC
8
DEFAULT_255_2_778
10
13.474388
20
137.459195
40
0.5639907
50
120.4701872
51
161.0725957
0
ARC
8
DEFAULT_255_2_778
10
13.5600359
20
137.3924593
40
0.6661417
50
90.0499347
51
123.9108507
0
ARC
8
DEFAULT_255_2_778
10
13.5729457
20
137.2359303
40
0.8227812
50
89.9974966
51
90.9394619
0
ARC
8
DEFAULT_255_2_778
10
13.5669956
20
137.0748917
40
0.9838382
50
77.8335832
51
89.6513936
0
ARC
8
DEFAULT_255_2_778
10
13.4795112
20
136.6569877
40
1.4107957
50
69.8093959
51
77.9373312
0
ARC
8
DEFAULT_255_2_778
10
13.3759492
20
136.3552231
40
1.7297745
50
69.0266426
51
70.0397415
0
ARC
8
DEFAULT_255_2_778
10
13.5343166
20
136.3771487
40
1.4359408
50
73.9178594
51
79.2452957
0
ARC
8
DEFAULT_255_2_778
10
13.6318162
20
136.8974429
40
0.9065925
50
79.1629935
51
86.6049203
0
ARC
8
DEFAULT_255_2_778
10
13.6498447
20
137.1487653
40
0.654651
50
86.8774046
51
89.9568351
0
ARC
8
DEFAULT_255_2_778
10
13.6423726
20
137.3860348
40
0.4174572
50
88.9067133
51
108.0688095
0
ARC
8
DEFAULT_255_2_778
10
13.5851449
20
137.5597782
40
0.2345328
50
107.942404
51
152.2459688
0
ARC
8
DEFAULT_255_2_778
10
14.2992743
20
137.2295195
40
1.0210941
50
154.5072776
51
162.5682748
0
ARC
8
DEFAULT_255_2_778
10
13.9273295
20
137.3442637
40
0.6318603
50
162.3915767
51
174.8213024
0
ARC
8
DEFAULT_255_2_778
10
13.7621865
20
137.3630744
40
0.4657093
50
175.2922289
51
179.9490984
0
ARC
8
DEFAULT_255_2_778
10
13.6350307
20
137.3556851
40
0.338643
50
178.6796766
51
234.9381893
0
ARC
8
DEFAULT_255_2_778
10
13.632674
20
137.36735
40
0.3469445
50
236.3635337
51
264.9414885
0
ARC
8
DEFAULT_255_2_778
10
13.6587382
20
137.5428364
40
0.5241505
50
263.7947872
51
270.1188666
0
ARC
8
DEFAULT_255_2_778
10
13.6534653
20
137.7802235
40
0.7615633
50
270.4785196
51
281.0719661
0
ARC
8
DEFAULT_255_2_778
10
13.5691544
20
138.2340841
40
1.2231753
50
280.8649891
51
287.2606546
0
ARC
8
DEFAULT_255_2_778
10
14.6238917
20
139.0670098
40
2.2970478
50
276.5245429
51
279.5045514
0
ARC
8
DEFAULT_255_2_778
10
14.6892816
20
138.4893746
40
1.7157236
50
272.7759418
51
276.5469051
0
ARC
8
DEFAULT_255_2_778
10
14.7090708
20
138.1091172
40
1.3349546
50
270.0439674
51
272.7180028
0
ARC
8
DEFAULT_255_2_778
10
14.7004544
20
137.6409578
40
0.8668484
50
258.6359382
51
270.6372354
0
ARC
8
DEFAULT_255_2_778
10
14.6077963
20
137.2050325
40
0.4212409
50
235.5405817
51
259.3086539
0
ARC
8
DEFAULT_255_2_778
10
14.5467089
20
137.0977012
40
0.2983588
50
181.5929591
51
233.550276
0
ARC
8
DEFAULT_255_2_778
10
14.744928
20
137.1276621
40
0.4979343
50
179.9387066
51
184.4062155
0
ARC
8
DEFAULT_255_2_778
10
14.8384963
20
137.2237319
40
0.2332136
50
194.3846046
51
259.805052
0
ARC
8
DEFAULT_255_2_778
10
14.9431283
20
137.5889805
40
0.6124159
50
256.2164989
51
270.9014371
0
ARC
8
DEFAULT_255_2_778
10
14.9522592
20
137.9559208
40
0.9792806
50
270.0294815
51
272.249316
0
LINE
8
DEFAULT_255_2_778
10
15.5955939
20
138.0261948
11
15.9421939
21
138.0261948
0
LINE
8
DEFAULT_255_2_778
10
15.9421939
20
138.0261948
11
16.2130939
21
137.2848948
0
LINE
8
DEFAULT_255_2_778
10
16.2130939
20
137.2848948
11
16.4839939
21
138.0325948
0
LINE
8
DEFAULT_255_2_778
10
16.4839939
20
138.0325948
11
16.7927939
21
138.0325948
0
LINE
8
DEFAULT_255_2_778
10
16.7927939
20
138.0325948
11
16.2884939
21
136.7823948
0
LINE
8
DEFAULT_255_2_778
10
16.2884939
20
136.7823948
11
16.0677939
21
136.7823948
0
LINE
8
DEFAULT_255_2_778
10
16.0677939
20
136.7823948
11
15.5955939
21
138.0261948
0
LINE
8
DEFAULT_255_2_778
10
6.2181939
20
138.6545948
11
6.3001939
21
138.6545948
0
LINE
8
DEFAULT_255_2_778
10
6.3001939
20
138.6545948
11
6.3001939
21
136.6976948
0
LINE
8
DEFAULT_255_2_778
10
6.3001939
20
136.6976948
11
18.5069939
21
136.6945948
0
LINE
8
DEFAULT_255_2_778
10
18.5069939
20
136.6945948
11
18.5101939
21
136.6127948
0
LINE
8
DEFAULT_255_2_778
10
18.5101939
20
136.6127948
11
6.2181939
21
136.6127948
0
LINE
8
DEFAULT_255_2_778
10
6.2181939
20
136.6127948
11
6.2181939
21
138.6482948
0
LINE
8
DEFAULT_255_2_778
10
13.9381939
20
137.0657948
11
14.0138939
21
136.8646948
0
LINE
8
DEFAULT_255_2_778
10
13.9950939
20
137.9703948
11
13.9320939
21
137.7568948
0
LINE
8
DEFAULT_255_2_778
10
14.2469939
20
137.1281948
11
14.2469939
21
137.8189948
0
LINE
8
DEFAULT_255_2_778
10
14.2469939
20
137.8189948
11
14.0577939
21
137.8189948
0
LINE
8
DEFAULT_255_2_778
10
14.0577939
20
137.8189948
11
14.0577939
21
138.0325948
0
LINE
8
DEFAULT_255_2_778
10
14.0577939
20
138.0325948
11
14.2469939
21
138.0325948
0
LINE
8
DEFAULT_255_2_778
10
14.2469939
20
138.0325948
11
14.3855939
21
138.5349948
0
LINE
8
DEFAULT_255_2_778
10
14.3855939
20
138.5349948
11
14.5998939
21
138.5349948
0
LINE
8
DEFAULT_255_2_778
10
14.5998939
20
138.5349948
11
14.6125939
21
138.0325948
0
LINE
8
DEFAULT_255_2_778
10
14.6125939
20
138.0325948
11
14.9528939
21
138.0325948
0
LINE
8
DEFAULT_255_2_778
10
14.9528939
20
138.0325948
11
14.9528939
21
137.8189948
0
LINE
8
DEFAULT_255_2_778
10
14.9528939
20
137.8189948
11
14.6125939
21
137.8189948
0
LINE
8
DEFAULT_255_2_778
10
14.6125939
20
137.8189948
11
14.6125939
21
137.1657948
0
LINE
8
DEFAULT_255_2_778
10
14.9906939
20
136.9773948
11
15.0031939
21
136.8014948
0
ARC
8
DEFAULT_255_2_778
10
18.2773623
20
136.6607188
40
0.588729
50
314.1492215
51
331.9331811
0
ARC
8
DEFAULT_255_2_778
10
18.4149706
20
136.5204819
40
0.3922582
50
269.0327782
51
313.9945782
0
ARC
8
DEFAULT_255_2_778
10
18.4132762
20
136.7127141
40
0.5844552
50
255.6362987
51
269.5169802
0
ARC
8
DEFAULT_255_2_778
10
18.4884838
20
137.0161704
40
0.8970861
50
246.6814554
51
255.7910989
0
ARC
8
DEFAULT_255_2_778
10
18.6133117
20
137.3192814
40
1.2248623
50
243.4464445
51
246.9318311
0
ARC
8
DEFAULT_255_2_778
10
18.337299
20
136.7484468
40
0.3644339
50
238.6793577
51
269.7549067
0
ARC
8
DEFAULT_255_2_778
10
18.3337129
20
136.7828517
40
0.3988407
50
270.291204
51
286.0311052
0
ARC
8
DEFAULT_255_2_778
10
18.3184816
20
136.6051248
40
0.2408146
50
301.3744029
51
328.6018723
0
ARC
8
DEFAULT_255_2_778
10
17.8323748
20
136.9319545
40
0.8264122
50
326.8184964
51
337.3943856
0
ARC
8
DEFAULT_255_2_778
10
16.7747134
20
137.3900751
40
1.978979
50
336.9203071
51
342.1242923
0
ARC
8
DEFAULT_255_2_778
10
18.1004201
20
137.1940584
40
0.1954042
50
190.120766
51
263.958695
0
ARC
8
DEFAULT_255_2_778
10
18.1765701
20
137.4966775
40
0.5062622
50
258.9866291
51
270.5697296
0
ARC
8
DEFAULT_255_2_778
10
18.1794576
20
137.8141093
40
0.8236717
50
270.1493118
51
275.0745303
0
ARC
8
DEFAULT_255_2_778
10
18.1624298
20
138.0312074
40
1.0414275
50
274.9512067
51
276.4741818
0
ARC
8
DEFAULT_255_2_778
10
17.886645
20
139.2868897
40
2.5191229
50
276.512331
51
279.4178265
0
ARC
8
DEFAULT_255_2_778
10
17.9624852
20
138.6167793
40
1.844735
50
272.9000807
51
276.5325546
0
ARC
8
DEFAULT_255_2_778
10
17.9861545
20
138.174706
40
1.4020311
50
270.0526278
51
272.8480745
0
ARC
8
DEFAULT_255_2_778
10
17.9781162
20
137.6659763
40
0.8933496
50
259.5051122
51
270.5981508
0
ARC
8
DEFAULT_255_2_778
10
17.8879991
20
137.2050767
40
0.4237712
50
238.7045764
51
260.1348639
0
ARC
8
DEFAULT_255_2_778
10
17.8042044
20
137.0587066
40
0.2552092
50
181.2540346
51
237.7100784
0
LINE
8
DEFAULT_255_2_778
10
11.0900564
20
137.7568213
11
11.0900564
21
137.1285213
0
ARC
8
DEFAULT_255_2_778
10
10.4261476
20
138.3207238
40
1.3645958
50
292.82637
51
299.1123799
0
ARC
8
DEFAULT_255_2_778
10
10.6927129
20
137.6788896
40
0.6696238
50
282.4400197
51
293.1090634
0
ARC
8
DEFAULT_255_2_778
10
10.7657535
20
137.3540188
40
0.3366487
50
270.5781586
51
282.2114611
0
ARC
8
DEFAULT_255_2_778
10
10.7638219
20
137.1880025
40
0.1706983
50
241.3905381
51
271.7888651
0
ARC
8
DEFAULT_255_2_778
10
10.747728
20
137.1512111
40
0.1307392
50
222.8359183
51
239.8616768
0
ARC
8
DEFAULT_255_2_778
10
10.8384234
20
137.2755377
40
0.2833169
50
195.5790395
51
228.8136819
0
ARC
8
DEFAULT_255_2_778
10
11.2237911
20
137.3993199
40
0.6879504
50
182.8967157
51
196.8898295
0
ARC
8
DEFAULT_255_2_778
10
11.7306858
20
137.4414695
40
1.1964408
50
179.9092738
51
183.6859184
0
ARC
8
DEFAULT_255_2_778
10
12.0984338
20
137.4418685
40
1.564188
50
177.2644099
51
179.9452207
0
ARC
8
DEFAULT_255_2_778
10
10.9853029
20
137.4956643
40
0.4497586
50
177.2655023
51
177.3418803
0
ARC
8
DEFAULT_255_2_778
10
11.0005314
20
137.4523533
40
0.4689689
50
149.0265023
51
172.0616653
0
ARC
8
DEFAULT_255_2_778
10
10.8347129
20
137.542706
40
0.2804063
50
88.5402025
51
147.4185874
0
ARC
8
DEFAULT_255_2_778
10
10.765833
20
136.9927465
40
0.833748
50
72.0191589
51
84.7683475
0
ARC
8
DEFAULT_255_2_778
10
10.8835174
20
137.3716106
40
0.4370876
50
61.8010517
51
71.3613167
0
ARC
8
DEFAULT_255_2_778
10
10.4736514
20
138.0410849
40
1.2921636
50
287.0718407
51
298.4918193
0
ARC
8
DEFAULT_255_2_778
10
10.6329455
20
137.5175683
40
0.744952
50
270.6824619
51
287.1805816
0
ARC
8
DEFAULT_255_2_778
10
10.6417292
20
137.3513517
40
0.5786826
50
267.7347632
51
270.0088495
0
ARC
8
DEFAULT_255_2_778
10
10.6222828
20
137.1923284
40
0.4192211
50
203.9093897
51
269.5317059
0
ARC
8
DEFAULT_255_2_778
10
11.0897602
20
137.4516638
40
0.9528801
50
192.6009015
51
206.7737237
0
ARC
8
DEFAULT_255_2_778
10
11.4915698
20
137.5599942
40
1.3687639
50
192.6165694
51
193.3570279
0
ARC
8
DEFAULT_255_2_778
10
11.1913353
20
137.4543735
40
1.0533763
50
182.6397763
51
190.5768818
0
ARC
8
DEFAULT_255_2_778
10
11.0376686
20
137.4447963
40
0.899435
50
180.0132575
51
182.4811747
0
ARC
8
DEFAULT_255_2_778
10
10.8120158
20
137.4606787
40
0.6739744
50
136.7445348
51
181.3680168
0
ARC
8
DEFAULT_255_2_778
10
10.662935
20
137.5491022
40
0.5062158
50
89.2409074
51
132.4668673
0
ARC
8
DEFAULT_255_2_778
10
10.6695554
20
137.4391706
40
0.6161029
50
87.804633
51
89.9919934
0
ARC
8
DEFAULT_255_2_778
10
10.680803
20
136.8974251
40
1.1574622
50
70.3133819
51
89.3884771
0
ARC
8
DEFAULT_255_2_778
10
10.5904169
20
136.593122
40
1.4745303
50
70.1933816
51
70.9898699
0
ARC
8
DEFAULT_255_2_778
10
9.3624696
20
137.4232942
40
0.1950108
50
91.6788031
51
181.813939
0
ARC
8
DEFAULT_255_2_778
10
9.3510433
20
137.4232942
40
0.1950108
50
358.186061
51
88.3211969
0
ARC
8
DEFAULT_255_2_778
10
9.3510433
20
137.4109484
40
0.1950108
50
271.6788031
51
1.813939
0
ARC
8
DEFAULT_255_2_778
10
9.3624696
20
137.4109484
40
0.1950108
50
178.186061
51
268.3211969
0
ARC
8
DEFAULT_255_2_778
10
9.5083893
20
137.4238546
40
0.4667814
50
145.0334623
51
180.8265163
0
ARC
8
DEFAULT_255_2_778
10
9.3653444
20
137.5315342
40
0.2879151
50
91.7092739
51
146.2799614
0
ARC
8
DEFAULT_255_2_778
10
9.3415333
20
137.5146136
40
0.3050877
50
23.4934874
51
87.1398977
0
ARC
8
DEFAULT_255_2_778
10
9.1870608
20
137.4207144
40
0.484809
50
359.5753549
51
26.3944218
0
ARC
8
DEFAULT_255_2_778
10
9.2053251
20
137.4103715
40
0.4665802
50
325.0256173
51
0.8288991
0
ARC
8
DEFAULT_255_2_778
10
9.3481982
20
137.3028215
40
0.2879274
50
271.7032906
51
326.2656695
0
ARC
8
DEFAULT_255_2_778
10
9.3719326
20
137.3197077
40
0.3050641
50
203.5053918
51
267.1485008
0
ARC
8
DEFAULT_255_2_778
10
9.5262703
20
137.4135158
40
0.4846274
50
179.5737352
51
206.399488
0
ARC
8
DEFAULT_255_2_778
10
9.3457714
20
137.3982876
40
0.6699322
50
95.9543621
51
178.9279918
0
ARC
8
DEFAULT_255_2_778
10
9.3689297
20
137.3294797
40
0.7409416
50
89.9824665
51
97.1836307
0
ARC
8
DEFAULT_255_2_778
10
9.3734037
20
137.359749
40
0.710685
50
48.754652
51
90.3424168
0
ARC
8
DEFAULT_255_2_778
10
9.4191906
20
137.4092682
40
0.6432677
50
0.1383337
51
48.9131618
0
ARC
8
DEFAULT_255_2_778
10
9.3926363
20
137.423368
40
0.6699376
50
275.9481082
51
358.9268911
0
ARC
8
DEFAULT_255_2_778
10
9.3693839
20
137.4925136
40
0.7412923
50
269.9824166
51
277.18192
0
ARC
8
DEFAULT_255_2_778
10
9.3648797
20
137.4615078
40
0.7102994
50
228.4135848
51
270.3449845
0
ARC
8
DEFAULT_255_2_778
10
9.3190178
20
137.4123099
40
0.6430631
50
180.1326312
51
228.5603801
0
ARC
8
DEFAULT_255_2_778
10
6.8108339
20
138.1078423
40
0.4410946
50
358.399361
51
20.0218069
0
ARC
8
DEFAULT_255_2_778
10
7.0253177
20
138.1839374
40
0.2135292
50
20.5419455
51
86.7410997
0
ARC
8
DEFAULT_255_2_778
10
6.9405407
20
138.1440724
40
0.314934
50
287.9227005
51
351.1869993
0
ARC
8
DEFAULT_255_2_778
10
7.0384907
20
138.0926459
40
0.6187549
50
4.9300483
51
29.901288
0
ARC
8
DEFAULT_255_2_778
10
7.1431875
20
138.1337073
40
0.5077965
50
31.774244
51
73.6174038
0
ARC
8
DEFAULT_255_2_778
10
7.0079481
20
137.7524064
40
0.9120309
50
72.2224415
51
84.9672302
0
ARC
8
DEFAULT_255_2_778
10
6.9734901
20
138.5159382
40
0.9424937
50
276.9758239
51
292.3160184
0
ARC
8
DEFAULT_255_2_778
10
7.1528558
20
138.1083093
40
0.4974119
50
291.0316637
51
353.5367683
0
ARC
8
DEFAULT_255_2_778
10
6.8831249
20
138.1635383
40
0.7720348
50
351.7170585
51
358.6850323
0
LINE
8
DEFAULT_255_2_778
10
18.0657564
20
136.2236213
11
18.1478564
21
136.4371213
0
LINE
8
DEFAULT_255_2_778
10
18.6581564
20
136.7826213
11
18.2295564
21
137.8129213
0
LINE
8
DEFAULT_255_2_778
10
18.2295564
20
137.8129213
11
17.9080564
21
137.8129213
0
LINE
8
DEFAULT_255_2_778
10
17.9080564
20
137.8129213
11
17.9080564
21
137.1597213
0
LINE
8
DEFAULT_255_2_778
10
18.2798564
20
136.9964213
11
18.2988564
21
136.8017213
0
LINE
8
DEFAULT_255_2_778
10
17.5490564
20
137.0531213
11
17.5363564
21
137.8195213
0
LINE
8
DEFAULT_255_2_778
10
17.5363564
20
137.8195213
11
17.3471564
21
137.8195213
0
LINE
8
DEFAULT_255_2_778
10
17.3471564
20
137.8195213
11
17.3471564
21
138.0331213
0
LINE
8
DEFAULT_255_2_778
10
17.3471564
20
138.0331213
11
17.5487564
21
138.0331213
0
LINE
8
DEFAULT_255_2_778
10
17.5487564
20
138.0331213
11
17.6747564
21
138.5355213
0
LINE
8
DEFAULT_255_2_778
10
17.6747564
20
138.5355213
11
17.8890564
21
138.5355213
0
LINE
8
DEFAULT_255_2_778
10
17.8890564
20
138.5355213
11
17.9017564
21
138.0331213
0
LINE
8
DEFAULT_255_2_778
10
17.9017564
20
138.0331213
11
18.5319564
21
138.0331213
0
LINE
8
DEFAULT_255_2_778
10
18.5319564
20
138.0331213
11
18.8343564
21
137.2039213
0
LINE
8
DEFAULT_255_2_778
10
18.8343564
20
137.2039213
11
19.1368564
21
138.0331213
0
LINE
8
DEFAULT_255_2_778
10
19.1368564
20
138.0331213
11
19.4519564
21
138.0331213
0
LINE
8
DEFAULT_255_2_778
10
19.4519564
20
138.0331213
11
18.7965564
21
136.3871213
0
LINE
8
DEFAULT_255_2_778
10
11.0900564
20
137.7568213
11
11.0900564
21
137.7568213
0
LINE
8
DEFAULT_255_2_778
10
11.0900564
20
137.9802213
11
11.0900564
21
138.7326213
0
LINE
8
DEFAULT_255_2_778
10
11.0900564
20
138.7326213
11
11.4538564
21
138.7739213
0
LINE
8
DEFAULT_255_2_778
10
11.4538564
20
138.7739213
11
11.4538564
21
136.8062213
0
LINE
8
DEFAULT_255_2_778
10
11.4538564
20
136.8062213
11
11.0982564
21
136.8062213
0
LINE
8
DEFAULT_255_2_778
10
11.0982564
20
136.8062213
11
11.0900564
21
136.9054213
0
LINE
8
DEFAULT_255_2_778
10
11.0900564
20
137.9804213
11
11.0900564
21
137.9802213
0
LINE
8
DEFAULT_255_2_778
10
9.1675564
20
137.4171213
11
9.1675564
21
137.4171213
0
LINE
8
DEFAULT_255_2_778
10
9.0416564
20
137.4171213
11
9.0416564
21
137.4171213
0
LINE
8
DEFAULT_255_2_778
10
8.6759564
20
137.4108213
11
8.6759564
21
137.4108213
0
LINE
8
DEFAULT_255_2_778
10
7.0374564
20
138.3971213
11
6.7728564
21
138.3971213
0
LINE
8
DEFAULT_255_2_778
10
6.7728564
20
138.3971213
11
6.7728564
21
137.8444213
0
LINE
8
DEFAULT_255_2_778
10
6.7728564
20
137.8444213
11
7.0374564
21
137.8444213
0
LINE
8
DEFAULT_255_2_778
10
7.2517564
20
138.0958213
11
7.2517564
21
138.0955213
0
LINE
8
DEFAULT_255_2_778
10
7.0879564
20
138.6609213
11
6.3820564
21
138.6609213
0
LINE
8
DEFAULT_255_2_778
10
6.3820564
20
138.6609213
11
6.3820564
21
136.8014213
0
LINE
8
DEFAULT_255_2_778
10
6.3820564
20
136.8014213
11
6.7728564
21
136.8014213
0
LINE
8
DEFAULT_255_2_778
10
6.7728564
20
136.8014213
11
6.7728564
21
137.5804213
0
LINE
8
DEFAULT_255_2_778
10
6.7728564
20
137.5804213
11
7.0879564
21
137.5804213
0
LINE
8
DEFAULT_255_2_778
10
7.6549564
20
138.1458213
11
7.6549564
21
138.1458213
0
LINE
8
DEFAULT_255_1_234
10
4.4347265
20
132.6090276
11
4.4347265
21
132.2676788
0
LINE
8
DEFAULT_255_1_234
10
4.4347265
20
132.2676788
11
4.760815
21
132.2676788
0
LINE
8
DEFAULT_255_1_234
10
4.760815
20
132.2676788
11
4.760815
21
132.1271233
0
LINE
8
DEFAULT_255_1_234
10
4.760815
20
132.1271233
11
4.4347265
21
132.1271233
0
LINE
8
DEFAULT_255_1_234
10
4.4347265
20
132.1271233
11
4.4347265
21
131.7576634
0
LINE
8
DEFAULT_255_1_234
10
4.4347265
20
131.7576634
11
4.2853361
21
131.7576634
0
LINE
8
DEFAULT_255_1_234
10
4.2853361
20
131.7576634
11
4.2853361
21
132.1271233
0
LINE
8
DEFAULT_255_1_234
10
4.2853361
20
132.1271233
11
3.9592476
21
132.1271233
0
LINE
8
DEFAULT_255_1_234
10
3.9592476
20
132.1271233
11
3.9592476
21
132.2676788
0
LINE
8
DEFAULT_255_1_234
10
3.9592476
20
132.2676788
11
4.2853361
21
132.2676788
0
LINE
8
DEFAULT_255_1_234
10
4.2853361
20
132.2676788
11
4.2853361
21
132.6090276
0
LINE
8
DEFAULT_255_1_234
10
4.2853361
20
132.6090276
11
4.4347265
21
132.6090276
0
LINE
8
DEFAULT_255_1_234
10
24.2451663
20
132.1978026
11
24.2451663
21
132.0765234
0
LINE
8
DEFAULT_255_1_234
10
24.2451663
20
132.0765234
11
23.8532174
21
132.0765234
0
LINE
8
DEFAULT_255_1_234
10
23.8532174
20
132.0765234
11
23.8532174
21
132.1978026
0
LINE
8
DEFAULT_255_1_234
10
23.8532174
20
132.1978026
11
24.2451663
21
132.1978026
0
ARC
8
DEFAULT_255_1_234
10
24.0075624
20
5.5020703
40
0.2822356
50
338.8763615
51
0.5166041
0
ARC
8
DEFAULT_255_1_234
10
24.0244278
20
5.4975208
40
0.2648703
50
325.8412414
51
338.4795939
0
ARC
8
DEFAULT_255_1_234
10
23.9853646
20
5.5246042
40
0.3124019
50
296.7586019
51
325.753654
0
ARC
8
DEFAULT_255_1_234
10
23.9565754
20
5.5730789
40
0.368668
50
296.0902311
51
297.3618122
0
ARC
8
DEFAULT_255_1_234
10
23.9823212
20
4.9176041
40
0.3518806
50
47.9009248
51
67.1946869
0
ARC
8
DEFAULT_255_1_234
10
24.0019454
20
4.9422395
40
0.320451
50
35.236241
51
47.551371
0
ARC
8
DEFAULT_255_1_234
10
24.0281072
20
4.9596993
40
0.2890103
50
359.2759738
51
35.4014081
0
ARC
8
DEFAULT_255_1_234
10
23.9536103
20
4.9523826
40
0.3635026
50
343.1294516
51
0.5776525
0
ARC
8
DEFAULT_255_1_234
10
24.0260648
20
4.932433
40
0.2883832
50
310.8497458
51
342.744803
0
ARC
8
DEFAULT_255_1_234
10
23.9842761
20
4.9801294
40
0.3517954
50
281.5473923
51
310.9169905
0
ARC
8
DEFAULT_255_1_234
10
23.948621
20
5.1354084
40
0.5110832
50
269.6192722
51
281.9789957
0
ARC
8
DEFAULT_255_1_234
10
23.9414
20
5.1354828
40
0.5111606
50
257.4584469
51
270.4287458
0
ARC
8
DEFAULT_255_1_234
10
23.9033143
20
4.9751344
40
0.3463762
50
228.7553743
51
257.8484423
0
ARC
8
DEFAULT_255_1_234
10
23.8723341
20
4.9378442
40
0.297916
50
184.0104442
51
228.5071787
0
ARC
8
DEFAULT_255_1_234
10
23.9886285
20
4.9555512
40
0.4152734
50
179.9315461
51
185.3254504
0
ARC
8
DEFAULT_255_1_234
10
23.8709931
20
4.9592992
40
0.2976554
50
145.6795913
51
180.6259649
0
ARC
8
DEFAULT_255_1_234
10
23.887328
20
4.9478929
40
0.3175776
50
115.5537925
51
145.6416199
0
ARC
8
DEFAULT_255_1_234
10
23.921421
20
4.8868028
40
0.3874232
50
113.2437915
51
116.2054627
0
ARC
8
DEFAULT_255_1_234
10
23.9061423
20
5.526658
40
0.3154751
50
222.9548379
51
244.1372485
0
ARC
8
DEFAULT_255_1_234
10
23.8939498
20
5.5129834
40
0.2972382
50
213.3439227
51
222.6271327
0
ARC
8
DEFAULT_255_1_234
10
23.8747433
20
5.4999308
40
0.274019
50
180.4316517
51
213.2713999
0
ARC
8
DEFAULT_255_1_234
10
23.9322434
20
5.504611
40
0.33158
50
179.9992944
51
181.1655061
0
ARC
8
DEFAULT_255_1_234
10
23.9731851
20
5.5080561
40
0.3725376
50
164.6186108
51
180.5292368
0
ARC
8
DEFAULT_255_1_234
10
23.8833714
20
5.5322101
40
0.2795349
50
132.2454369
51
164.5092287
0
ARC
8
DEFAULT_255_1_234
10
23.9120818
20
5.4997028
40
0.3229019
50
100.7052766
51
132.1387266
0
ARC
8
DEFAULT_255_1_234
10
23.942579
20
5.3619086
40
0.4639835
50
89.6732617
51
101.2449487
0
ARC
8
DEFAULT_255_1_234
10
23.9487988
20
5.379399
40
0.4464999
50
76.2876631
51
90.4586123
0
ARC
8
DEFAULT_255_1_234
10
23.979422
20
5.501622
40
0.3205023
50
47.8240157
51
76.4266918
0
ARC
8
DEFAULT_255_1_234
10
24.001677
20
5.527659
40
0.2862661
50
6.9168658
51
47.6261438
0
ARC
8
DEFAULT_255_1_234
10
23.8830173
20
5.505737
40
0.4067708
50
359.8419705
51
7.9694496
0
ARC
8
DEFAULT_255_1_234
10
23.917207
20
4.9616925
40
0.2513121
50
359.4454068
51
16.9256425
0
ARC
8
DEFAULT_255_1_234
10
23.9640881
20
4.9746033
40
0.2027071
50
17.292259
51
45.462717
0
ARC
8
DEFAULT_255_1_234
10
23.9586817
20
4.9699434
40
0.2098212
50
45.3028762
51
83.1921472
0
ARC
8
DEFAULT_255_1_234
10
23.9443501
20
4.8897895
40
0.2911472
50
82.2614531
51
90.143954
0
ARC
8
DEFAULT_255_1_234
10
23.9412621
20
4.913095
40
0.2678513
50
89.4959189
51
104.8579811
0
ARC
8
DEFAULT_255_1_234
10
23.923588
20
4.980089
40
0.1985654
50
104.8855873
51
135.2448349
0
ARC
8
DEFAULT_255_1_234
10
23.9285653
20
4.9756336
40
0.2052373
50
135.3398955
51
172.104394
0
ARC
8
DEFAULT_255_1_234
10
24.0092711
20
4.9601925
40
0.2873299
50
171.2651929
51
180.1859362
0
ARC
8
DEFAULT_255_1_234
10
23.9923412
20
4.9569733
40
0.2704083
50
179.515471
51
193.6466734
0
ARC
8
DEFAULT_255_1_234
10
23.9107181
20
4.9361777
40
0.1861855
50
193.3540587
51
225.8256931
0
ARC
8
DEFAULT_255_1_234
10
23.9147938
20
4.9432524
40
0.1941102
50
226.418029
51
255.8553723
0
ARC
8
DEFAULT_255_1_234
10
23.9404371
20
5.0368998
40
0.2911917
50
255.4655572
51
268.7985967
0
ARC
8
DEFAULT_255_1_234
10
23.9451563
20
5.1207491
40
0.3751331
50
268.3464808
51
270.0104874
0
ARC
8
DEFAULT_255_1_234
10
23.9474951
20
5.0523138
40
0.3067064
50
269.575914
51
282.0823146
0
ARC
8
DEFAULT_255_1_234
10
23.969986
20
4.9528803
40
0.2047712
50
281.7522535
51
306.6056425
0
ARC
8
DEFAULT_255_1_234
10
23.9798286
20
4.9367487
40
0.1859604
50
307.1350025
51
314.0277951
0
ARC
8
DEFAULT_255_1_234
10
23.976237
20
4.9393766
40
0.1903475
50
314.2553419
51
350.169324
0
ARC
8
DEFAULT_255_1_234
10
23.8910839
20
4.9578409
40
0.2774269
50
349.4145679
51
0.2930737
0
ARC
8
DEFAULT_255_1_234
10
23.9431272
20
5.4737353
40
0.2300764
50
89.477591
51
105.729794
0
ARC
8
DEFAULT_255_1_234
10
23.9295185
20
5.5242637
40
0.1777519
50
105.922966
51
135.1662921
0
ARC
8
DEFAULT_255_1_234
10
23.9315688
20
5.5228419
40
0.1802087
50
135.3053131
51
168.9882338
0
ARC
8
DEFAULT_255_1_234
10
24.014326
20
5.5038721
40
0.2650806
50
168.3802067
51
180.3602358
0
ARC
8
DEFAULT_255_1_234
10
23.991484
20
5.5001041
40
0.2422425
50
179.5029707
51
194.9126783
0
ARC
8
DEFAULT_255_1_234
10
23.9329501
20
5.484711
40
0.1817188
50
194.9722181
51
224.1943972
0
ARC
8
DEFAULT_255_1_234
10
23.9301368
20
5.4824169
40
0.1781027
50
224.2961434
51
262.0157375
0
ARC
8
DEFAULT_255_1_234
10
23.9443611
20
5.5555661
40
0.2525492
50
261.1250369
51
270.1959853
0
ARC
8
DEFAULT_255_1_234
10
23.9473366
20
5.5368339
40
0.233825
50
269.4825617
51
285.0988277
0
ARC
8
DEFAULT_255_1_234
10
23.9627525
20
5.478999
40
0.1739712
50
285.1585659
51
315.9484648
0
ARC
8
DEFAULT_255_1_234
10
23.9538537
20
5.4871886
40
0.1860616
50
316.0412958
51
351.9162715
0
ARC
8
DEFAULT_255_1_234
10
23.8805492
20
5.5013245
40
0.2606517
50
351.1056823
51
0.1936567
0
ARC
8
DEFAULT_255_1_234
10
23.9068321
20
5.5043369
40
0.234377
50
359.4789506
51
16.0679113
0
ARC
8
DEFAULT_255_1_234
10
23.954428
20
5.517181
40
0.1850875
50
16.3251951
51
44.791304
0
ARC
8
DEFAULT_255_1_234
10
23.9526561
20
5.5172339
40
0.186312
50
44.3958661
51
88.2498933
0
ARC
8
DEFAULT_255_1_234
10
23.9453115
20
5.4561154
40
0.2476868
50
86.9833827
51
90.0200148
0
LINE
8
DEFAULT_255_1_234
10
23.186823
20
12.9489663
11
23.3418355
21
12.9489663
0
LINE
8
DEFAULT_255_1_234
10
22.4414777
20
13.1079947
11
22.4414777
21
13.2204391
0
LINE
8
DEFAULT_255_1_234
10
23.3418355
20
13.3714357
11
23.186823
21
13.3714357
0
LINE
8
DEFAULT_255_1_234
10
22.5964902
20
13.2164232
11
22.5964902
21
13.1031757
0
ARC
8
DEFAULT_255_1_234
10
22.7937742
20
13.0086846
40
0.5513052
50
340.1774281
51
353.7814284
0
ARC
8
DEFAULT_255_1_234
10
22.9509095
20
12.9501582
40
0.3836379
50
311.4558989
51
340.4421614
0
ARC
8
DEFAULT_255_1_234
10
22.9475763
20
12.9612528
40
0.3941894
50
282.4333181
51
310.7513653
0
ARC
8
DEFAULT_255_1_234
10
22.9036502
20
13.1427679
40
0.5809175
50
269.9358511
51
282.809604
0
ARC
8
DEFAULT_255_1_234
10
22.8984568
20
13.2885212
40
0.7266847
50
270.0021091
51
270.3581957
0
ARC
8
DEFAULT_255_1_234
10
22.8931985
20
13.0284585
40
0.4666519
50
250.7884749
51
270.6489167
0
ARC
8
DEFAULT_255_1_234
10
22.876382
20
12.9647319
40
0.4009729
50
219.3627325
51
250.0611886
0
ARC
8
DEFAULT_255_1_234
10
22.9593031
20
13.0352042
40
0.5097822
50
193.5479632
51
219.5756669
0
ARC
8
DEFAULT_255_1_234
10
23.1964652
20
13.0967919
40
0.7547848
50
181.1218675
51
193.87563
0
ARC
8
DEFAULT_255_1_234
10
23.4034833
20
13.107858
40
0.9620055
50
179.9918545
51
181.5394234
0
ARC
8
DEFAULT_255_1_234
10
23.2183935
20
13.2241788
40
0.7769248
50
169.5837241
51
180.2757934
0
ARC
8
DEFAULT_255_1_234
10
23.0346873
20
13.2581229
40
0.590109
50
155.0365899
51
169.6003176
0
ARC
8
DEFAULT_255_1_234
10
22.9211337
20
13.3128677
40
0.4640625
50
136.783148
51
155.2472683
0
ARC
8
DEFAULT_255_1_234
10
22.8821814
20
13.3459562
40
0.4130255
50
121.7633186
51
136.428115
0
ARC
8
DEFAULT_255_1_234
10
22.8956776
20
13.3210227
40
0.4413323
50
95.6459699
51
121.5490577
0
ARC
8
DEFAULT_255_1_234
10
22.9114058
20
13.2101949
40
0.55319
50
89.924208
51
96.1377933
0
ARC
8
DEFAULT_255_1_234
10
22.9164491
20
13.2220542
40
0.5413475
50
76.6779277
51
90.4563316
0
ARC
8
DEFAULT_255_1_234
10
22.9558114
20
13.3811114
40
0.3775041
50
47.485847
51
76.9287264
0
ARC
8
DEFAULT_255_1_234
10
22.9411087
20
13.3711159
40
0.3948286
50
16.5424086
51
46.8933463
0
ARC
8
DEFAULT_255_1_234
10
22.7803244
20
13.3182861
40
0.564021
50
5.4072051
51
17.0365086
0
ARC
8
DEFAULT_255_1_234
10
22.6364261
20
13.2951679
40
0.5556559
50
7.8891745
51
15.9239216
0
ARC
8
DEFAULT_255_1_234
10
22.8351274
20
13.3528631
40
0.3487515
50
15.7653144
51
27.9410532
0
ARC
8
DEFAULT_255_1_234
10
22.9455492
20
13.411979
40
0.2235026
50
27.8166557
51
46.4008329
0
ARC
8
DEFAULT_255_1_234
10
22.9505135
20
13.4114082
40
0.2205286
50
47.4371857
51
75.0698205
0
ARC
8
DEFAULT_255_1_234
10
22.9196529
20
13.3039765
40
0.3322915
50
74.7008593
51
87.8124495
0
ARC
8
DEFAULT_255_1_234
10
22.9123217
20
13.1983844
40
0.4380987
50
87.3814673
51
90.0240855
0
ARC
8
DEFAULT_255_1_234
10
22.908476
20
13.3161291
40
0.3203749
50
89.3451631
51
108.5745436
0
ARC
8
DEFAULT_255_1_234
10
22.8947865
20
13.3674908
40
0.2673494
50
109.2998449
51
143.3037509
0
ARC
8
DEFAULT_255_1_234
10
22.9709938
20
13.3088881
40
0.3634757
50
143.0753173
51
163.1916937
0
ARC
8
DEFAULT_255_1_234
10
23.1661666
20
13.2472967
40
0.5681262
50
162.9373603
51
174.6208611
0
ARC
8
DEFAULT_255_1_234
10
23.4287708
20
13.218501
40
0.8322832
50
174.3419979
51
180.1430411
0
ARC
8
DEFAULT_255_1_234
10
23.3356864
20
13.0990698
40
0.7392076
50
179.6817502
51
189.150529
0
ARC
8
DEFAULT_255_1_234
10
23.0856112
20
13.057419
40
0.4856932
50
188.9910863
51
203.5773039
0
ARC
8
DEFAULT_255_1_234
10
22.9776445
20
13.0126211
40
0.3688271
50
203.9077269
51
215.1312379
0
ARC
8
DEFAULT_255_1_234
10
22.8853539
20
12.9410941
40
0.2522457
50
213.9071664
51
263.8849284
0
ARC
8
DEFAULT_255_1_234
10
22.8978868
20
13.0195518
40
0.3316174
50
263.1758525
51
270.1031083
0
ARC
8
DEFAULT_255_1_234
10
22.901096
20
13.1442365
40
0.4563091
50
269.6719807
51
279.0609165
0
ARC
8
DEFAULT_255_1_234
10
22.9277728
20
12.9829907
40
0.2928759
50
278.8750225
51
293.6346586
0
ARC
8
DEFAULT_255_1_234
10
22.9597936
20
12.90779
40
0.2111472
50
293.8553404
51
310.0518804
0
ARC
8
DEFAULT_255_1_234
10
22.960279
20
12.9015516
40
0.2060917
50
311.0646779
51
332.0108348
0
ARC
8
DEFAULT_255_1_234
10
22.8410517
20
12.9672978
40
0.3422352
50
331.6588543
51
343.2878891
0
ARC
8
DEFAULT_255_1_234
10
22.6348032
20
13.0306798
40
0.5580003
50
343.1446044
51
351.010618
0
ARC
8
DEFAULT_255_1_234
10
22.4806678
20
13.0587871
40
0.7146438
50
350.7157277
51
351.1602153
0
ARC
8
DEFAULT_255_1_234
10
23.9406931
20
13.4395703
40
0.2822356
50
338.8763615
51
0.5166041
0
ARC
8
DEFAULT_255_1_234
10
23.9575585
20
13.4350208
40
0.2648703
50
325.8412414
51
338.4795939
0
ARC
8
DEFAULT_255_1_234
10
23.9184953
20
13.4621042
40
0.3124019
50
296.7586019
51
325.753654
0
ARC
8
DEFAULT_255_1_234
10
23.8897062
20
13.5105789
40
0.368668
50
296.0902311
51
297.3618122
0
ARC
8
DEFAULT_255_1_234
10
23.9154519
20
12.8551041
40
0.3518806
50
47.9009248
51
67.1946869
0
ARC
8
DEFAULT_255_1_234
10
23.9350761
20
12.8797395
40
0.320451
50
35.236241
51
47.551371
0
ARC
8
DEFAULT_255_1_234
10
23.9612379
20
12.8971993
40
0.2890103
50
359.2759738
51
35.4014081
0
ARC
8
DEFAULT_255_1_234
10
23.886741
20
12.8898826
40
0.3635026
50
343.1294516
51
0.5776525
0
ARC
8
DEFAULT_255_1_234
10
23.9591955
20
12.869933
40
0.2883832
50
310.8497458
51
342.744803
0
ARC
8
DEFAULT_255_1_234
10
23.9174068
20
12.9176294
40
0.3517954
50
281.5473923
51
310.9169905
0
ARC
8
DEFAULT_255_1_234
10
23.8817518
20
13.0729084
40
0.5110832
50
269.6192722
51
281.9789957
0
ARC
8
DEFAULT_255_1_234
10
23.8745307
20
13.0729828
40
0.5111606
50
257.4584469
51
270.4287458
0
ARC
8
DEFAULT_255_1_234
10
23.836445
20
12.9126344
40
0.3463762
50
228.7553743
51
257.8484423
0
ARC
8
DEFAULT_255_1_234
10
23.8054648
20
12.8753442
40
0.297916
50
184.0104442
51
228.5071787
0
ARC
8
DEFAULT_255_1_234
10
23.9217592
20
12.8930512
40
0.4152734
50
179.9315461
51
185.3254504
0
ARC
8
DEFAULT_255_1_234
10
23.8041238
20
12.8967992
40
0.2976554
50
145.6795913
51
180.6259649
0
ARC
8
DEFAULT_255_1_234
10
23.8204587
20
12.8853929
40
0.3175776
50
115.5537925
51
145.6416199
0
ARC
8
DEFAULT_255_1_234
10
23.8545518
20
12.8243028
40
0.3874232
50
113.2437915
51
116.2054627
0
ARC
8
DEFAULT_255_1_234
10
23.839273
20
13.464158
40
0.3154751
50
222.9548379
51
244.1372485
0
ARC
8
DEFAULT_255_1_234
10
23.8270805
20
13.4504834
40
0.2972382
50
213.3439227
51
222.6271327
0
ARC
8
DEFAULT_255_1_234
10
23.807874
20
13.4374308
40
0.274019
50
180.4316517
51
213.2713999
0
ARC
8
DEFAULT_255_1_234
10
23.8653741
20
13.442111
40
0.33158
50
179.9992944
51
181.1655061
0
ARC
8
DEFAULT_255_1_234
10
23.9063158
20
13.4455561
40
0.3725376
50
164.6186108
51
180.5292368
0
ARC
8
DEFAULT_255_1_234
10
23.8165021
20
13.4697101
40
0.2795349
50
132.2454369
51
164.5092287
0
ARC
8
DEFAULT_255_1_234
10
23.8452125
20
13.4372028
40
0.3229019
50
100.7052766
51
132.1387266
0
ARC
8
DEFAULT_255_1_234
10
23.8757097
20
13.2994086
40
0.4639835
50
89.6732617
51
101.2449487
0
ARC
8
DEFAULT_255_1_234
10
23.8819295
20
13.316899
40
0.4464999
50
76.2876631
51
90.4586123
0
ARC
8
DEFAULT_255_1_234
10
23.9125527
20
13.439122
40
0.3205023
50
47.8240157
51
76.4266918
0
ARC
8
DEFAULT_255_1_234
10
23.9348077
20
13.465159
40
0.2862661
50
6.9168658
51
47.6261438
0
ARC
8
DEFAULT_255_1_234
10
23.816148
20
13.443237
40
0.4067708
50
359.8419705
51
7.9694496
0
ARC
8
DEFAULT_255_1_234
10
23.8503377
20
12.8991925
40
0.2513121
50
359.4454068
51
16.9256425
0
ARC
8
DEFAULT_255_1_234
10
23.8972188
20
12.9121033
40
0.2027071
50
17.292259
51
45.462717
0
ARC
8
DEFAULT_255_1_234
10
23.8918124
20
12.9074434
40
0.2098212
50
45.3028762
51
83.1921472
0
ARC
8
DEFAULT_255_1_234
10
23.8774808
20
12.8272895
40
0.2911472
50
82.2614531
51
90.143954
0
ARC
8
DEFAULT_255_1_234
10
23.8743928
20
12.850595
40
0.2678513
50
89.4959189
51
104.8579811
0
ARC
8
DEFAULT_255_1_234
10
23.8567187
20
12.917589
40
0.1985654
50
104.8855873
51
135.2448349
0
ARC
8
DEFAULT_255_1_234
10
23.861696
20
12.9131336
40
0.2052373
50
135.3398955
51
172.104394
0
ARC
8
DEFAULT_255_1_234
10
23.9424018
20
12.8976925
40
0.2873299
50
171.2651929
51
180.1859362
0
ARC
8
DEFAULT_255_1_234
10
23.9254719
20
12.8944733
40
0.2704083
50
179.515471
51
193.6466734
0
ARC
8
DEFAULT_255_1_234
10
23.8438488
20
12.8736777
40
0.1861855
50
193.3540587
51
225.8256931
0
ARC
8
DEFAULT_255_1_234
10
23.8479246
20
12.8807524
40
0.1941102
50
226.418029
51
255.8553723
0
ARC
8
DEFAULT_255_1_234
10
23.8735678
20
12.9743998
40
0.2911917
50
255.4655572
51
268.7985967
0
ARC
8
DEFAULT_255_1_234
10
23.878287
20
13.0582491
40
0.3751331
50
268.3464808
51
270.0104874
0
ARC
8
DEFAULT_255_1_234
10
23.8806258
20
12.9898138
40
0.3067064
50
269.575914
51
282.0823146
0
ARC
8
DEFAULT_255_1_234
10
23.9031167
20
12.8903803
40
0.2047712
50
281.7522535
51
306.6056425
0
ARC
8
DEFAULT_255_1_234
10
23.9129593
20
12.8742487
40
0.1859604
50
307.1350025
51
314.0277951
0
ARC
8
DEFAULT_255_1_234
10
23.9093677
20
12.8768766
40
0.1903475
50
314.2553419
51
350.169324
0
ARC
8
DEFAULT_255_1_234
10
23.8242146
20
12.8953409
40
0.2774269
50
349.4145679
51
0.2930737
0
ARC
8
DEFAULT_255_1_234
10
23.8762579
20
13.4112353
40
0.2300764
50
89.477591
51
105.729794
0
ARC
8
DEFAULT_255_1_234
10
23.8626493
20
13.4617637
40
0.1777519
50
105.922966
51
135.1662921
0
ARC
8
DEFAULT_255_1_234
10
23.8646995
20
13.4603419
40
0.1802087
50
135.3053131
51
168.9882338
0
ARC
8
DEFAULT_255_1_234
10
23.9474568
20
13.4413721
40
0.2650806
50
168.3802067
51
180.3602358
0
ARC
8
DEFAULT_255_1_234
10
23.9246147
20
13.4376041
40
0.2422425
50
179.5029707
51
194.9126783
0
ARC
8
DEFAULT_255_1_234
10
23.8660808
20
13.422211
40
0.1817188
50
194.9722181
51
224.1943972
0
ARC
8
DEFAULT_255_1_234
10
23.8632675
20
13.4199169
40
0.1781027
50
224.2961434
51
262.0157375
0
ARC
8
DEFAULT_255_1_234
10
23.8774918
20
13.4930661
40
0.2525492
50
261.1250369
51
270.1959853
0
ARC
8
DEFAULT_255_1_234
10
23.8804673
20
13.4743339
40
0.233825
50
269.4825617
51
285.0988277
0
ARC
8
DEFAULT_255_1_234
10
23.8958832
20
13.416499
40
0.1739712
50
285.1585659
51
315.9484648
0
ARC
8
DEFAULT_255_1_234
10
23.8869844
20
13.4246886
40
0.1860616
50
316.0412958
51
351.9162715
0
ARC
8
DEFAULT_255_1_234
10
23.8136799
20
13.4388245
40
0.2606517
50
351.1056823
51
0.1936567
0
ARC
8
DEFAULT_255_1_234
10
23.8399628
20
13.4418369
40
0.234377
50
359.4789506
51
16.0679113
0
ARC
8
DEFAULT_255_1_234
10
23.8875587
20
13.454681
40
0.1850875
50
16.3251951
51
44.791304
0
ARC
8
DEFAULT_255_1_234
10
23.8857868
20
13.4547339
40
0.186312
50
44.3958661
51
88.2498933
0
ARC
8
DEFAULT_255_1_234
10
23.8784422
20
13.3936154
40
0.2476868
50
86.9833827
51
90.0200148
0
LINE
8
DEFAULT_255_1_234
10
24.3355674
20
21.6848211
11
24.3355674
21
21.601291
0
LINE
8
DEFAULT_255_1_234
10
24.3355674
20
21.601291
11
23.8512536
21
20.5154
0
LINE
8
DEFAULT_255_1_234
10
23.8512536
20
20.5154
11
23.6954379
21
20.5154
0
LINE
8
DEFAULT_255_1_234
10
23.6954379
20
20.5154
11
24.1781454
21
21.5627387
0
LINE
8
DEFAULT_255_1_234
10
24.1781454
20
21.5627387
11
23.5452444
21
21.5627387
0
LINE
8
DEFAULT_255_1_234
10
23.5452444
20
21.5627387
11
23.5452444
21
21.6848211
0
LINE
8
DEFAULT_255_1_234
10
23.5452444
20
21.6848211
11
24.3355674
21
21.6848211
0
LINE
8
DEFAULT_255_1_234
10
23.186823
20
28.8239663
11
23.3418355
21
28.8239663
0
LINE
8
DEFAULT_255_1_234
10
22.4414777
20
28.9829947
11
22.4414777
21
29.0954391
0
LINE
8
DEFAULT_255_1_234
10
23.3418355
20
29.2464357
11
23.186823
21
29.2464357
0
LINE
8
DEFAULT_255_1_234
10
22.5964902
20
29.0914232
11
22.5964902
21
28.9781757
0
ARC
8
DEFAULT_255_1_234
10
22.7937742
20
28.8836846
40
0.5513052
50
340.1774281
51
353.7814284
0
ARC
8
DEFAULT_255_1_234
10
22.9509095
20
28.8251582
40
0.3836379
50
311.4558989
51
340.4421614
0
ARC
8
DEFAULT_255_1_234
10
22.9475763
20
28.8362528
40
0.3941894
50
282.4333181
51
310.7513653
0
ARC
8
DEFAULT_255_1_234
10
22.9036502
20
29.0177679
40
0.5809175
50
269.9358511
51
282.809604
0
ARC
8
DEFAULT_255_1_234
10
22.8984568
20
29.1635212
40
0.7266847
50
270.0021091
51
270.3581957
0
ARC
8
DEFAULT_255_1_234
10
22.8931985
20
28.9034585
40
0.4666519
50
250.7884749
51
270.6489167
0
ARC
8
DEFAULT_255_1_234
10
22.876382
20
28.8397319
40
0.4009729
50
219.3627325
51
250.0611886
0
ARC
8
DEFAULT_255_1_234
10
22.9593031
20
28.9102042
40
0.5097822
50
193.5479632
51
219.5756669
0
ARC
8
DEFAULT_255_1_234
10
23.1964652
20
28.9717919
40
0.7547848
50
181.1218675
51
193.87563
0
ARC
8
DEFAULT_255_1_234
10
23.4034833
20
28.982858
40
0.9620055
50
179.9918545
51
181.5394234
0
ARC
8
DEFAULT_255_1_234
10
23.2183935
20
29.0991788
40
0.7769248
50
169.5837241
51
180.2757934
0
ARC
8
DEFAULT_255_1_234
10
23.0346873
20
29.1331229
40
0.590109
50
155.0365899
51
169.6003176
0
ARC
8
DEFAULT_255_1_234
10
22.9211337
20
29.1878677
40
0.4640625
50
136.783148
51
155.2472683
0
ARC
8
DEFAULT_255_1_234
10
22.8821814
20
29.2209562
40
0.4130255
50
121.7633186
51
136.428115
0
ARC
8
DEFAULT_255_1_234
10
22.8956776
20
29.1960227
40
0.4413323
50
95.6459699
51
121.5490577
0
ARC
8
DEFAULT_255_1_234
10
22.9114058
20
29.0851949
40
0.55319
50
89.924208
51
96.1377933
0
ARC
8
DEFAULT_255_1_234
10
22.9164491
20
29.0970542
40
0.5413475
50
76.6779277
51
90.4563316
0
ARC
8
DEFAULT_255_1_234
10
22.9558114
20
29.2561114
40
0.3775041
50
47.485847
51
76.9287264
0
ARC
8
DEFAULT_255_1_234
10
22.9411087
20
29.2461159
40
0.3948286
50
16.5424086
51
46.8933463
0
ARC
8
DEFAULT_255_1_234
10
22.7803244
20
29.1932861
40
0.564021
50
5.4072051
51
17.0365086
0
ARC
8
DEFAULT_255_1_234
10
22.6364261
20
29.1701679
40
0.5556559
50
7.8891745
51
15.9239216
0
ARC
8
DEFAULT_255_1_234
10
22.8351274
20
29.2278631
40
0.3487515
50
15.7653144
51
27.9410532
0
ARC
8
DEFAULT_255_1_234
10
22.9455492
20
29.286979
40
0.2235026
50
27.8166557
51
46.4008329
0
ARC
8
DEFAULT_255_1_234
10
22.9505135
20
29.2864082
40
0.2205286
50
47.4371857
51
75.0698205
0
ARC
8
DEFAULT_255_1_234
10
22.9196529
20
29.1789765
40
0.3322915
50
74.7008593
51
87.8124495
0
ARC
8
DEFAULT_255_1_234
10
22.9123217
20
29.0733844
40
0.4380987
50
87.3814673
51
90.0240855
0
ARC
8
DEFAULT_255_1_234
10
22.908476
20
29.1911291
40
0.3203749
50
89.3451631
51
108.5745436
0
ARC
8
DEFAULT_255_1_234
10
22.8947865
20
29.2424908
40
0.2673494
50
109.2998449
51
143.3037509
0
ARC
8
DEFAULT_255_1_234
10
22.9709938
20
29.1838881
40
0.3634757
50
143.0753173
51
163.1916937
0
ARC
8
DEFAULT_255_1_234
10
23.1661666
20
29.1222967
40
0.5681262
50
162.9373603
51
174.6208611
0
ARC
8
DEFAULT_255_1_234
10
23.4287708
20
29.093501
40
0.8322832
50
174.3419979
51
180.1430411
0
ARC
8
DEFAULT_255_1_234
10
23.3356864
20
28.9740698
40
0.7392076
50
179.6817502
51
189.150529
0
ARC
8
DEFAULT_255_1_234
10
23.0856112
20
28.932419
40
0.4856932
50
188.9910863
51
203.5773039
0
ARC
8
DEFAULT_255_1_234
10
22.9776445
20
28.8876211
40
0.3688271
50
203.9077269
51
215.1312379
0
ARC
8
DEFAULT_255_1_234
10
22.8853539
20
28.8160941
40
0.2522457
50
213.9071664
51
263.8849284
0
ARC
8
DEFAULT_255_1_234
10
22.8978868
20
28.8945518
40
0.3316174
50
263.1758525
51
270.1031083
0
ARC
8
DEFAULT_255_1_234
10
22.901096
20
29.0192365
40
0.4563091
50
269.6719807
51
279.0609165
0
ARC
8
DEFAULT_255_1_234
10
22.9277728
20
28.8579907
40
0.2928759
50
278.8750225
51
293.6346586
0
ARC
8
DEFAULT_255_1_234
10
22.9597936
20
28.78279
40
0.2111472
50
293.8553404
51
310.0518804
0
ARC
8
DEFAULT_255_1_234
10
22.960279
20
28.7765516
40
0.2060917
50
311.0646779
51
332.0108348
0
ARC
8
DEFAULT_255_1_234
10
22.8410517
20
28.8422978
40
0.3422352
50
331.6588543
51
343.2878891
0
ARC
8
DEFAULT_255_1_234
10
22.6348032
20
28.9056798
40
0.5580003
50
343.1446044
51
351.010618
0
ARC
8
DEFAULT_255_1_234
10
22.4806678
20
28.9337871
40
0.7146438
50
350.7157277
51
351.1602153
0
LINE
8
DEFAULT_255_1_234
10
24.2686981
20
29.6223211
11
24.2686981
21
29.538791
0
LINE
8
DEFAULT_255_1_234
10
24.2686981
20
29.538791
11
23.7843843
21
28.4529
0
LINE
8
DEFAULT_255_1_234
10
23.7843843
20
28.4529
11
23.6285686
21
28.4529
0
LINE
8
DEFAULT_255_1_234
10
23.6285686
20
28.4529
11
24.1112761
21
29.5002387
0
LINE
8
DEFAULT_255_1_234
10
24.1112761
20
29.5002387
11
23.4783751
21
29.5002387
0
LINE
8
DEFAULT_255_1_234
10
23.4783751
20
29.5002387
11
23.4783751
21
29.6223211
0
LINE
8
DEFAULT_255_1_234
10
23.4783751
20
29.6223211
11
24.2686981
21
29.6223211
0
LINE
8
DEFAULT_255_1_234
10
24.1371835
20
37.5606243
11
24.1636882
21
37.5606243
0
LINE
8
DEFAULT_255_1_234
10
24.1636882
20
37.5606243
11
24.1636882
21
37.434526
0
LINE
8
DEFAULT_255_1_234
10
24.1636882
20
37.434526
11
24.1363803
21
37.434526
0
LINE
8
DEFAULT_255_1_234
10
23.5894189
20
36.8353583
11
23.5894189
21
36.8923836
0
LINE
8
DEFAULT_255_1_234
10
23.7388093
20
36.8731075
11
23.7388093
21
36.8184917
0
ARC
8
DEFAULT_255_1_234
10
24.1416151
20
36.9347455
40
0.4998079
50
90.6001036
51
104.514704
0
ARC
8
DEFAULT_255_1_234
10
24.1027667
20
37.0792131
40
0.3502176
50
104.2855254
51
133.862935
0
ARC
8
DEFAULT_255_1_234
10
24.1191424
20
37.068383
40
0.3693984
50
134.5302688
51
161.6210873
0
ARC
8
DEFAULT_255_1_234
10
24.2844613
20
37.0100895
40
0.5446739
50
161.2849839
51
174.2076652
0
ARC
8
DEFAULT_255_1_234
10
24.425155
20
36.9906787
40
0.6866274
50
173.7810589
51
174.9254635
0
ARC
8
DEFAULT_255_1_234
10
23.9701382
20
36.8523839
40
0.3033419
50
95.8330959
51
138.9954921
0
ARC
8
DEFAULT_255_1_234
10
23.9924738
20
36.7245375
40
0.4328947
50
89.8753725
51
97.0544009
0
ARC
8
DEFAULT_255_1_234
10
23.9972204
20
36.8080748
40
0.3493769
50
71.6407809
51
90.6240094
0
ARC
8
DEFAULT_255_1_234
10
24.0122777
20
36.8635082
40
0.2920396
50
39.6367836
51
71.019018
0
ARC
8
DEFAULT_255_1_234
10
23.948625
20
36.8084998
40
0.3761538
50
10.658731
51
39.9043955
0
ARC
8
DEFAULT_255_1_234
10
23.7938333
20
36.7748686
40
0.5345136
50
359.682601
51
11.132623
0
ARC
8
DEFAULT_255_1_234
10
23.7898464
20
36.767801
40
0.5385081
50
347.2486944
51
0.4369317
0
ARC
8
DEFAULT_255_1_234
10
23.9565941
20
36.7276807
40
0.3670249
50
318.1409698
51
347.6118597
0
ARC
8
DEFAULT_255_1_234
10
23.9890934
20
36.7009702
40
0.3250007
50
275.6342139
51
317.8248465
0
ARC
8
DEFAULT_255_1_234
10
23.9670045
20
36.8309219
40
0.4565864
50
269.8874292
51
276.7917694
0
ARC
8
DEFAULT_255_1_234
10
23.9615116
20
36.7283743
40
0.3540676
50
246.9140195
51
270.7437342
0
ARC
8
DEFAULT_255_1_234
10
23.9621506
20
36.7141384
40
0.3412781
50
218.1665114
51
245.878116
0
ARC
8
DEFAULT_255_1_234
10
24.0500967
20
36.7877279
40
0.455911
50
191.4115814
51
218.6077802
0
ARC
8
DEFAULT_255_1_234
10
24.2439056
20
36.8311833
40
0.6545001
50
179.6345085
51
191.7836486
0
ARC
8
DEFAULT_255_1_234
10
24.8021393
20
36.8990697
40
1.2127388
50
171.4525249
51
180.3158839
0
ARC
8
DEFAULT_255_1_234
10
24.3626269
20
36.9674608
40
0.7679464
50
157.9802646
51
171.6246686
0
ARC
8
DEFAULT_255_1_234
10
24.141229
20
37.0557421
40
0.5296008
50
141.4298019
51
157.854097
0
ARC
8
DEFAULT_255_1_234
10
24.077061
20
37.1011381
40
0.4511509
50
102.8715806
51
140.8564722
0
ARC
8
DEFAULT_255_1_234
10
24.1418226
20
36.8571552
40
0.7034845
50
90.3778349
51
103.5869322
0
ARC
8
DEFAULT_255_1_234
10
23.9680002
20
36.796673
40
0.2370698
50
89.8751008
51
126.2071704
0
ARC
8
DEFAULT_255_1_234
10
23.9725792
20
36.7812303
40
0.2522934
50
124.9745049
51
144.895901
0
ARC
8
DEFAULT_255_1_234
10
23.9549982
20
36.795556
40
0.2296779
50
145.2974905
51
160.2660252
0
ARC
8
DEFAULT_255_1_234
10
24.2622521
20
36.8153071
40
0.5234525
50
179.6514266
51
190.2855912
0
ARC
8
DEFAULT_255_1_234
10
24.0928658
20
36.7833786
40
0.3510893
50
190.0945431
51
207.5098196
0
ARC
8
DEFAULT_255_1_234
10
24.0362928
20
36.7564623
40
0.288489
50
207.9583163
51
216.3251085
0
ARC
8
DEFAULT_255_1_234
10
24.0023036
20
36.7285105
40
0.2445587
50
215.7661442
51
232.5456785
0
ARC
8
DEFAULT_255_1_234
10
23.9640019
20
36.6798482
40
0.1826382
50
232.8005391
51
270.6605633
0
ARC
8
DEFAULT_255_1_234
10
23.968572
20
36.7162612
40
0.2190529
50
269.35537
51
288.4744281
0
ARC
8
DEFAULT_255_1_234
10
23.9778617
20
36.6813118
40
0.1829749
50
289.1833337
51
322.9683818
0
ARC
8
DEFAULT_255_1_234
10
23.9167139
20
36.7295391
40
0.2608399
50
322.6007884
51
346.5182367
0
ARC
8
DEFAULT_255_1_234
10
23.8009735
20
36.7590616
40
0.3802777
50
346.2582162
51
358.7741648
0
ARC
8
DEFAULT_255_1_234
10
23.6991404
20
36.7645965
40
0.4822176
50
358.3755224
51
0.0098023
0
ARC
8
DEFAULT_255_1_234
10
23.7747591
20
36.7673657
40
0.4066078
50
359.6214041
51
11.2839074
0
ARC
8
DEFAULT_255_1_234
10
23.9024738
20
36.7940066
40
0.2761514
50
11.0482309
51
31.8146458
0
ARC
8
DEFAULT_255_1_234
10
23.9333781
20
36.8107584
40
0.2410679
50
32.3035391
51
38.082671
0
ARC
8
DEFAULT_255_1_234
10
23.9754441
20
36.8488662
40
0.1844966
50
36.825067
51
85.7415724
0
ARC
8
DEFAULT_255_1_234
10
23.9687274
20
36.7988301
40
0.2349122
50
85.0140713
51
90.0513278
0
LINE
8
DEFAULT_255_1_234
10
23.186823
20
44.6989663
11
23.3418355
21
44.6989663
0
LINE
8
DEFAULT_255_1_234
10
22.4414777
20
44.8579947
11
22.4414777
21
44.9704391
0
LINE
8
DEFAULT_255_1_234
10
23.3418355
20
45.1214357
11
23.186823
21
45.1214357
0
LINE
8
DEFAULT_255_1_234
10
22.5964902
20
44.9664232
11
22.5964902
21
44.8531757
0
ARC
8
DEFAULT_255_1_234
10
22.7937742
20
44.7586846
40
0.5513052
50
340.1774281
51
353.7814284
0
ARC
8
DEFAULT_255_1_234
10
22.9509095
20
44.7001582
40
0.3836379
50
311.4558989
51
340.4421614
0
ARC
8
DEFAULT_255_1_234
10
22.9475763
20
44.7112528
40
0.3941894
50
282.4333181
51
310.7513653
0
ARC
8
DEFAULT_255_1_234
10
22.9036502
20
44.8927679
40
0.5809175
50
269.9358511
51
282.809604
0
ARC
8
DEFAULT_255_1_234
10
22.8984568
20
45.0385212
40
0.7266847
50
270.0021091
51
270.3581957
0
ARC
8
DEFAULT_255_1_234
10
22.8931985
20
44.7784585
40
0.4666519
50
250.7884749
51
270.6489167
0
ARC
8
DEFAULT_255_1_234
10
22.876382
20
44.7147319
40
0.4009729
50
219.3627325
51
250.0611886
0
ARC
8
DEFAULT_255_1_234
10
22.9593031
20
44.7852042
40
0.5097822
50
193.5479632
51
219.5756669
0
ARC
8
DEFAULT_255_1_234
10
23.1964652
20
44.8467919
40
0.7547848
50
181.1218675
51
193.87563
0
ARC
8
DEFAULT_255_1_234
10
23.4034833
20
44.857858
40
0.9620055
50
179.9918545
51
181.5394234
0
ARC
8
DEFAULT_255_1_234
10
23.2183935
20
44.9741788
40
0.7769248
50
169.5837241
51
180.2757934
0
ARC
8
DEFAULT_255_1_234
10
23.0346873
20
45.0081229
40
0.590109
50
155.0365899
51
169.6003176
0
ARC
8
DEFAULT_255_1_234
10
22.9211337
20
45.0628677
40
0.4640625
50
136.783148
51
155.2472683
0
ARC
8
DEFAULT_255_1_234
10
22.8821814
20
45.0959562
40
0.4130255
50
121.7633186
51
136.428115
0
ARC
8
DEFAULT_255_1_234
10
22.8956776
20
45.0710227
40
0.4413323
50
95.6459699
51
121.5490577
0
ARC
8
DEFAULT_255_1_234
10
22.9114058
20
44.9601949
40
0.55319
50
89.924208
51
96.1377933
0
ARC
8
DEFAULT_255_1_234
10
22.9164491
20
44.9720542
40
0.5413475
50
76.6779277
51
90.4563316
0
ARC
8
DEFAULT_255_1_234
10
22.9558114
20
45.1311114
40
0.3775041
50
47.485847
51
76.9287264
0
ARC
8
DEFAULT_255_1_234
10
22.9411087
20
45.1211159
40
0.3948286
50
16.5424086
51
46.8933463
0
ARC
8
DEFAULT_255_1_234
10
22.7803244
20
45.0682861
40
0.564021
50
5.4072051
51
17.0365086
0
ARC
8
DEFAULT_255_1_234
10
22.6364261
20
45.0451679
40
0.5556559
50
7.8891745
51
15.9239216
0
ARC
8
DEFAULT_255_1_234
10
22.8351274
20
45.1028631
40
0.3487515
50
15.7653144
51
27.9410532
0
ARC
8
DEFAULT_255_1_234
10
22.9455492
20
45.161979
40
0.2235026
50
27.8166557
51
46.4008329
0
ARC
8
DEFAULT_255_1_234
10
22.9505135
20
45.1614082
40
0.2205286
50
47.4371857
51
75.0698205
0
ARC
8
DEFAULT_255_1_234
10
22.9196529
20
45.0539765
40
0.3322915
50
74.7008593
51
87.8124495
0
ARC
8
DEFAULT_255_1_234
10
22.9123217
20
44.9483844
40
0.4380987
50
87.3814673
51
90.0240855
0
ARC
8
DEFAULT_255_1_234
10
22.908476
20
45.0661291
40
0.3203749
50
89.3451631
51
108.5745436
0
ARC
8
DEFAULT_255_1_234
10
22.8947865
20
45.1174908
40
0.2673494
50
109.2998449
51
143.3037509
0
ARC
8
DEFAULT_255_1_234
10
22.9709938
20
45.0588881
40
0.3634757
50
143.0753173
51
163.1916937
0
ARC
8
DEFAULT_255_1_234
10
23.1661666
20
44.9972967
40
0.5681262
50
162.9373603
51
174.6208611
0
ARC
8
DEFAULT_255_1_234
10
23.4287708
20
44.968501
40
0.8322832
50
174.3419979
51
180.1430411
0
ARC
8
DEFAULT_255_1_234
10
23.3356864
20
44.8490698
40
0.7392076
50
179.6817502
51
189.150529
0
ARC
8
DEFAULT_255_1_234
10
23.0856112
20
44.807419
40
0.4856932
50
188.9910863
51
203.5773039
0
ARC
8
DEFAULT_255_1_234
10
22.9776445
20
44.7626211
40
0.3688271
50
203.9077269
51
215.1312379
0
ARC
8
DEFAULT_255_1_234
10
22.8853539
20
44.6910941
40
0.2522457
50
213.9071664
51
263.8849284
0
ARC
8
DEFAULT_255_1_234
10
22.8978868
20
44.7695518
40
0.3316174
50
263.1758525
51
270.1031083
0
ARC
8
DEFAULT_255_1_234
10
22.901096
20
44.8942365
40
0.4563091
50
269.6719807
51
279.0609165
0
ARC
8
DEFAULT_255_1_234
10
22.9277728
20
44.7329907
40
0.2928759
50
278.8750225
51
293.6346586
0
ARC
8
DEFAULT_255_1_234
10
22.9597936
20
44.65779
40
0.2111472
50
293.8553404
51
310.0518804
0
ARC
8
DEFAULT_255_1_234
10
22.960279
20
44.6515516
40
0.2060917
50
311.0646779
51
332.0108348
0
ARC
8
DEFAULT_255_1_234
10
22.8410517
20
44.7172978
40
0.3422352
50
331.6588543
51
343.2878891
0
ARC
8
DEFAULT_255_1_234
10
22.6348032
20
44.7806798
40
0.5580003
50
343.1446044
51
351.010618
0
ARC
8
DEFAULT_255_1_234
10
22.4806678
20
44.8087871
40
0.7146438
50
350.7157277
51
351.1602153
0
LINE
8
DEFAULT_255_1_234
10
24.0703142
20
45.4981243
11
24.0968189
21
45.4981243
0
LINE
8
DEFAULT_255_1_234
10
24.0968189
20
45.4981243
11
24.0968189
21
45.372026
0
LINE
8
DEFAULT_255_1_234
10
24.0968189
20
45.372026
11
24.069511
21
45.372026
0
LINE
8
DEFAULT_255_1_234
10
23.5225497
20
44.7728583
11
23.5225497
21
44.8298836
0
LINE
8
DEFAULT_255_1_234
10
23.67194
20
44.8106075
11
23.67194
21
44.7559917
0
ARC
8
DEFAULT_255_1_234
10
24.0747458
20
44.8722455
40
0.4998079
50
90.6001036
51
104.514704
0
ARC
8
DEFAULT_255_1_234
10
24.0358974
20
45.0167131
40
0.3502176
50
104.2855254
51
133.862935
0
ARC
8
DEFAULT_255_1_234
10
24.0522731
20
45.005883
40
0.3693984
50
134.5302688
51
161.6210873
0
ARC
8
DEFAULT_255_1_234
10
24.217592
20
44.9475895
40
0.5446739
50
161.2849839
51
174.2076652
0
ARC
8
DEFAULT_255_1_234
10
24.3582857
20
44.9281787
40
0.6866274
50
173.7810589
51
174.9254635
0
ARC
8
DEFAULT_255_1_234
10
23.9032689
20
44.7898839
40
0.3033419
50
95.8330959
51
138.9954921
0
ARC
8
DEFAULT_255_1_234
10
23.9256045
20
44.6620375
40
0.4328947
50
89.8753725
51
97.0544009
0
ARC
8
DEFAULT_255_1_234
10
23.9303511
20
44.7455748
40
0.3493769
50
71.6407809
51
90.6240094
0
ARC
8
DEFAULT_255_1_234
10
23.9454084
20
44.8010082
40
0.2920396
50
39.6367836
51
71.019018
0
ARC
8
DEFAULT_255_1_234
10
23.8817557
20
44.7459998
40
0.3761538
50
10.658731
51
39.9043955
0
ARC
8
DEFAULT_255_1_234
10
23.726964
20
44.7123686
40
0.5345136
50
359.682601
51
11.132623
0
ARC
8
DEFAULT_255_1_234
10
23.7229771
20
44.705301
40
0.5385081
50
347.2486944
51
0.4369317
0
ARC
8
DEFAULT_255_1_234
10
23.8897248
20
44.6651807
40
0.3670249
50
318.1409698
51
347.6118597
0
ARC
8
DEFAULT_255_1_234
10
23.9222241
20
44.6384702
40
0.3250007
50
275.6342139
51
317.8248465
0
ARC
8
DEFAULT_255_1_234
10
23.9001353
20
44.7684219
40
0.4565864
50
269.8874292
51
276.7917694
0
ARC
8
DEFAULT_255_1_234
10
23.8946423
20
44.6658743
40
0.3540676
50
246.9140195
51
270.7437342
0
ARC
8
DEFAULT_255_1_234
10
23.8952813
20
44.6516384
40
0.3412781
50
218.1665114
51
245.878116
0
ARC
8
DEFAULT_255_1_234
10
23.9832274
20
44.7252279
40
0.455911
50
191.4115814
51
218.6077802
0
ARC
8
DEFAULT_255_1_234
10
24.1770363
20
44.7686833
40
0.6545001
50
179.6345085
51
191.7836486
0
ARC
8
DEFAULT_255_1_234
10
24.73527
20
44.8365697
40
1.2127388
50
171.4525249
51
180.3158839
0
ARC
8
DEFAULT_255_1_234
10
24.2957576
20
44.9049608
40
0.7679464
50
157.9802646
51
171.6246686
0
ARC
8
DEFAULT_255_1_234
10
24.0743597
20
44.9932421
40
0.5296008
50
141.4298019
51
157.854097
0
ARC
8
DEFAULT_255_1_234
10
24.0101918
20
45.0386381
40
0.4511509
50
102.8715806
51
140.8564722
0
ARC
8
DEFAULT_255_1_234
10
24.0749533
20
44.7946552
40
0.7034845
50
90.3778349
51
103.5869322
0
ARC
8
DEFAULT_255_1_234
10
23.9011309
20
44.734173
40
0.2370698
50
89.8751008
51
126.2071704
0
ARC
8
DEFAULT_255_1_234
10
23.9057099
20
44.7187303
40
0.2522934
50
124.9745049
51
144.895901
0
ARC
8
DEFAULT_255_1_234
10
23.888129
20
44.733056
40
0.2296779
50
145.2974905
51
160.2660252
0
ARC
8
DEFAULT_255_1_234
10
24.1953828
20
44.7528071
40
0.5234525
50
179.6514266
51
190.2855912
0
ARC
8
DEFAULT_255_1_234
10
24.0259966
20
44.7208786
40
0.3510893
50
190.0945431
51
207.5098196
0
ARC
8
DEFAULT_255_1_234
10
23.9694235
20
44.6939623
40
0.288489
50
207.9583163
51
216.3251085
0
ARC
8
DEFAULT_255_1_234
10
23.9354343
20
44.6660105
40
0.2445587
50
215.7661442
51
232.5456785
0
ARC
8
DEFAULT_255_1_234
10
23.8971326
20
44.6173482
40
0.1826382
50
232.8005391
51
270.6605633
0
ARC
8
DEFAULT_255_1_234
10
23.9017027
20
44.6537612
40
0.2190529
50
269.35537
51
288.4744281
0
ARC
8
DEFAULT_255_1_234
10
23.9109924
20
44.6188118
40
0.1829749
50
289.1833337
51
322.9683818
0
ARC
8
DEFAULT_255_1_234
10
23.8498446
20
44.6670391
40
0.2608399
50
322.6007884
51
346.5182367
0
ARC
8
DEFAULT_255_1_234
10
23.7341042
20
44.6965616
40
0.3802777
50
346.2582162
51
358.7741648
0
ARC
8
DEFAULT_255_1_234
10
23.6322711
20
44.7020965
40
0.4822176
50
358.3755224
51
0.0098023
0
ARC
8
DEFAULT_255_1_234
10
23.7078898
20
44.7048657
40
0.4066078
50
359.6214041
51
11.2839074
0
ARC
8
DEFAULT_255_1_234
10
23.8356045
20
44.7315066
40
0.2761514
50
11.0482309
51
31.8146458
0
ARC
8
DEFAULT_255_1_234
10
23.8665088
20
44.7482584
40
0.2410679
50
32.3035391
51
38.082671
0
ARC
8
DEFAULT_255_1_234
10
23.9085748
20
44.7863662
40
0.1844966
50
36.825067
51
85.7415724
0
ARC
8
DEFAULT_255_1_234
10
23.9018581
20
44.7363301
40
0.2349122
50
85.0140713
51
90.0513278
0
LINE
8
DEFAULT_255_1_234
10
23.7677235
20
52.8211963
11
23.6488538
21
52.8517169
0
LINE
8
DEFAULT_255_1_234
10
23.6488538
20
52.8517169
11
23.7082887
21
53.4348211
0
LINE
8
DEFAULT_255_1_234
10
23.7082887
20
53.4348211
11
24.3074563
21
53.4348211
0
LINE
8
DEFAULT_255_1_234
10
24.3074563
20
53.4348211
11
24.3074563
21
53.2974784
0
LINE
8
DEFAULT_255_1_234
10
24.3074563
20
53.2974784
11
23.834387
21
53.2974784
0
LINE
8
DEFAULT_255_1_234
10
23.834387
20
53.2974784
11
23.7990473
21
52.9786184
0
LINE
8
DEFAULT_255_1_234
10
23.6070888
20
52.5730156
11
23.7476442
21
52.5730156
0
LINE
8
DEFAULT_255_1_234
10
23.8070791
20
52.8533232
11
23.7677235
21
52.8211963
0
ARC
8
DEFAULT_255_1_234
10
23.9845257
20
52.660623
40
0.3681349
50
93.7182161
51
120.2538958
0
ARC
8
DEFAULT_255_1_234
10
23.993952
20
52.5798394
40
0.449379
50
89.9660152
51
94.2496022
0
ARC
8
DEFAULT_255_1_234
10
23.9980254
20
52.6387549
40
0.390482
50
73.8043271
51
90.5585896
0
ARC
8
DEFAULT_255_1_234
10
24.0215151
20
52.7245602
40
0.3015334
50
41.3071453
51
73.5430202
0
ARC
8
DEFAULT_255_1_234
10
23.9798978
20
52.6887324
40
0.3564457
50
13.5075983
51
41.2174222
0
ARC
8
DEFAULT_255_1_234
10
23.8157182
20
52.6457486
40
0.5261351
50
1.1331335
51
13.8829381
0
ARC
8
DEFAULT_255_1_234
10
23.6745551
20
52.6381665
40
0.6674378
50
359.9919444
51
1.544251
0
ARC
8
DEFAULT_255_1_234
10
23.8022377
20
52.634028
40
0.5397702
50
347.8572367
51
0.4293338
0
ARC
8
DEFAULT_255_1_234
10
23.9772695
20
52.5943736
40
0.3603188
50
323.673004
51
348.1672506
0
ARC
8
DEFAULT_255_1_234
10
24.0067203
20
52.5764168
40
0.3259678
50
316.8171152
51
323.1492751
0
ARC
8
DEFAULT_255_1_234
10
24.0128392
20
52.572746
40
0.3189975
50
281.8396411
51
316.5457803
0
ARC
8
DEFAULT_255_1_234
10
23.9752656
20
52.7282762
40
0.4789527
50
269.5770101
51
282.4214771
0
ARC
8
DEFAULT_255_1_234
10
23.9681467
20
52.7069125
40
0.45759
50
256.2427136
51
270.4486331
0
ARC
8
DEFAULT_255_1_234
10
23.938237
20
52.5869229
40
0.3339303
50
228.9023911
51
256.3314342
0
ARC
8
DEFAULT_255_1_234
10
23.9308602
20
52.5752746
40
0.32031
50
193.753695
51
228.5271154
0
ARC
8
DEFAULT_255_1_234
10
24.0546556
20
52.61158
40
0.4492253
50
184.924711
51
194.497588
0
ARC
8
DEFAULT_255_1_234
10
24.0739123
20
52.6151591
40
0.3289787
50
187.3600538
51
198.6732863
0
ARC
8
DEFAULT_255_1_234
10
23.9689417
20
52.5787674
40
0.217884
50
198.4451669
51
217.794479
0
ARC
8
DEFAULT_255_1_234
10
23.9393592
20
52.5578085
40
0.1816698
50
218.2887171
51
228.5612368
0
ARC
8
DEFAULT_255_1_234
10
23.9491379
20
52.5709963
40
0.1980329
50
228.9654866
51
258.1234728
0
ARC
8
DEFAULT_255_1_234
10
23.9697089
20
52.6590833
40
0.2884748
50
257.7258293
51
270.401361
0
ARC
8
DEFAULT_255_1_234
10
23.9741975
20
52.6145821
40
0.2439788
50
269.4204404
51
286.4209037
0
ARC
8
DEFAULT_255_1_234
10
23.9890463
20
52.5606657
40
0.1880666
50
286.7251356
51
320.600362
0
ARC
8
DEFAULT_255_1_234
10
23.9507288
20
52.5917595
40
0.2374121
50
320.6712579
51
344.5441685
0
ARC
8
DEFAULT_255_1_234
10
23.8350614
20
52.6257045
40
0.3579479
50
344.2412205
51
356.7357071
0
ARC
8
DEFAULT_255_1_234
10
23.7101763
20
52.6360444
40
0.4832297
50
356.3548756
51
0.0500261
0
ARC
8
DEFAULT_255_1_234
10
23.8438272
20
52.639165
40
0.3495889
50
359.5576869
51
12.953486
0
ARC
8
DEFAULT_255_1_234
10
23.9493169
20
52.6647434
40
0.2410532
50
12.6490276
51
41.6081334
0
ARC
8
DEFAULT_255_1_234
10
23.972354
20
52.6843321
40
0.2108218
50
41.7850273
51
85.9892764
0
ARC
8
DEFAULT_255_1_234
10
23.9600277
20
52.6030462
40
0.2928454
50
84.6957577
51
90.0676183
0
ARC
8
DEFAULT_255_1_234
10
23.9576761
20
52.5361716
40
0.3597255
50
89.6804936
51
99.1614436
0
ARC
8
DEFAULT_255_1_234
10
23.9371392
20
52.6589131
40
0.235281
50
98.9830931
51
113.8908934
0
ARC
8
DEFAULT_255_1_234
10
23.9141802
20
52.7130587
40
0.176479
50
114.1950727
51
127.3641004
0
LINE
8
DEFAULT_255_1_234
10
23.186823
20
60.5739663
11
23.3418355
21
60.5739663
0
LINE
8
DEFAULT_255_1_234
10
22.4414777
20
60.7329947
11
22.4414777
21
60.8454391
0
LINE
8
DEFAULT_255_1_234
10
23.3418355
20
60.9964357
11
23.186823
21
60.9964357
0
LINE
8
DEFAULT_255_1_234
10
22.5964902
20
60.8414232
11
22.5964902
21
60.7281757
0
ARC
8
DEFAULT_255_1_234
10
22.7937742
20
60.6336846
40
0.5513052
50
340.1774281
51
353.7814284
0
ARC
8
DEFAULT_255_1_234
10
22.9509095
20
60.5751582
40
0.3836379
50
311.4558989
51
340.4421614
0
ARC
8
DEFAULT_255_1_234
10
22.9475763
20
60.5862528
40
0.3941894
50
282.4333181
51
310.7513653
0
ARC
8
DEFAULT_255_1_234
10
22.9036502
20
60.7677679
40
0.5809175
50
269.9358511
51
282.809604
0
ARC
8
DEFAULT_255_1_234
10
22.8984568
20
60.9135212
40
0.7266847
50
270.0021091
51
270.3581957
0
ARC
8
DEFAULT_255_1_234
10
22.8931985
20
60.6534585
40
0.4666519
50
250.7884749
51
270.6489167
0
ARC
8
DEFAULT_255_1_234
10
22.876382
20
60.5897319
40
0.4009729
50
219.3627325
51
250.0611886
0
ARC
8
DEFAULT_255_1_234
10
22.9593031
20
60.6602042
40
0.5097822
50
193.5479632
51
219.5756669
0
ARC
8
DEFAULT_255_1_234
10
23.1964652
20
60.7217919
40
0.7547848
50
181.1218675
51
193.87563
0
ARC
8
DEFAULT_255_1_234
10
23.4034833
20
60.732858
40
0.9620055
50
179.9918545
51
181.5394234
0
ARC
8
DEFAULT_255_1_234
10
23.2183935
20
60.8491788
40
0.7769248
50
169.5837241
51
180.2757934
0
ARC
8
DEFAULT_255_1_234
10
23.0346873
20
60.8831229
40
0.590109
50
155.0365899
51
169.6003176
0
ARC
8
DEFAULT_255_1_234
10
22.9211337
20
60.9378677
40
0.4640625
50
136.783148
51
155.2472683
0
ARC
8
DEFAULT_255_1_234
10
22.8821814
20
60.9709562
40
0.4130255
50
121.7633186
51
136.428115
0
ARC
8
DEFAULT_255_1_234
10
22.8956776
20
60.9460227
40
0.4413323
50
95.6459699
51
121.5490577
0
ARC
8
DEFAULT_255_1_234
10
22.9114058
20
60.8351949
40
0.55319
50
89.924208
51
96.1377933
0
ARC
8
DEFAULT_255_1_234
10
22.9164491
20
60.8470542
40
0.5413475
50
76.6779277
51
90.4563316
0
ARC
8
DEFAULT_255_1_234
10
22.9558114
20
61.0061114
40
0.3775041
50
47.485847
51
76.9287264
0
ARC
8
DEFAULT_255_1_234
10
22.9411087
20
60.9961159
40
0.3948286
50
16.5424086
51
46.8933463
0
ARC
8
DEFAULT_255_1_234
10
22.7803244
20
60.9432861
40
0.564021
50
5.4072051
51
17.0365086
0
ARC
8
DEFAULT_255_1_234
10
22.6364261
20
60.9201679
40
0.5556559
50
7.8891745
51
15.9239216
0
ARC
8
DEFAULT_255_1_234
10
22.8351274
20
60.9778631
40
0.3487515
50
15.7653144
51
27.9410532
0
ARC
8
DEFAULT_255_1_234
10
22.9455492
20
61.036979
40
0.2235026
50
27.8166557
51
46.4008329
0
ARC
8
DEFAULT_255_1_234
10
22.9505135
20
61.0364082
40
0.2205286
50
47.4371857
51
75.0698205
0
ARC
8
DEFAULT_255_1_234
10
22.9196529
20
60.9289765
40
0.3322915
50
74.7008593
51
87.8124495
0
ARC
8
DEFAULT_255_1_234
10
22.9123217
20
60.8233844
40
0.4380987
50
87.3814673
51
90.0240855
0
ARC
8
DEFAULT_255_1_234
10
22.908476
20
60.9411291
40
0.3203749
50
89.3451631
51
108.5745436
0
ARC
8
DEFAULT_255_1_234
10
22.8947865
20
60.9924908
40
0.2673494
50
109.2998449
51
143.3037509
0
ARC
8
DEFAULT_255_1_234
10
22.9709938
20
60.9338881
40
0.3634757
50
143.0753173
51
163.1916937
0
ARC
8
DEFAULT_255_1_234
10
23.1661666
20
60.8722967
40
0.5681262
50
162.9373603
51
174.6208611
0
ARC
8
DEFAULT_255_1_234
10
23.4287708
20
60.843501
40
0.8322832
50
174.3419979
51
180.1430411
0
ARC
8
DEFAULT_255_1_234
10
23.3356864
20
60.7240698
40
0.7392076
50
179.6817502
51
189.150529
0
ARC
8
DEFAULT_255_1_234
10
23.0856112
20
60.682419
40
0.4856932
50
188.9910863
51
203.5773039
0
ARC
8
DEFAULT_255_1_234
10
22.9776445
20
60.6376211
40
0.3688271
50
203.9077269
51
215.1312379
0
ARC
8
DEFAULT_255_1_234
10
22.8853539
20
60.5660941
40
0.2522457
50
213.9071664
51
263.8849284
0
ARC
8
DEFAULT_255_1_234
10
22.8978868
20
60.6445518
40
0.3316174
50
263.1758525
51
270.1031083
0
ARC
8
DEFAULT_255_1_234
10
22.901096
20
60.7692365
40
0.4563091
50
269.6719807
51
279.0609165
0
ARC
8
DEFAULT_255_1_234
10
22.9277728
20
60.6079907
40
0.2928759
50
278.8750225
51
293.6346586
0
ARC
8
DEFAULT_255_1_234
10
22.9597936
20
60.53279
40
0.2111472
50
293.8553404
51
310.0518804
0
ARC
8
DEFAULT_255_1_234
10
22.960279
20
60.5265516
40
0.2060917
50
311.0646779
51
332.0108348
0
ARC
8
DEFAULT_255_1_234
10
22.8410517
20
60.5922978
40
0.3422352
50
331.6588543
51
343.2878891
0
ARC
8
DEFAULT_255_1_234
10
22.6348032
20
60.6556798
40
0.5580003
50
343.1446044
51
351.010618
0
ARC
8
DEFAULT_255_1_234
10
22.4806678
20
60.6837871
40
0.7146438
50
350.7157277
51
351.1602153
0
LINE
8
DEFAULT_255_1_234
10
23.7008542
20
60.7586963
11
23.5819845
21
60.7892169
0
LINE
8
DEFAULT_255_1_234
10
23.5819845
20
60.7892169
11
23.6414194
21
61.3723211
0
LINE
8
DEFAULT_255_1_234
10
23.6414194
20
61.3723211
11
24.2405871
21
61.3723211
0
LINE
8
DEFAULT_255_1_234
10
24.2405871
20
61.3723211
11
24.2405871
21
61.2349784
0
LINE
8
DEFAULT_255_1_234
10
24.2405871
20
61.2349784
11
23.7675177
21
61.2349784
0
LINE
8
DEFAULT_255_1_234
10
23.7675177
20
61.2349784
11
23.732178
21
60.9161184
0
LINE
8
DEFAULT_255_1_234
10
23.5402195
20
60.5105156
11
23.6807749
21
60.5105156
0
LINE
8
DEFAULT_255_1_234
10
23.7402098
20
60.7908232
11
23.7008542
21
60.7586963
0
ARC
8
DEFAULT_255_1_234
10
23.9176564
20
60.598123
40
0.3681349
50
93.7182161
51
120.2538958
0
ARC
8
DEFAULT_255_1_234
10
23.9270827
20
60.5173394
40
0.449379
50
89.9660152
51
94.2496022
0
ARC
8
DEFAULT_255_1_234
10
23.9311561
20
60.5762549
40
0.390482
50
73.8043271
51
90.5585896
0
ARC
8
DEFAULT_255_1_234
10
23.9546458
20
60.6620602
40
0.3015334
50
41.3071453
51
73.5430202
0
ARC
8
DEFAULT_255_1_234
10
23.9130285
20
60.6262324
40
0.3564457
50
13.5075983
51
41.2174222
0
ARC
8
DEFAULT_255_1_234
10
23.7488489
20
60.5832486
40
0.5261351
50
1.1331335
51
13.8829381
0
ARC
8
DEFAULT_255_1_234
10
23.6076858
20
60.5756665
40
0.6674378
50
359.9919444
51
1.544251
0
ARC
8
DEFAULT_255_1_234
10
23.7353684
20
60.571528
40
0.5397702
50
347.8572367
51
0.4293338
0
ARC
8
DEFAULT_255_1_234
10
23.9104002
20
60.5318736
40
0.3603188
50
323.673004
51
348.1672506
0
ARC
8
DEFAULT_255_1_234
10
23.939851
20
60.5139168
40
0.3259678
50
316.8171152
51
323.1492751
0
ARC
8
DEFAULT_255_1_234
10
23.9459699
20
60.510246
40
0.3189975
50
281.8396411
51
316.5457803
0
ARC
8
DEFAULT_255_1_234
10
23.9083963
20
60.6657762
40
0.4789527
50
269.5770101
51
282.4214771
0
ARC
8
DEFAULT_255_1_234
10
23.9012775
20
60.6444125
40
0.45759
50
256.2427136
51
270.4486331
0
ARC
8
DEFAULT_255_1_234
10
23.8713677
20
60.5244229
40
0.3339303
50
228.9023911
51
256.3314342
0
ARC
8
DEFAULT_255_1_234
10
23.8639909
20
60.5127746
40
0.32031
50
193.753695
51
228.5271154
0
ARC
8
DEFAULT_255_1_234
10
23.9877863
20
60.54908
40
0.4492253
50
184.924711
51
194.497588
0
ARC
8
DEFAULT_255_1_234
10
24.007043
20
60.5526591
40
0.3289787
50
187.3600538
51
198.6732863
0
ARC
8
DEFAULT_255_1_234
10
23.9020724
20
60.5162674
40
0.217884
50
198.4451669
51
217.794479
0
ARC
8
DEFAULT_255_1_234
10
23.8724899
20
60.4953085
40
0.1816698
50
218.2887171
51
228.5612368
0
ARC
8
DEFAULT_255_1_234
10
23.8822686
20
60.5084963
40
0.1980329
50
228.9654866
51
258.1234728
0
ARC
8
DEFAULT_255_1_234
10
23.9028396
20
60.5965833
40
0.2884748
50
257.7258293
51
270.401361
0
ARC
8
DEFAULT_255_1_234
10
23.9073283
20
60.5520821
40
0.2439788
50
269.4204404
51
286.4209037
0
ARC
8
DEFAULT_255_1_234
10
23.922177
20
60.4981657
40
0.1880666
50
286.7251356
51
320.600362
0
ARC
8
DEFAULT_255_1_234
10
23.8838595
20
60.5292595
40
0.2374121
50
320.6712579
51
344.5441685
0
ARC
8
DEFAULT_255_1_234
10
23.7681921
20
60.5632045
40
0.3579479
50
344.2412205
51
356.7357071
0
ARC
8
DEFAULT_255_1_234
10
23.643307
20
60.5735444
40
0.4832297
50
356.3548756
51
0.0500261
0
ARC
8
DEFAULT_255_1_234
10
23.7769579
20
60.576665
40
0.3495889
50
359.5576869
51
12.953486
0
ARC
8
DEFAULT_255_1_234
10
23.8824476
20
60.6022434
40
0.2410532
50
12.6490276
51
41.6081334
0
ARC
8
DEFAULT_255_1_234
10
23.9054847
20
60.6218321
40
0.2108218
50
41.7850273
51
85.9892764
0
ARC
8
DEFAULT_255_1_234
10
23.8931584
20
60.5405462
40
0.2928454
50
84.6957577
51
90.0676183
0
ARC
8
DEFAULT_255_1_234
10
23.8908068
20
60.4736716
40
0.3597255
50
89.6804936
51
99.1614436
0
ARC
8
DEFAULT_255_1_234
10
23.8702699
20
60.5964131
40
0.235281
50
98.9830931
51
113.8908934
0
ARC
8
DEFAULT_255_1_234
10
23.8473109
20
60.6505587
40
0.176479
50
114.1950727
51
127.3641004
0
LINE
8
DEFAULT_255_1_234
10
23.9961628
20
69.3098211
11
23.9961628
21
68.533152
0
LINE
8
DEFAULT_255_1_234
10
23.9961628
20
68.533152
11
24.1584039
21
68.533152
0
LINE
8
DEFAULT_255_1_234
10
24.1584039
20
68.533152
11
24.1584039
21
68.4118728
0
LINE
8
DEFAULT_255_1_234
10
24.1584039
20
68.4118728
11
23.9961628
21
68.4118728
0
LINE
8
DEFAULT_255_1_234
10
23.9961628
20
68.4118728
11
23.9961628
21
68.1404
0
LINE
8
DEFAULT_255_1_234
10
23.9961628
20
68.1404
11
23.8467725
21
68.1404
0
LINE
8
DEFAULT_255_1_234
10
23.8467725
20
68.1404
11
23.8467725
21
68.4118728
0
LINE
8
DEFAULT_255_1_234
10
23.8467725
20
68.4118728
11
23.3142682
21
68.4118728
0
LINE
8
DEFAULT_255_1_234
10
23.3142682
20
68.4118728
11
23.3142682
21
68.4994187
0
LINE
8
DEFAULT_255_1_234
10
23.3142682
20
68.4994187
11
23.8379375
21
69.3098211
0
LINE
8
DEFAULT_255_1_234
10
23.8379375
20
69.3098211
11
23.9961628
21
69.3098211
0
LINE
8
DEFAULT_255_1_234
10
23.8291026
20
69.0744912
11
23.4829347
21
68.533152
0
LINE
8
DEFAULT_255_1_234
10
23.4829347
20
68.533152
11
23.8467725
21
68.533152
0
LINE
8
DEFAULT_255_1_234
10
23.8467725
20
68.533152
11
23.8467725
21
69.1066181
0
LINE
8
DEFAULT_255_1_234
10
23.8467725
20
69.1066181
11
23.8291026
21
69.0744912
0
LINE
8
DEFAULT_255_1_234
10
23.081023
20
76.4489663
11
23.2360355
21
76.4489663
0
LINE
8
DEFAULT_255_1_234
10
22.3356777
20
76.6079947
11
22.3356777
21
76.7204391
0
LINE
8
DEFAULT_255_1_234
10
23.2360355
20
76.8714357
11
23.081023
21
76.8714357
0
LINE
8
DEFAULT_255_1_234
10
22.4906902
20
76.7164232
11
22.4906902
21
76.6031757
0
ARC
8
DEFAULT_255_1_234
10
22.6879742
20
76.5086846
40
0.5513052
50
340.1774281
51
353.7814284
0
ARC
8
DEFAULT_255_1_234
10
22.8451095
20
76.4501582
40
0.3836379
50
311.4558989
51
340.4421614
0
ARC
8
DEFAULT_255_1_234
10
22.8417763
20
76.4612528
40
0.3941894
50
282.4333181
51
310.7513653
0
ARC
8
DEFAULT_255_1_234
10
22.7978502
20
76.6427679
40
0.5809175
50
269.9358511
51
282.809604
0
ARC
8
DEFAULT_255_1_234
10
22.7926568
20
76.7885212
40
0.7266847
50
270.0021091
51
270.3581957
0
ARC
8
DEFAULT_255_1_234
10
22.7873985
20
76.5284585
40
0.4666519
50
250.7884749
51
270.6489167
0
ARC
8
DEFAULT_255_1_234
10
22.770582
20
76.4647319
40
0.4009729
50
219.3627325
51
250.0611886
0
ARC
8
DEFAULT_255_1_234
10
22.8535031
20
76.5352042
40
0.5097822
50
193.5479632
51
219.5756669
0
ARC
8
DEFAULT_255_1_234
10
23.0906652
20
76.5967919
40
0.7547848
50
181.1218675
51
193.87563
0
ARC
8
DEFAULT_255_1_234
10
23.2976833
20
76.607858
40
0.9620055
50
179.9918545
51
181.5394234
0
ARC
8
DEFAULT_255_1_234
10
23.1125935
20
76.7241788
40
0.7769248
50
169.5837241
51
180.2757934
0
ARC
8
DEFAULT_255_1_234
10
22.9288873
20
76.7581229
40
0.590109
50
155.0365899
51
169.6003176
0
ARC
8
DEFAULT_255_1_234
10
22.8153337
20
76.8128677
40
0.4640625
50
136.783148
51
155.2472683
0
ARC
8
DEFAULT_255_1_234
10
22.7763814
20
76.8459562
40
0.4130255
50
121.7633186
51
136.428115
0
ARC
8
DEFAULT_255_1_234
10
22.7898776
20
76.8210227
40
0.4413323
50
95.6459699
51
121.5490577
0
ARC
8
DEFAULT_255_1_234
10
22.8056058
20
76.7101949
40
0.55319
50
89.924208
51
96.1377933
0
ARC
8
DEFAULT_255_1_234
10
22.8106491
20
76.7220542
40
0.5413475
50
76.6779277
51
90.4563316
0
ARC
8
DEFAULT_255_1_234
10
22.8500114
20
76.8811114
40
0.3775041
50
47.485847
51
76.9287264
0
ARC
8
DEFAULT_255_1_234
10
22.8353087
20
76.8711159
40
0.3948286
50
16.5424086
51
46.8933463
0
ARC
8
DEFAULT_255_1_234
10
22.6745244
20
76.8182861
40
0.564021
50
5.4072051
51
17.0365086
0
ARC
8
DEFAULT_255_1_234
10
22.5306261
20
76.7951679
40
0.5556559
50
7.8891745
51
15.9239216
0
ARC
8
DEFAULT_255_1_234
10
22.7293274
20
76.8528631
40
0.3487515
50
15.7653144
51
27.9410532
0
ARC
8
DEFAULT_255_1_234
10
22.8397492
20
76.911979
40
0.2235026
50
27.8166557
51
46.4008329
0
ARC
8
DEFAULT_255_1_234
10
22.8447135
20
76.9114082
40
0.2205286
50
47.4371857
51
75.0698205
0
ARC
8
DEFAULT_255_1_234
10
22.8138529
20
76.8039765
40
0.3322915
50
74.7008593
51
87.8124495
0
ARC
8
DEFAULT_255_1_234
10
22.8065217
20
76.6983844
40
0.4380987
50
87.3814673
51
90.0240855
0
ARC
8
DEFAULT_255_1_234
10
22.802676
20
76.8161291
40
0.3203749
50
89.3451631
51
108.5745436
0
ARC
8
DEFAULT_255_1_234
10
22.7889865
20
76.8674908
40
0.2673494
50
109.2998449
51
143.3037509
0
ARC
8
DEFAULT_255_1_234
10
22.8651938
20
76.8088881
40
0.3634757
50
143.0753173
51
163.1916937
0
ARC
8
DEFAULT_255_1_234
10
23.0603666
20
76.7472967
40
0.5681262
50
162.9373603
51
174.6208611
0
ARC
8
DEFAULT_255_1_234
10
23.3229708
20
76.718501
40
0.8322832
50
174.3419979
51
180.1430411
0
ARC
8
DEFAULT_255_1_234
10
23.2298864
20
76.5990698
40
0.7392076
50
179.6817502
51
189.150529
0
ARC
8
DEFAULT_255_1_234
10
22.9798112
20
76.557419
40
0.4856932
50
188.9910863
51
203.5773039
0
ARC
8
DEFAULT_255_1_234
10
22.8718445
20
76.5126211
40
0.3688271
50
203.9077269
51
215.1312379
0
ARC
8
DEFAULT_255_1_234
10
22.7795539
20
76.4410941
40
0.2522457
50
213.9071664
51
263.8849284
0
ARC
8
DEFAULT_255_1_234
10
22.7920868
20
76.5195518
40
0.3316174
50
263.1758525
51
270.1031083
0
ARC
8
DEFAULT_255_1_234
10
22.795296
20
76.6442365
40
0.4563091
50
269.6719807
51
279.0609165
0
ARC
8
DEFAULT_255_1_234
10
22.8219728
20
76.4829907
40
0.2928759
50
278.8750225
51
293.6346586
0
ARC
8
DEFAULT_255_1_234
10
22.8539936
20
76.40779
40
0.2111472
50
293.8553404
51
310.0518804
0
ARC
8
DEFAULT_255_1_234
10
22.854479
20
76.4015516
40
0.2060917
50
311.0646779
51
332.0108348
0
ARC
8
DEFAULT_255_1_234
10
22.7352517
20
76.4672978
40
0.3422352
50
331.6588543
51
343.2878891
0
ARC
8
DEFAULT_255_1_234
10
22.5290032
20
76.5306798
40
0.5580003
50
343.1446044
51
351.010618
0
ARC
8
DEFAULT_255_1_234
10
22.3748678
20
76.5587871
40
0.7146438
50
350.7157277
51
351.1602153
0
LINE
8
DEFAULT_255_1_234
10
24.0351935
20
77.2473211
11
24.0351935
21
76.470652
0
LINE
8
DEFAULT_255_1_234
10
24.0351935
20
76.470652
11
24.1974346
21
76.470652
0
LINE
8
DEFAULT_255_1_234
10
24.1974346
20
76.470652
11
24.1974346
21
76.3493728
0
LINE
8
DEFAULT_255_1_234
10
24.1974346
20
76.3493728
11
24.0351935
21
76.3493728
0
LINE
8
DEFAULT_255_1_234
10
24.0351935
20
76.3493728
11
24.0351935
21
76.0779
0
LINE
8
DEFAULT_255_1_234
10
24.0351935
20
76.0779
11
23.8858032
21
76.0779
0
LINE
8
DEFAULT_255_1_234
10
23.8858032
20
76.0779
11
23.8858032
21
76.3493728
0
LINE
8
DEFAULT_255_1_234
10
23.8858032
20
76.3493728
11
23.3532989
21
76.3493728
0
LINE
8
DEFAULT_255_1_234
10
23.3532989
20
76.3493728
11
23.3532989
21
76.4369187
0
LINE
8
DEFAULT_255_1_234
10
23.3532989
20
76.4369187
11
23.8769683
21
77.2473211
0
LINE
8
DEFAULT_255_1_234
10
23.8769683
20
77.2473211
11
24.0351935
21
77.2473211
0
LINE
8
DEFAULT_255_1_234
10
23.8681333
20
77.0119912
11
23.5219654
21
76.470652
0
LINE
8
DEFAULT_255_1_234
10
23.5219654
20
76.470652
11
23.8858032
21
76.470652
0
LINE
8
DEFAULT_255_1_234
10
23.8858032
20
76.470652
11
23.8858032
21
77.0441181
0
LINE
8
DEFAULT_255_1_234
10
23.8858032
20
77.0441181
11
23.8681333
21
77.0119912
0
LINE
8
DEFAULT_255_1_234
10
23.7966378
20
84.5511169
11
23.7966378
21
84.6723962
0
LINE
8
DEFAULT_255_1_234
10
23.7966378
20
84.6723962
11
23.908279
21
84.6723962
0
LINE
8
DEFAULT_255_1_234
10
23.7179268
20
84.8780087
11
23.5693396
21
84.8780087
0
LINE
8
DEFAULT_255_1_234
10
23.5588983
20
84.3238188
11
23.7082887
21
84.3238188
0
LINE
8
DEFAULT_255_1_234
10
23.908279
20
84.5511169
11
23.7966378
21
84.5511169
0
ARC
8
DEFAULT_255_1_234
10
23.9053656
20
85.0116713
40
0.3392876
50
270.4919872
51
281.8951556
0
ARC
8
DEFAULT_255_1_234
10
23.9294918
20
84.9014702
40
0.2264817
50
281.6691735
51
301.2943132
0
ARC
8
DEFAULT_255_1_234
10
23.9465128
20
84.8703304
40
0.1910381
50
301.7833094
51
311.7545298
0
ARC
8
DEFAULT_255_1_234
10
23.9556704
20
84.8601748
40
0.1773635
50
311.7323931
51
354.2802411
0
ARC
8
DEFAULT_255_1_234
10
23.8830329
20
84.8726722
40
0.2509385
50
353.0937916
51
0.1181479
0
ARC
8
DEFAULT_255_1_234
10
23.8369114
20
84.8774386
40
0.2970898
50
359.1805295
51
15.0453146
0
ARC
8
DEFAULT_255_1_234
10
23.9714951
20
84.9166992
40
0.1569564
50
13.9577229
51
77.6713066
0
ARC
8
DEFAULT_255_1_234
10
23.932848
20
84.7781949
40
0.3006298
50
76.1116566
51
90.7026153
0
ARC
8
DEFAULT_255_1_234
10
23.9269318
20
84.8055545
40
0.2732568
50
89.5324876
51
103.531937
0
ARC
8
DEFAULT_255_1_234
10
23.9068762
20
84.8854884
40
0.1908508
50
103.2931773
51
133.5619022
0
ARC
8
DEFAULT_255_1_234
10
23.9024251
20
84.8914375
40
0.1834746
50
133.8349307
51
173.5344437
0
ARC
8
DEFAULT_255_1_234
10
23.9747294
20
84.8786213
40
0.2568033
50
172.5096846
51
180.1366907
0
ARC
8
DEFAULT_255_1_234
10
23.8796188
20
84.8820622
40
0.3103056
50
155.3484492
51
180.7484736
0
ARC
8
DEFAULT_255_1_234
10
23.8747277
20
84.8791846
40
0.3070957
50
131.5744599
51
154.4798489
0
ARC
8
DEFAULT_255_1_234
10
23.9060424
20
84.847531
40
0.3515643
50
96.9875458
51
131.9690667
0
ARC
8
DEFAULT_255_1_234
10
23.9279904
20
84.7229636
40
0.4779224
50
89.8596053
51
97.7825159
0
ARC
8
DEFAULT_255_1_234
10
23.9327967
20
84.6967616
40
0.5041361
50
78.3655447
51
90.4131539
0
ARC
8
DEFAULT_255_1_234
10
23.9685885
20
84.8626887
40
0.3344039
50
56.6229102
51
78.638727
0
ARC
8
DEFAULT_255_1_234
10
23.9900829
20
84.9002805
40
0.2912001
50
47.0253525
51
56.0854072
0
ARC
8
DEFAULT_255_1_234
10
23.9920609
20
84.9042223
40
0.2869704
50
10.9208013
51
46.7778124
0
ARC
8
DEFAULT_255_1_234
10
23.8556675
20
84.8726857
40
0.426899
50
359.6364486
51
11.6087304
0
ARC
8
DEFAULT_255_1_234
10
24.0391519
20
84.8711752
40
0.243409
50
332.3549906
51
359.7179418
0
ARC
8
DEFAULT_255_1_234
10
23.9741121
20
84.9020142
40
0.3153459
50
325.2333722
51
332.8745602
0
ARC
8
DEFAULT_255_1_234
10
23.9893744
20
84.8913828
40
0.2967456
50
292.9802137
51
325.2392345
0
ARC
8
DEFAULT_255_1_234
10
23.9619118
20
84.9447863
40
0.3566604
50
292.5402179
51
293.6924929
0
ARC
8
DEFAULT_255_1_234
10
24.0011714
20
84.2993091
40
0.3307468
50
57.6435486
51
72.8625112
0
ARC
8
DEFAULT_255_1_234
10
24.0366214
20
84.3567549
40
0.2632492
50
36.7248896
51
57.4697979
0
ARC
8
DEFAULT_255_1_234
10
24.0354847
20
84.358022
40
0.2634081
50
8.0545065
51
36.356114
0
ARC
8
DEFAULT_255_1_234
10
23.9492032
20
84.3425174
40
0.3510261
50
359.8320645
51
8.5869982
0
ARC
8
DEFAULT_255_1_234
10
23.9116808
20
84.3377101
40
0.3885653
50
343.9829931
51
0.5571613
0
ARC
8
DEFAULT_255_1_234
10
24.0003005
20
84.3134438
40
0.2966924
50
311.6359546
51
343.7651759
0
ARC
8
DEFAULT_255_1_234
10
23.9624574
20
84.3561102
40
0.3537231
50
279.7829875
51
311.6255694
0
ARC
8
DEFAULT_255_1_234
10
23.9323351
20
84.499828
40
0.5004971
50
269.7286406
51
280.3856417
0
ARC
8
DEFAULT_255_1_234
10
23.9261423
20
84.4956996
40
0.4963778
50
256.6828919
51
270.4412052
0
ARC
8
DEFAULT_255_1_234
10
23.8922719
20
84.3572394
40
0.3538406
50
229.4223008
51
256.8556159
0
ARC
8
DEFAULT_255_1_234
10
23.8508112
20
84.3105736
40
0.2914296
50
181.818294
51
229.6455059
0
ARC
8
DEFAULT_255_1_234
10
23.9548068
20
84.3236496
40
0.3959084
50
179.9755256
51
183.2323064
0
ARC
8
DEFAULT_255_1_234
10
23.9375814
20
84.3216037
40
0.2293034
50
179.4465117
51
196.2869258
0
ARC
8
DEFAULT_255_1_234
10
23.8888222
20
84.3082651
40
0.1787621
50
196.5661473
51
227.705904
0
ARC
8
DEFAULT_255_1_234
10
23.9052317
20
84.3266155
40
0.2033784
50
227.7652068
51
257.8762805
0
ARC
8
DEFAULT_255_1_234
10
23.9277287
20
84.4209156
40
0.3003081
50
257.4584385
51
270.426602
0
ARC
8
DEFAULT_255_1_234
10
23.9322853
20
84.4498996
40
0.329292
50
269.5962073
51
280.8789248
0
ARC
8
DEFAULT_255_1_234
10
23.9552382
20
84.3352685
40
0.2123908
50
280.6346389
51
299.8595945
0
ARC
8
DEFAULT_255_1_234
10
23.9743289
20
84.2990212
40
0.171457
50
300.3576302
51
314.5517981
0
ARC
8
DEFAULT_255_1_234
10
23.9660349
20
84.3050919
40
0.1816095
50
315.0728369
51
345.0431014
0
ARC
8
DEFAULT_255_1_234
10
23.8737163
20
84.3319841
40
0.2777492
50
344.5986631
51
357.9269593
0
ARC
8
DEFAULT_255_1_234
10
23.7841489
20
84.3381276
40
0.3674917
50
357.4748886
51
0.0231117
0
ARC
8
DEFAULT_255_1_234
10
23.8864599
20
84.3405679
40
0.2651907
50
359.5047933
51
13.4239635
0
ARC
8
DEFAULT_255_1_234
10
23.9731242
20
84.3627478
40
0.1757509
50
12.9498199
51
48.7551375
0
ARC
8
DEFAULT_255_1_234
10
23.9548976
20
84.33784
40
0.2065134
50
49.5088623
51
72.1836453
0
ARC
8
DEFAULT_255_1_234
10
23.9191129
20
84.2316291
40
0.3185836
50
71.9010081
51
84.3554254
0
ARC
8
DEFAULT_255_1_234
10
23.9029761
20
84.0955326
40
0.4556151
50
84.0193428
51
89.333121
0
LINE
8
DEFAULT_255_1_234
10
23.186823
20
92.3239663
11
23.3418355
21
92.3239663
0
LINE
8
DEFAULT_255_1_234
10
22.4414777
20
92.4829947
11
22.4414777
21
92.5954391
0
LINE
8
DEFAULT_255_1_234
10
23.3418355
20
92.7464357
11
23.186823
21
92.7464357
0
LINE
8
DEFAULT_255_1_234
10
22.5964902
20
92.5914232
11
22.5964902
21
92.4781757
0
ARC
8
DEFAULT_255_1_234
10
22.7937742
20
92.3836846
40
0.5513052
50
340.1774281
51
353.7814284
0
ARC
8
DEFAULT_255_1_234
10
22.9509095
20
92.3251582
40
0.3836379
50
311.4558989
51
340.4421614
0
ARC
8
DEFAULT_255_1_234
10
22.9475763
20
92.3362528
40
0.3941894
50
282.4333181
51
310.7513653
0
ARC
8
DEFAULT_255_1_234
10
22.9036502
20
92.5177679
40
0.5809175
50
269.9358511
51
282.809604
0
ARC
8
DEFAULT_255_1_234
10
22.8984568
20
92.6635212
40
0.7266847
50
270.0021091
51
270.3581957
0
ARC
8
DEFAULT_255_1_234
10
22.8931985
20
92.4034585
40
0.4666519
50
250.7884749
51
270.6489167
0
ARC
8
DEFAULT_255_1_234
10
22.876382
20
92.3397319
40
0.4009729
50
219.3627325
51
250.0611886
0
ARC
8
DEFAULT_255_1_234
10
22.9593031
20
92.4102042
40
0.5097822
50
193.5479632
51
219.5756669
0
ARC
8
DEFAULT_255_1_234
10
23.1964652
20
92.4717919
40
0.7547848
50
181.1218675
51
193.87563
0
ARC
8
DEFAULT_255_1_234
10
23.4034833
20
92.482858
40
0.9620055
50
179.9918545
51
181.5394234
0
ARC
8
DEFAULT_255_1_234
10
23.2183935
20
92.5991788
40
0.7769248
50
169.5837241
51
180.2757934
0
ARC
8
DEFAULT_255_1_234
10
23.0346873
20
92.6331229
40
0.590109
50
155.0365899
51
169.6003176
0
ARC
8
DEFAULT_255_1_234
10
22.9211337
20
92.6878677
40
0.4640625
50
136.783148
51
155.2472683
0
ARC
8
DEFAULT_255_1_234
10
22.8821814
20
92.7209562
40
0.4130255
50
121.7633186
51
136.428115
0
ARC
8
DEFAULT_255_1_234
10
22.8956776
20
92.6960227
40
0.4413323
50
95.6459699
51
121.5490577
0
ARC
8
DEFAULT_255_1_234
10
22.9114058
20
92.5851949
40
0.55319
50
89.924208
51
96.1377933
0
ARC
8
DEFAULT_255_1_234
10
22.9164491
20
92.5970542
40
0.5413475
50
76.6779277
51
90.4563316
0
ARC
8
DEFAULT_255_1_234
10
22.9558114
20
92.7561114
40
0.3775041
50
47.485847
51
76.9287264
0
ARC
8
DEFAULT_255_1_234
10
22.9411087
20
92.7461159
40
0.3948286
50
16.5424086
51
46.8933463
0
ARC
8
DEFAULT_255_1_234
10
22.7803244
20
92.6932861
40
0.564021
50
5.4072051
51
17.0365086
0
ARC
8
DEFAULT_255_1_234
10
22.6364261
20
92.6701679
40
0.5556559
50
7.8891745
51
15.9239216
0
ARC
8
DEFAULT_255_1_234
10
22.8351274
20
92.7278631
40
0.3487515
50
15.7653144
51
27.9410532
0
ARC
8
DEFAULT_255_1_234
10
22.9455492
20
92.786979
40
0.2235026
50
27.8166557
51
46.4008329
0
ARC
8
DEFAULT_255_1_234
10
22.9505135
20
92.7864082
40
0.2205286
50
47.4371857
51
75.0698205
0
ARC
8
DEFAULT_255_1_234
10
22.9196529
20
92.6789765
40
0.3322915
50
74.7008593
51
87.8124495
0
ARC
8
DEFAULT_255_1_234
10
22.9123217
20
92.5733844
40
0.4380987
50
87.3814673
51
90.0240855
0
ARC
8
DEFAULT_255_1_234
10
22.908476
20
92.6911291
40
0.3203749
50
89.3451631
51
108.5745436
0
ARC
8
DEFAULT_255_1_234
10
22.8947865
20
92.7424908
40
0.2673494
50
109.2998449
51
143.3037509
0
ARC
8
DEFAULT_255_1_234
10
22.9709938
20
92.6838881
40
0.3634757
50
143.0753173
51
163.1916937
0
ARC
8
DEFAULT_255_1_234
10
23.1661666
20
92.6222967
40
0.5681262
50
162.9373603
51
174.6208611
0
ARC
8
DEFAULT_255_1_234
10
23.4287708
20
92.593501
40
0.8322832
50
174.3419979
51
180.1430411
0
ARC
8
DEFAULT_255_1_234
10
23.3356864
20
92.4740698
40
0.7392076
50
179.6817502
51
189.150529
0
ARC
8
DEFAULT_255_1_234
10
23.0856112
20
92.432419
40
0.4856932
50
188.9910863
51
203.5773039
0
ARC
8
DEFAULT_255_1_234
10
22.9776445
20
92.3876211
40
0.3688271
50
203.9077269
51
215.1312379
0
ARC
8
DEFAULT_255_1_234
10
22.8853539
20
92.3160941
40
0.2522457
50
213.9071664
51
263.8849284
0
ARC
8
DEFAULT_255_1_234
10
22.8978868
20
92.3945518
40
0.3316174
50
263.1758525
51
270.1031083
0
ARC
8
DEFAULT_255_1_234
10
22.901096
20
92.5192365
40
0.4563091
50
269.6719807
51
279.0609165
0
ARC
8
DEFAULT_255_1_234
10
22.9277728
20
92.3579907
40
0.2928759
50
278.8750225
51
293.6346586
0
ARC
8
DEFAULT_255_1_234
10
22.9597936
20
92.28279
40
0.2111472
50
293.8553404
51
310.0518804
0
ARC
8
DEFAULT_255_1_234
10
22.960279
20
92.2765516
40
0.2060917
50
311.0646779
51
332.0108348
0
ARC
8
DEFAULT_255_1_234
10
22.8410517
20
92.3422978
40
0.3422352
50
331.6588543
51
343.2878891
0
ARC
8
DEFAULT_255_1_234
10
22.6348032
20
92.4056798
40
0.5580003
50
343.1446044
51
351.010618
0
ARC
8
DEFAULT_255_1_234
10
22.4806678
20
92.4337871
40
0.7146438
50
350.7157277
51
351.1602153
0
LINE
8
DEFAULT_255_1_234
10
23.7297685
20
92.4886169
11
23.7297685
21
92.6098962
0
LINE
8
DEFAULT_255_1_234
10
23.7297685
20
92.6098962
11
23.8414097
21
92.6098962
0
LINE
8
DEFAULT_255_1_234
10
23.6510575
20
92.8155087
11
23.5024703
21
92.8155087
0
LINE
8
DEFAULT_255_1_234
10
23.4920291
20
92.2613188
11
23.6414194
21
92.2613188
0
LINE
8
DEFAULT_255_1_234
10
23.8414097
20
92.4886169
11
23.7297685
21
92.4886169
0
ARC
8
DEFAULT_255_1_234
10
23.8384963
20
92.9491713
40
0.3392876
50
270.4919872
51
281.8951556
0
ARC
8
DEFAULT_255_1_234
10
23.8626225
20
92.8389702
40
0.2264817
50
281.6691735
51
301.2943132
0
ARC
8
DEFAULT_255_1_234
10
23.8796435
20
92.8078304
40
0.1910381
50
301.7833094
51
311.7545298
0
ARC
8
DEFAULT_255_1_234
10
23.8888011
20
92.7976748
40
0.1773635
50
311.7323931
51
354.2802411
0
ARC
8
DEFAULT_255_1_234
10
23.8161636
20
92.8101722
40
0.2509385
50
353.0937916
51
0.1181479
0
ARC
8
DEFAULT_255_1_234
10
23.7700421
20
92.8149386
40
0.2970898
50
359.1805295
51
15.0453146
0
ARC
8
DEFAULT_255_1_234
10
23.9046258
20
92.8541992
40
0.1569564
50
13.9577229
51
77.6713066
0
ARC
8
DEFAULT_255_1_234
10
23.8659787
20
92.7156949
40
0.3006298
50
76.1116566
51
90.7026153
0
ARC
8
DEFAULT_255_1_234
10
23.8600625
20
92.7430545
40
0.2732568
50
89.5324876
51
103.531937
0
ARC
8
DEFAULT_255_1_234
10
23.840007
20
92.8229884
40
0.1908508
50
103.2931773
51
133.5619022
0
ARC
8
DEFAULT_255_1_234
10
23.8355558
20
92.8289375
40
0.1834746
50
133.8349307
51
173.5344437
0
ARC
8
DEFAULT_255_1_234
10
23.9078601
20
92.8161213
40
0.2568033
50
172.5096846
51
180.1366907
0
ARC
8
DEFAULT_255_1_234
10
23.8127495
20
92.8195622
40
0.3103056
50
155.3484492
51
180.7484736
0
ARC
8
DEFAULT_255_1_234
10
23.8078584
20
92.8166846
40
0.3070957
50
131.5744599
51
154.4798489
0
ARC
8
DEFAULT_255_1_234
10
23.8391731
20
92.785031
40
0.3515643
50
96.9875458
51
131.9690667
0
ARC
8
DEFAULT_255_1_234
10
23.8611211
20
92.6604636
40
0.4779224
50
89.8596053
51
97.7825159
0
ARC
8
DEFAULT_255_1_234
10
23.8659274
20
92.6342616
40
0.5041361
50
78.3655447
51
90.4131539
0
ARC
8
DEFAULT_255_1_234
10
23.9017192
20
92.8001887
40
0.3344039
50
56.6229102
51
78.638727
0
ARC
8
DEFAULT_255_1_234
10
23.9232136
20
92.8377805
40
0.2912001
50
47.0253525
51
56.0854072
0
ARC
8
DEFAULT_255_1_234
10
23.9251916
20
92.8417223
40
0.2869704
50
10.9208013
51
46.7778124
0
ARC
8
DEFAULT_255_1_234
10
23.7887982
20
92.8101857
40
0.426899
50
359.6364486
51
11.6087304
0
ARC
8
DEFAULT_255_1_234
10
23.9722827
20
92.8086752
40
0.243409
50
332.3549906
51
359.7179418
0
ARC
8
DEFAULT_255_1_234
10
23.9072428
20
92.8395142
40
0.3153459
50
325.2333722
51
332.8745602
0
ARC
8
DEFAULT_255_1_234
10
23.9225052
20
92.8288828
40
0.2967456
50
292.9802137
51
325.2392345
0
ARC
8
DEFAULT_255_1_234
10
23.8950426
20
92.8822863
40
0.3566604
50
292.5402179
51
293.6924929
0
ARC
8
DEFAULT_255_1_234
10
23.9343021
20
92.2368091
40
0.3307468
50
57.6435486
51
72.8625112
0
ARC
8
DEFAULT_255_1_234
10
23.9697521
20
92.2942549
40
0.2632492
50
36.7248896
51
57.4697979
0
ARC
8
DEFAULT_255_1_234
10
23.9686154
20
92.295522
40
0.2634081
50
8.0545065
51
36.356114
0
ARC
8
DEFAULT_255_1_234
10
23.8823339
20
92.2800174
40
0.3510261
50
359.8320645
51
8.5869982
0
ARC
8
DEFAULT_255_1_234
10
23.8448115
20
92.2752101
40
0.3885653
50
343.9829931
51
0.5571613
0
ARC
8
DEFAULT_255_1_234
10
23.9334313
20
92.2509438
40
0.2966924
50
311.6359546
51
343.7651759
0
ARC
8
DEFAULT_255_1_234
10
23.8955882
20
92.2936102
40
0.3537231
50
279.7829875
51
311.6255694
0
ARC
8
DEFAULT_255_1_234
10
23.8654658
20
92.437328
40
0.5004971
50
269.7286406
51
280.3856417
0
ARC
8
DEFAULT_255_1_234
10
23.8592731
20
92.4331996
40
0.4963778
50
256.6828919
51
270.4412052
0
ARC
8
DEFAULT_255_1_234
10
23.8254026
20
92.2947394
40
0.3538406
50
229.4223008
51
256.8556159
0
ARC
8
DEFAULT_255_1_234
10
23.7839419
20
92.2480736
40
0.2914296
50
181.818294
51
229.6455059
0
ARC
8
DEFAULT_255_1_234
10
23.8879375
20
92.2611496
40
0.3959084
50
179.9755256
51
183.2323064
0
ARC
8
DEFAULT_255_1_234
10
23.8707121
20
92.2591037
40
0.2293034
50
179.4465117
51
196.2869258
0
ARC
8
DEFAULT_255_1_234
10
23.8219529
20
92.2457651
40
0.1787621
50
196.5661473
51
227.705904
0
ARC
8
DEFAULT_255_1_234
10
23.8383624
20
92.2641155
40
0.2033784
50
227.7652068
51
257.8762805
0
ARC
8
DEFAULT_255_1_234
10
23.8608594
20
92.3584156
40
0.3003081
50
257.4584385
51
270.426602
0
ARC
8
DEFAULT_255_1_234
10
23.865416
20
92.3873996
40
0.329292
50
269.5962073
51
280.8789248
0
ARC
8
DEFAULT_255_1_234
10
23.8883689
20
92.2727685
40
0.2123908
50
280.6346389
51
299.8595945
0
ARC
8
DEFAULT_255_1_234
10
23.9074596
20
92.2365212
40
0.171457
50
300.3576302
51
314.5517981
0
ARC
8
DEFAULT_255_1_234
10
23.8991656
20
92.2425919
40
0.1816095
50
315.0728369
51
345.0431014
0
ARC
8
DEFAULT_255_1_234
10
23.806847
20
92.2694841
40
0.2777492
50
344.5986631
51
357.9269593
0
ARC
8
DEFAULT_255_1_234
10
23.7172797
20
92.2756276
40
0.3674917
50
357.4748886
51
0.0231117
0
ARC
8
DEFAULT_255_1_234
10
23.8195906
20
92.2780679
40
0.2651907
50
359.5047933
51
13.4239635
0
ARC
8
DEFAULT_255_1_234
10
23.906255
20
92.3002478
40
0.1757509
50
12.9498199
51
48.7551375
0
ARC
8
DEFAULT_255_1_234
10
23.8880284
20
92.27534
40
0.2065134
50
49.5088623
51
72.1836453
0
ARC
8
DEFAULT_255_1_234
10
23.8522436
20
92.1691291
40
0.3185836
50
71.9010081
51
84.3554254
0
ARC
8
DEFAULT_255_1_234
10
23.8361068
20
92.0330326
40
0.4556151
50
84.0193428
51
89.333121
0
LINE
8
DEFAULT_255_1_234
10
24.3468119
20
100.0116792
11
24.3468119
21
99.8904
0
LINE
8
DEFAULT_255_1_234
10
24.3468119
20
99.8904
11
23.580584
21
99.8904
0
LINE
8
DEFAULT_255_1_234
10
23.580584
20
99.8904
11
23.580584
21
99.9972221
0
LINE
8
DEFAULT_255_1_234
10
23.580584
20
99.9972221
11
23.9853836
21
100.4469995
0
LINE
8
DEFAULT_255_1_234
10
23.7066823
20
100.7152595
11
23.5580952
21
100.7152595
0
LINE
8
DEFAULT_255_1_234
10
24.0729296
20
100.3514218
11
23.7596918
21
100.0116792
0
LINE
8
DEFAULT_255_1_234
10
23.7596918
20
100.0116792
11
24.3468119
21
100.0116792
0
ARC
8
DEFAULT_255_1_234
10
22.636367
20
101.6399527
40
1.8008286
50
318.5132453
51
320.7828378
0
ARC
8
DEFAULT_255_1_234
10
23.1650644
20
101.2096426
40
1.1191493
50
320.7372736
51
323.9737074
0
ARC
8
DEFAULT_255_1_234
10
23.5570501
20
100.9256361
40
0.6350923
50
323.8961724
51
328.6421089
0
ARC
8
DEFAULT_255_1_234
10
23.7617096
20
100.7994031
40
0.3946393
50
328.8299013
51
331.789948
0
ARC
8
DEFAULT_255_1_234
10
23.8614274
20
100.7479509
40
0.2824501
50
331.4255242
51
352.9364833
0
ARC
8
DEFAULT_255_1_234
10
23.8750775
20
100.7448976
40
0.2685315
50
353.2248685
51
0.0169286
0
ARC
8
DEFAULT_255_1_234
10
23.8960652
20
100.747195
40
0.2475536
50
359.4866256
51
15.9339782
0
ARC
8
DEFAULT_255_1_234
10
23.9467637
20
100.7608286
40
0.1950618
50
16.1714718
51
43.5284424
0
ARC
8
DEFAULT_255_1_234
10
23.9544946
20
100.7685573
40
0.184134
50
43.4415429
51
83.1661404
0
ARC
8
DEFAULT_255_1_234
10
23.9410864
20
100.6948771
40
0.258926
50
82.160215
51
90.1505798
0
ARC
8
DEFAULT_255_1_234
10
23.9379291
20
100.6411865
40
0.3126255
50
89.5460705
51
102.5418777
0
ARC
8
DEFAULT_255_1_234
10
23.9136377
20
100.7442665
40
0.2067346
50
102.1739365
51
129.2061916
0
ARC
8
DEFAULT_255_1_234
10
23.9057449
20
100.7567094
40
0.1921118
50
129.7279328
51
135.7542026
0
ARC
8
DEFAULT_255_1_234
10
23.9178977
20
100.7470045
40
0.2075944
50
136.175737
51
166.3674722
0
ARC
8
DEFAULT_255_1_234
10
24.0185896
20
100.7200182
40
0.3118201
50
165.9092917
51
178.8683903
0
ARC
8
DEFAULT_255_1_234
10
24.1050757
20
100.7153179
40
0.3983935
50
178.438168
51
180.0083905
0
ARC
8
DEFAULT_255_1_234
10
23.9649359
20
100.7192231
40
0.4068601
50
163.2878735
51
180.5581814
0
ARC
8
DEFAULT_255_1_234
10
23.8847621
20
100.741284
40
0.3237344
50
133.454115
51
162.9470031
0
ARC
8
DEFAULT_255_1_234
10
23.9026162
20
100.7223
40
0.349795
50
100.7869394
51
133.4384016
0
ARC
8
DEFAULT_255_1_234
10
23.9373934
20
100.5674319
40
0.5084616
50
89.6605301
51
101.3704185
0
ARC
8
DEFAULT_255_1_234
10
23.9440273
20
100.5735496
40
0.502348
50
78.2171172
51
90.4130393
0
ARC
8
DEFAULT_255_1_234
10
23.9795351
20
100.7359637
40
0.3361092
50
55.9268222
51
78.4888551
0
ARC
8
DEFAULT_255_1_234
10
23.9991791
20
100.7698324
40
0.2970617
50
47.9292255
51
55.4054003
0
ARC
8
DEFAULT_255_1_234
10
24.0093352
20
100.7801502
40
0.2825983
50
4.3347696
51
48.0560701
0
ARC
8
DEFAULT_255_1_234
10
23.8997745
20
100.7631601
40
0.393225
50
359.925209
51
5.5967654
0
ARC
8
DEFAULT_255_1_234
10
23.9426637
20
100.7687816
40
0.3503892
50
337.8914096
51
358.9967724
0
ARC
8
DEFAULT_255_1_234
10
23.6713049
20
100.8734706
40
0.6412172
50
326.9135351
51
338.3505194
0
ARC
8
DEFAULT_255_1_234
10
23.2727353
20
101.1289284
40
1.1146189
50
319.6472867
51
327.095818
0
ARC
8
DEFAULT_255_1_234
10
22.8894356
20
101.4451
40
1.6114559
50
317.2586784
51
319.9046139
0
LINE
8
DEFAULT_255_1_234
10
23.186823
20
108.1989663
11
23.3418355
21
108.1989663
0
LINE
8
DEFAULT_255_1_234
10
22.4414777
20
108.3579947
11
22.4414777
21
108.4704391
0
LINE
8
DEFAULT_255_1_234
10
23.3418355
20
108.6214357
11
23.186823
21
108.6214357
0
LINE
8
DEFAULT_255_1_234
10
22.5964902
20
108.4664232
11
22.5964902
21
108.3531757
0
ARC
8
DEFAULT_255_1_234
10
22.7937742
20
108.2586846
40
0.5513052
50
340.1774281
51
353.7814284
0
ARC
8
DEFAULT_255_1_234
10
22.9509095
20
108.2001582
40
0.3836379
50
311.4558989
51
340.4421614
0
ARC
8
DEFAULT_255_1_234
10
22.9475763
20
108.2112528
40
0.3941894
50
282.4333181
51
310.7513653
0
ARC
8
DEFAULT_255_1_234
10
22.9036502
20
108.3927679
40
0.5809175
50
269.9358511
51
282.809604
0
ARC
8
DEFAULT_255_1_234
10
22.8984568
20
108.5385212
40
0.7266847
50
270.0021091
51
270.3581957
0
ARC
8
DEFAULT_255_1_234
10
22.8931985
20
108.2784585
40
0.4666519
50
250.7884749
51
270.6489167
0
ARC
8
DEFAULT_255_1_234
10
22.876382
20
108.2147319
40
0.4009729
50
219.3627325
51
250.0611886
0
ARC
8
DEFAULT_255_1_234
10
22.9593031
20
108.2852042
40
0.5097822
50
193.5479632
51
219.5756669
0
ARC
8
DEFAULT_255_1_234
10
23.1964652
20
108.3467919
40
0.7547848
50
181.1218675
51
193.87563
0
ARC
8
DEFAULT_255_1_234
10
23.4034833
20
108.357858
40
0.9620055
50
179.9918545
51
181.5394234
0
ARC
8
DEFAULT_255_1_234
10
23.2183935
20
108.4741788
40
0.7769248
50
169.5837241
51
180.2757934
0
ARC
8
DEFAULT_255_1_234
10
23.0346873
20
108.5081229
40
0.590109
50
155.0365899
51
169.6003176
0
ARC
8
DEFAULT_255_1_234
10
22.9211337
20
108.5628677
40
0.4640625
50
136.783148
51
155.2472683
0
ARC
8
DEFAULT_255_1_234
10
22.8821814
20
108.5959562
40
0.4130255
50
121.7633186
51
136.428115
0
ARC
8
DEFAULT_255_1_234
10
22.8956776
20
108.5710227
40
0.4413323
50
95.6459699
51
121.5490577
0
ARC
8
DEFAULT_255_1_234
10
22.9114058
20
108.4601949
40
0.55319
50
89.924208
51
96.1377933
0
ARC
8
DEFAULT_255_1_234
10
22.9164491
20
108.4720542
40
0.5413475
50
76.6779277
51
90.4563316
0
ARC
8
DEFAULT_255_1_234
10
22.9558114
20
108.6311114
40
0.3775041
50
47.485847
51
76.9287264
0
ARC
8
DEFAULT_255_1_234
10
22.9411087
20
108.6211159
40
0.3948286
50
16.5424086
51
46.8933463
0
ARC
8
DEFAULT_255_1_234
10
22.7803244
20
108.5682861
40
0.564021
50
5.4072051
51
17.0365086
0
ARC
8
DEFAULT_255_1_234
10
22.6364261
20
108.5451679
40
0.5556559
50
7.8891745
51
15.9239216
0
ARC
8
DEFAULT_255_1_234
10
22.8351274
20
108.6028631
40
0.3487515
50
15.7653144
51
27.9410532
0
ARC
8
DEFAULT_255_1_234
10
22.9455492
20
108.661979
40
0.2235026
50
27.8166557
51
46.4008329
0
ARC
8
DEFAULT_255_1_234
10
22.9505135
20
108.6614082
40
0.2205286
50
47.4371857
51
75.0698205
0
ARC
8
DEFAULT_255_1_234
10
22.9196529
20
108.5539765
40
0.3322915
50
74.7008593
51
87.8124495
0
ARC
8
DEFAULT_255_1_234
10
22.9123217
20
108.4483844
40
0.4380987
50
87.3814673
51
90.0240855
0
ARC
8
DEFAULT_255_1_234
10
22.908476
20
108.5661291
40
0.3203749
50
89.3451631
51
108.5745436
0
ARC
8
DEFAULT_255_1_234
10
22.8947865
20
108.6174908
40
0.2673494
50
109.2998449
51
143.3037509
0
ARC
8
DEFAULT_255_1_234
10
22.9709938
20
108.5588881
40
0.3634757
50
143.0753173
51
163.1916937
0
ARC
8
DEFAULT_255_1_234
10
23.1661666
20
108.4972967
40
0.5681262
50
162.9373603
51
174.6208611
0
ARC
8
DEFAULT_255_1_234
10
23.4287708
20
108.468501
40
0.8322832
50
174.3419979
51
180.1430411
0
ARC
8
DEFAULT_255_1_234
10
23.3356864
20
108.3490698
40
0.7392076
50
179.6817502
51
189.150529
0
ARC
8
DEFAULT_255_1_234
10
23.0856112
20
108.307419
40
0.4856932
50
188.9910863
51
203.5773039
0
ARC
8
DEFAULT_255_1_234
10
22.9776445
20
108.2626211
40
0.3688271
50
203.9077269
51
215.1312379
0
ARC
8
DEFAULT_255_1_234
10
22.8853539
20
108.1910941
40
0.2522457
50
213.9071664
51
263.8849284
0
ARC
8
DEFAULT_255_1_234
10
22.8978868
20
108.2695518
40
0.3316174
50
263.1758525
51
270.1031083
0
ARC
8
DEFAULT_255_1_234
10
22.901096
20
108.3942365
40
0.4563091
50
269.6719807
51
279.0609165
0
ARC
8
DEFAULT_255_1_234
10
22.9277728
20
108.2329907
40
0.2928759
50
278.8750225
51
293.6346586
0
ARC
8
DEFAULT_255_1_234
10
22.9597936
20
108.15779
40
0.2111472
50
293.8553404
51
310.0518804
0
ARC
8
DEFAULT_255_1_234
10
22.960279
20
108.1515516
40
0.2060917
50
311.0646779
51
332.0108348
0
ARC
8
DEFAULT_255_1_234
10
22.8410517
20
108.2172978
40
0.3422352
50
331.6588543
51
343.2878891
0
ARC
8
DEFAULT_255_1_234
10
22.6348032
20
108.2806798
40
0.5580003
50
343.1446044
51
351.010618
0
ARC
8
DEFAULT_255_1_234
10
22.4806678
20
108.3087871
40
0.7146438
50
350.7157277
51
351.1602153
0
LINE
8
DEFAULT_255_1_234
10
24.2799426
20
107.9491792
11
24.2799426
21
107.8279
0
LINE
8
DEFAULT_255_1_234
10
24.2799426
20
107.8279
11
23.5137147
21
107.8279
0
LINE
8
DEFAULT_255_1_234
10
23.5137147
20
107.8279
11
23.5137147
21
107.9347221
0
LINE
8
DEFAULT_255_1_234
10
23.5137147
20
107.9347221
11
23.9185144
21
108.3844995
0
LINE
8
DEFAULT_255_1_234
10
23.639813
20
108.6527595
11
23.4912259
21
108.6527595
0
LINE
8
DEFAULT_255_1_234
10
24.0060603
20
108.2889218
11
23.6928225
21
107.9491792
0
LINE
8
DEFAULT_255_1_234
10
23.6928225
20
107.9491792
11
24.2799426
21
107.9491792
0
ARC
8
DEFAULT_255_1_234
10
22.5694977
20
109.5774527
40
1.8008286
50
318.5132453
51
320.7828378
0
ARC
8
DEFAULT_255_1_234
10
23.0981951
20
109.1471426
40
1.1191493
50
320.7372736
51
323.9737074
0
ARC
8
DEFAULT_255_1_234
10
23.4901808
20
108.8631361
40
0.6350923
50
323.8961724
51
328.6421089
0
ARC
8
DEFAULT_255_1_234
10
23.6948403
20
108.7369031
40
0.3946393
50
328.8299013
51
331.789948
0
ARC
8
DEFAULT_255_1_234
10
23.7945582
20
108.6854509
40
0.2824501
50
331.4255242
51
352.9364833
0
ARC
8
DEFAULT_255_1_234
10
23.8082082
20
108.6823976
40
0.2685315
50
353.2248685
51
0.0169286
0
ARC
8
DEFAULT_255_1_234
10
23.8291959
20
108.684695
40
0.2475536
50
359.4866256
51
15.9339782
0
ARC
8
DEFAULT_255_1_234
10
23.8798944
20
108.6983286
40
0.1950618
50
16.1714718
51
43.5284424
0
ARC
8
DEFAULT_255_1_234
10
23.8876253
20
108.7060573
40
0.184134
50
43.4415429
51
83.1661404
0
ARC
8
DEFAULT_255_1_234
10
23.8742171
20
108.6323771
40
0.258926
50
82.160215
51
90.1505798
0
ARC
8
DEFAULT_255_1_234
10
23.8710599
20
108.5786865
40
0.3126255
50
89.5460705
51
102.5418777
0
ARC
8
DEFAULT_255_1_234
10
23.8467685
20
108.6817665
40
0.2067346
50
102.1739365
51
129.2061916
0
ARC
8
DEFAULT_255_1_234
10
23.8388756
20
108.6942094
40
0.1921118
50
129.7279328
51
135.7542026
0
ARC
8
DEFAULT_255_1_234
10
23.8510284
20
108.6845045
40
0.2075944
50
136.175737
51
166.3674722
0
ARC
8
DEFAULT_255_1_234
10
23.9517203
20
108.6575182
40
0.3118201
50
165.9092917
51
178.8683903
0
ARC
8
DEFAULT_255_1_234
10
24.0382065
20
108.6528179
40
0.3983935
50
178.438168
51
180.0083905
0
ARC
8
DEFAULT_255_1_234
10
23.8980667
20
108.6567231
40
0.4068601
50
163.2878735
51
180.5581814
0
ARC
8
DEFAULT_255_1_234
10
23.8178928
20
108.678784
40
0.3237344
50
133.454115
51
162.9470031
0
ARC
8
DEFAULT_255_1_234
10
23.8357469
20
108.6598
40
0.349795
50
100.7869394
51
133.4384016
0
ARC
8
DEFAULT_255_1_234
10
23.8705241
20
108.5049319
40
0.5084616
50
89.6605301
51
101.3704185
0
ARC
8
DEFAULT_255_1_234
10
23.877158
20
108.5110496
40
0.502348
50
78.2171172
51
90.4130393
0
ARC
8
DEFAULT_255_1_234
10
23.9126658
20
108.6734637
40
0.3361092
50
55.9268222
51
78.4888551
0
ARC
8
DEFAULT_255_1_234
10
23.9323098
20
108.7073324
40
0.2970617
50
47.9292255
51
55.4054003
0
ARC
8
DEFAULT_255_1_234
10
23.9424659
20
108.7176502
40
0.2825983
50
4.3347696
51
48.0560701
0
ARC
8
DEFAULT_255_1_234
10
23.8329052
20
108.7006601
40
0.393225
50
359.925209
51
5.5967654
0
ARC
8
DEFAULT_255_1_234
10
23.8757944
20
108.7062816
40
0.3503892
50
337.8914096
51
358.9967724
0
ARC
8
DEFAULT_255_1_234
10
23.6044356
20
108.8109706
40
0.6412172
50
326.9135351
51
338.3505194
0
ARC
8
DEFAULT_255_1_234
10
23.205866
20
109.0664284
40
1.1146189
50
319.6472867
51
327.095818
0
ARC
8
DEFAULT_255_1_234
10
22.8225663
20
109.3826
40
1.6114559
50
317.2586784
51
319.9046139
0
LINE
8
DEFAULT_255_1_234
10
24.0771137
20
116.9404433
11
24.0771137
21
115.7654
0
LINE
8
DEFAULT_255_1_234
10
24.0771137
20
115.7654
11
23.9277234
21
115.7654
0
LINE
8
DEFAULT_255_1_234
10
23.9277234
20
115.7654
11
23.9277234
21
116.7557133
0
LINE
8
DEFAULT_255_1_234
10
23.9277234
20
116.7557133
11
23.6281396
21
116.6456785
0
LINE
8
DEFAULT_255_1_234
10
23.6281396
20
116.6456785
11
23.6281396
21
116.7806117
0
LINE
8
DEFAULT_255_1_234
10
23.6281396
20
116.7806117
11
24.0538217
21
116.9404433
0
LINE
8
DEFAULT_255_1_234
10
24.0538217
20
116.9404433
11
24.0771137
21
116.9404433
0
LINE
8
DEFAULT_255_1_234
10
23.195923
20
124.0739663
11
23.3509355
21
124.0739663
0
LINE
8
DEFAULT_255_1_234
10
22.4505777
20
124.2329947
11
22.4505777
21
124.3454391
0
LINE
8
DEFAULT_255_1_234
10
23.3509355
20
124.4964357
11
23.195923
21
124.4964357
0
LINE
8
DEFAULT_255_1_234
10
22.6055902
20
124.3414232
11
22.6055902
21
124.2281757
0
ARC
8
DEFAULT_255_1_234
10
22.8028742
20
124.1336846
40
0.5513052
50
340.1774281
51
353.7814284
0
ARC
8
DEFAULT_255_1_234
10
22.9600095
20
124.0751582
40
0.3836379
50
311.4558989
51
340.4421614
0
ARC
8
DEFAULT_255_1_234
10
22.9566763
20
124.0862528
40
0.3941894
50
282.4333181
51
310.7513653
0
ARC
8
DEFAULT_255_1_234
10
22.9127502
20
124.2677679
40
0.5809175
50
269.9358511
51
282.809604
0
ARC
8
DEFAULT_255_1_234
10
22.9075568
20
124.4135212
40
0.7266847
50
270.0021091
51
270.3581957
0
ARC
8
DEFAULT_255_1_234
10
22.9022985
20
124.1534585
40
0.4666519
50
250.7884749
51
270.6489167
0
ARC
8
DEFAULT_255_1_234
10
22.885482
20
124.0897319
40
0.4009729
50
219.3627325
51
250.0611886
0
ARC
8
DEFAULT_255_1_234
10
22.9684031
20
124.1602042
40
0.5097822
50
193.5479632
51
219.5756669
0
ARC
8
DEFAULT_255_1_234
10
23.2055652
20
124.2217919
40
0.7547848
50
181.1218675
51
193.87563
0
ARC
8
DEFAULT_255_1_234
10
23.4125833
20
124.232858
40
0.9620055
50
179.9918545
51
181.5394234
0
ARC
8
DEFAULT_255_1_234
10
23.2274935
20
124.3491788
40
0.7769248
50
169.5837241
51
180.2757934
0
ARC
8
DEFAULT_255_1_234
10
23.0437873
20
124.3831229
40
0.590109
50
155.0365899
51
169.6003176
0
ARC
8
DEFAULT_255_1_234
10
22.9302337
20
124.4378677
40
0.4640625
50
136.783148
51
155.2472683
0
ARC
8
DEFAULT_255_1_234
10
22.8912814
20
124.4709562
40
0.4130255
50
121.7633186
51
136.428115
0
ARC
8
DEFAULT_255_1_234
10
22.9047776
20
124.4460227
40
0.4413323
50
95.6459699
51
121.5490577
0
ARC
8
DEFAULT_255_1_234
10
22.9205058
20
124.3351949
40
0.55319
50
89.924208
51
96.1377933
0
ARC
8
DEFAULT_255_1_234
10
22.9255491
20
124.3470542
40
0.5413475
50
76.6779277
51
90.4563316
0
ARC
8
DEFAULT_255_1_234
10
22.9649114
20
124.5061114
40
0.3775041
50
47.485847
51
76.9287264
0
ARC
8
DEFAULT_255_1_234
10
22.9502087
20
124.4961159
40
0.3948286
50
16.5424086
51
46.8933463
0
ARC
8
DEFAULT_255_1_234
10
22.7894244
20
124.4432861
40
0.564021
50
5.4072051
51
17.0365086
0
ARC
8
DEFAULT_255_1_234
10
22.6455261
20
124.4201679
40
0.5556559
50
7.8891745
51
15.9239216
0
ARC
8
DEFAULT_255_1_234
10
22.8442274
20
124.4778631
40
0.3487515
50
15.7653144
51
27.9410532
0
ARC
8
DEFAULT_255_1_234
10
22.9546492
20
124.536979
40
0.2235026
50
27.8166557
51
46.4008329
0
ARC
8
DEFAULT_255_1_234
10
22.9596135
20
124.5364082
40
0.2205286
50
47.4371857
51
75.0698205
0
ARC
8
DEFAULT_255_1_234
10
22.9287529
20
124.4289765
40
0.3322915
50
74.7008593
51
87.8124495
0
ARC
8
DEFAULT_255_1_234
10
22.9214217
20
124.3233844
40
0.4380987
50
87.3814673
51
90.0240855
0
ARC
8
DEFAULT_255_1_234
10
22.917576
20
124.4411291
40
0.3203749
50
89.3451631
51
108.5745436
0
ARC
8
DEFAULT_255_1_234
10
22.9038865
20
124.4924908
40
0.2673494
50
109.2998449
51
143.3037509
0
ARC
8
DEFAULT_255_1_234
10
22.9800938
20
124.4338881
40
0.3634757
50
143.0753173
51
163.1916937
0
ARC
8
DEFAULT_255_1_234
10
23.1752666
20
124.3722967
40
0.5681262
50
162.9373603
51
174.6208611
0
ARC
8
DEFAULT_255_1_234
10
23.4378708
20
124.343501
40
0.8322832
50
174.3419979
51
180.1430411
0
ARC
8
DEFAULT_255_1_234
10
23.3447864
20
124.2240698
40
0.7392076
50
179.6817502
51
189.150529
0
ARC
8
DEFAULT_255_1_234
10
23.0947112
20
124.182419
40
0.4856932
50
188.9910863
51
203.5773039
0
ARC
8
DEFAULT_255_1_234
10
22.9867445
20
124.1376211
40
0.3688271
50
203.9077269
51
215.1312379
0
ARC
8
DEFAULT_255_1_234
10
22.8944539
20
124.0660941
40
0.2522457
50
213.9071664
51
263.8849284
0
ARC
8
DEFAULT_255_1_234
10
22.9069868
20
124.1445518
40
0.3316174
50
263.1758525
51
270.1031083
0
ARC
8
DEFAULT_255_1_234
10
22.910196
20
124.2692365
40
0.4563091
50
269.6719807
51
279.0609165
0
ARC
8
DEFAULT_255_1_234
10
22.9368728
20
124.1079907
40
0.2928759
50
278.8750225
51
293.6346586
0
ARC
8
DEFAULT_255_1_234
10
22.9688936
20
124.03279
40
0.2111472
50
293.8553404
51
310.0518804
0
ARC
8
DEFAULT_255_1_234
10
22.969379
20
124.0265516
40
0.2060917
50
311.0646779
51
332.0108348
0
ARC
8
DEFAULT_255_1_234
10
22.8501517
20
124.0922978
40
0.3422352
50
331.6588543
51
343.2878891
0
ARC
8
DEFAULT_255_1_234
10
22.6439032
20
124.1556798
40
0.5580003
50
343.1446044
51
351.010618
0
ARC
8
DEFAULT_255_1_234
10
22.4897678
20
124.1837871
40
0.7146438
50
350.7157277
51
351.1602153
0
LINE
8
DEFAULT_255_1_234
10
24.0111444
20
124.8779433
11
24.0111444
21
123.7029
0
LINE
8
DEFAULT_255_1_234
10
24.0111444
20
123.7029
11
23.8617541
21
123.7029
0
LINE
8
DEFAULT_255_1_234
10
23.8617541
20
123.7029
11
23.8617541
21
124.6932133
0
LINE
8
DEFAULT_255_1_234
10
23.8617541
20
124.6932133
11
23.5621703
21
124.5831785
0
LINE
8
DEFAULT_255_1_234
10
23.5621703
20
124.5831785
11
23.5621703
21
124.7181117
0
LINE
8
DEFAULT_255_1_234
10
23.5621703
20
124.7181117
11
23.9878524
21
124.8779433
0
LINE
8
DEFAULT_255_1_234
10
23.9878524
20
124.8779433
11
24.0111444
21
124.8779433
0
ENDSEC
0
EOF