0
SECTION
2
HEADER
9
$MEASUREMENT
70
1
0
ENDSEC
0
SECTION
2
TABLES
0
TABLE
2
LTYPE
0
LTYPE
72
65
70
64
2
CONTINUOUS
3
______
73
0
40
0
0
ENDTAB
0
TABLE
2
LAYER
0
LAYER
2
DEFAULT_255_2_778
70
0
62
255
6
CONTINUOUS
0
ENDTAB
0
ENDSEC
0
SECTION
2
ENTITIES
0
ARC
8
DEFAULT_255_2_778
10
6.9147663
20
12.4971836
40
6.8758682
50
300.2599547
51
311.2377117
0
ARC
8
DEFAULT_255_2_778
10
7.4598369
20
11.8821615
40
6.0540827
50
311.1954097
51
323.9706777
0
ARC
8
DEFAULT_255_2_778
10
8.2703737
20
11.3189394
40
5.0673465
50
323.730176
51
347.4316704
0
ARC
8
DEFAULT_255_2_778
10
8.6812458
20
11.2005691
40
4.6406358
50
347.7542441
51
359.9999673
0
ARC
8
DEFAULT_255_2_778
10
8.5384561
20
11.1989818
40
4.7834259
50
0.0189806
51
20.5878498
0
ARC
8
DEFAULT_255_2_778
10
8.032258
20
10.9924412
40
5.3299458
50
20.7528443
51
40.4499566
0
ARC
8
DEFAULT_255_2_778
10
7.3689173
20
10.4470312
40
6.1886022
50
40.3080983
51
52.9217432
0
ARC
8
DEFAULT_255_2_778
10
6.9387958
20
9.8850926
40
6.8962477
50
52.8855132
51
63.9907968
0
ARC
8
DEFAULT_255_2_778
10
6.6934247
20
9.3896215
40
7.449139
50
63.9658067
51
74.2362218
0
ARC
8
DEFAULT_255_2_778
10
6.5825788
20
9.0045814
40
7.8498117
50
74.2210949
51
83.857331
0
ARC
8
DEFAULT_255_2_778
10
6.5506659
20
8.736008
40
8.1202586
50
83.836226
51
90.0132946
0
ARC
8
DEFAULT_255_2_778
10
5.9432117
20
11.2003633
40
2.8624716
50
359.9400138
51
18.5370246
0
ARC
8
DEFAULT_255_2_778
10
5.97256
20
11.2110726
40
2.8312413
50
18.5203637
51
77.0046156
0
ARC
8
DEFAULT_255_2_778
10
5.9928457
20
11.2457843
40
2.7928825
50
77.2499844
51
90.0300345
0
ARC
8
DEFAULT_255_2_778
10
5.983122
20
11.2022602
40
2.8211059
50
270.1677527
51
289.5105882
0
ARC
8
DEFAULT_255_2_778
10
5.9763101
20
11.2097591
40
2.8304519
50
289.5898641
51
348.2138374
0
ARC
8
DEFAULT_255_2_778
10
5.9674099
20
11.2054128
40
2.8382833
50
348.3364233
51
359.8375697
0
LINE
8
DEFAULT_255_2_778
10
6.5487817
20
16.8562664
11
0.0802817
21
16.8562664
0
LINE
8
DEFAULT_255_2_778
10
0.0802817
20
16.8562664
11
0.0802817
21
-0.0657336
0
LINE
8
DEFAULT_255_2_778
10
0.0802817
20
-0.0657336
11
4.5956817
21
-0.0657336
0
LINE
8
DEFAULT_255_2_778
10
4.5956817
20
-0.0657336
11
4.5956817
21
5.5678664
0
LINE
8
DEFAULT_255_2_778
10
4.5956817
20
5.5678664
11
5.9637817
21
5.5678664
0
LINE
8
DEFAULT_255_2_778
10
5.9637817
20
5.5678664
11
10.0312817
21
-0.0770336
0
LINE
8
DEFAULT_255_2_778
10
10.0312817
20
-0.0770336
11
15.1548817
21
-0.0770336
0
LINE
8
DEFAULT_255_2_778
10
15.1548817
20
-0.0770336
11
10.3796817
21
6.5581664
0
LINE
8
DEFAULT_255_2_778
10
5.9913817
20
14.0386664
11
4.5956817
21
14.0386664
0
LINE
8
DEFAULT_255_2_778
10
4.5956817
20
14.0386664
11
4.5956817
21
8.3811664
0
LINE
8
DEFAULT_255_2_778
10
4.5956817
20
8.3811664
11
5.9913817
21
8.3811664
0
LINE
8
DEFAULT_255_2_778
10
8.8056817
20
11.1973664
11
8.8056817
21
11.1973664
0
ENDSEC
0
EOF