0
SECTION
2
HEADER
9
$MEASUREMENT
70
1
0
ENDSEC
0
SECTION
2
TABLES
0
TABLE
2
LTYPE
0
LTYPE
72
65
70
64
2
CONTINUOUS
3
______
73
0
40
0
0
ENDTAB
0
TABLE
2
LAYER
0
LAYER
2
DEFAULT_255_2_778
70
0
62
255
6
CONTINUOUS
0
ENDTAB
0
ENDSEC
0
SECTION
2
ENTITIES
0
ARC
8
DEFAULT_255_2_778
10
7.1249112
20
18.0311313
40
2.5308548
50
313.1155629
51
330.917599
0
ARC
8
DEFAULT_255_2_778
10
7.8854909
20
17.4360445
40
1.5835965
50
273.7430608
51
307.735529
0
ARC
8
DEFAULT_255_2_778
10
7.7313145
20
18.5748716
40
2.7312167
50
269.8621075
51
275.4111057
0
ARC
8
DEFAULT_255_2_778
10
7.7254496
20
19.2113097
40
3.3676469
50
268.605164
51
269.9879488
0
ARC
8
DEFAULT_255_2_778
10
7.7482273
20
19.9510016
40
4.107677
50
265.5215067
51
268.5386962
0
ARC
8
DEFAULT_255_2_778
10
7.3908389
20
12.8455515
40
3.0103156
50
90.0372875
51
108.7212009
0
ARC
8
DEFAULT_255_2_778
10
7.3982868
20
12.8384137
40
3.0194702
50
108.8115797
51
166.3181594
0
ARC
8
DEFAULT_255_2_778
10
7.4019868
20
12.8441789
40
3.0217086
50
166.4409697
51
179.941457
0
ARC
8
DEFAULT_255_2_778
10
6.1873427
20
9.3133505
40
2.8425309
50
131.0052046
51
147.8063603
0
ARC
8
DEFAULT_255_2_778
10
6.6923574
20
9.0615454
40
3.4045182
50
148.7483782
51
176.8574693
0
ARC
8
DEFAULT_255_2_778
10
7.8696289
20
8.9154397
40
4.5887499
50
175.8416945
51
180.0346279
0
ARC
8
DEFAULT_255_2_778
10
7.9788223
20
8.9210389
40
4.69795
50
180.1021099
51
187.2503781
0
ARC
8
DEFAULT_255_2_778
10
8.6225853
20
8.9966535
40
5.3461121
50
187.18354
51
191.0263267
0
ARC
8
DEFAULT_255_2_778
10
9.6765792
20
9.2306849
40
6.4254711
50
191.2771105
51
203.550094
0
ARC
8
DEFAULT_255_2_778
10
10.4914226
20
9.5602759
40
7.3041731
50
203.3662907
51
211.8003057
0
ARC
8
DEFAULT_255_2_778
10
2.3841735
20
7.0477043
40
1.3364724
50
251.3849182
51
270.4118326
0
ARC
8
DEFAULT_255_2_778
10
2.3247775
20
6.851919
40
1.1319871
50
195.970235
51
251.0707108
0
ARC
8
DEFAULT_255_2_778
10
2.2801967
20
6.3960183
40
2.1044381
50
179.7427638
51
191.7577912
0
ARC
8
DEFAULT_255_2_778
10
1.8788561
20
6.3117506
40
1.694347
50
191.7335631
51
209.1071533
0
ARC
8
DEFAULT_255_2_778
10
1.933574
20
6.3874787
40
1.7794317
50
210.3806402
51
250.972594
0
ARC
8
DEFAULT_255_2_778
10
2.3018532
20
7.2925139
40
2.7555964
50
249.8684927
51
266.6687487
0
ARC
8
DEFAULT_255_2_778
10
2.3542609
20
7.8078064
40
3.2731402
50
266.2770544
51
270.0160854
0
ARC
8
DEFAULT_255_2_778
10
6.410139
20
2.0685317
40
2.237128
50
163.5412373
51
179.5673527
0
ARC
8
DEFAULT_255_2_778
10
6.2242877
20
2.0794159
40
2.0512219
50
179.8321675
51
179.9999998
0
ARC
8
DEFAULT_255_2_778
10
5.9019905
20
2.0594012
40
1.7290406
50
179.3367496
51
206.9690149
0
ARC
8
DEFAULT_255_2_778
10
5.4687516
20
1.8240034
40
1.2362324
50
206.3516042
51
256.9771649
0
ARC
8
DEFAULT_255_2_778
10
5.4810386
20
1.9136614
40
1.3263787
50
257.3327865
51
268.6223042
0
ARC
8
DEFAULT_255_2_778
10
5.4809935
20
1.9127542
40
1.3254709
50
268.623313
51
270.0002082
0
ARC
8
DEFAULT_255_2_778
10
5.4810851
20
1.9115767
40
1.3242934
50
269.9962458
51
291.2788052
0
ARC
8
DEFAULT_255_2_778
10
7.4362708
20
1.2837001
40
1.4160609
50
217.2296949
51
269.6443017
0
ARC
8
DEFAULT_255_2_778
10
7.4184699
20
1.2841378
40
1.4165
50
270.36444
51
322.7615627
0
ARC
8
DEFAULT_255_2_778
10
9.3533205
20
1.8024656
40
1.2153335
50
247.757318
51
270.2500704
0
ARC
8
DEFAULT_255_2_778
10
9.3586117
20
1.8751743
40
1.2880308
50
270.0005819
51
271.4558893
0
ARC
8
DEFAULT_255_2_778
10
9.3592333
20
1.8674403
40
1.2802837
50
271.4368739
51
282.919419
0
ARC
8
DEFAULT_255_2_778
10
9.32833
20
1.8727891
40
1.2927301
50
284.2015331
51
332.4696977
0
ARC
8
DEFAULT_255_2_778
10
9.0113013
20
2.0166602
40
1.6404699
50
333.1317878
51
0.8295414
0
ARC
8
DEFAULT_255_2_778
10
8.6214999
20
2.0403137
40
2.0300992
50
0.002729
51
1.2496048
0
ARC
8
DEFAULT_255_2_778
10
8.2439792
20
2.015152
40
2.4081384
50
1.6522452
51
16.5810665
0
ARC
8
DEFAULT_255_2_778
10
12.4803284
20
7.4896727
40
2.9550664
50
269.6345424
51
286.1974221
0
ARC
8
DEFAULT_255_2_778
10
12.7371662
20
6.6388998
40
2.0664406
50
285.9389602
51
308.9186985
0
ARC
8
DEFAULT_255_2_778
10
13.0131501
20
6.2768302
40
1.6114092
50
309.3714183
51
338.646453
0
ARC
8
DEFAULT_255_2_778
10
12.8112406
20
6.350053
40
1.8261276
50
338.8134803
51
353.3631828
0
ARC
8
DEFAULT_255_2_778
10
12.4250271
20
6.4018976
40
2.2157556
50
353.1857856
51
0.0922853
0
ARC
8
DEFAULT_255_2_778
10
12.4478495
20
6.8480602
40
1.1599736
50
308.1382507
51
343.6265098
0
ARC
8
DEFAULT_255_2_778
10
12.4586066
20
6.8599542
40
1.1627928
50
279.9640834
51
307.3593976
0
ARC
8
DEFAULT_255_2_778
10
12.4068996
20
7.1036023
40
1.4117399
50
269.8612063
51
280.3199549
0
ARC
8
DEFAULT_255_2_778
10
4.6660811
20
9.3559328
40
6.9003706
50
327.9272529
51
347.6588289
0
ARC
8
DEFAULT_255_2_778
10
5.8839031
20
9.0307778
40
5.6414851
50
348.2413284
51
349.0057589
0
ARC
8
DEFAULT_255_2_778
10
6.3373976
20
8.9502487
40
5.1809614
50
348.9235358
51
355.5008871
0
ARC
8
DEFAULT_255_2_778
10
6.9692976
20
8.8963582
40
4.5467832
50
355.553257
51
359.9622997
0
ARC
8
DEFAULT_255_2_778
10
7.3506778
20
8.9230477
40
4.1655077
50
359.591736
51
13.4880014
0
ARC
8
DEFAULT_255_2_778
10
8.517938
20
9.2177873
40
2.9617313
50
13.210268
51
43.4231743
0
ARC
8
DEFAULT_255_2_778
10
8.5319076
20
9.209547
40
2.9572904
50
43.7251719
51
48.9328324
0
ARC
8
DEFAULT_255_2_778
10
10.669649
20
11.9564444
40
1.3290024
50
19.6597815
51
26.3704807
0
ARC
8
DEFAULT_255_2_778
10
10.164829
20
11.707559
40
1.8918399
50
26.3328923
51
31.6478544
0
ARC
8
DEFAULT_255_2_778
10
9.55298
20
11.3319515
40
2.6097807
50
31.6196465
51
35.9314459
0
ARC
8
DEFAULT_255_2_778
10
9.0113343
20
10.9446654
40
3.2756308
50
35.8570426
51
38.0168786
0
ARC
8
DEFAULT_255_2_778
10
8.2758609
20
10.3593547
40
4.2155553
50
38.1276713
51
42.7845681
0
ARC
8
DEFAULT_255_2_778
10
7.1024621
20
9.2650967
40
5.8199988
50
42.8442885
51
49.4699996
0
ARC
8
DEFAULT_255_2_778
10
6.9899723
20
9.1514927
40
5.9794578
50
49.3581329
51
52.2833627
0
ARC
8
DEFAULT_255_2_778
10
7.534285
20
9.8571058
40
5.0882986
50
52.2711204
51
54.8683626
0
ARC
8
DEFAULT_255_2_778
10
8.1904391
20
10.790387
40
3.9474428
50
54.8619866
51
57.4108264
0
ARC
8
DEFAULT_255_2_778
10
8.8045834
20
11.7537295
40
2.8049898
50
57.3818702
51
60.469998
0
ARC
8
DEFAULT_255_2_778
10
9.1581133
20
12.3709278
40
2.0937221
50
60.5630778
51
61.8193584
0
ARC
8
DEFAULT_255_2_778
10
8.4299926
20
13.4653566
40
1.8739977
50
23.6285846
51
40.3732893
0
ARC
8
DEFAULT_255_2_778
10
8.9255339
20
15.1861089
40
0.9536639
50
339.5473065
51
353.0038787
0
ARC
8
DEFAULT_255_2_778
10
8.6262672
20
15.226924
40
1.2556803
50
352.8186307
51
0.1427941
0
ARC
8
DEFAULT_255_2_778
10
8.1966034
20
15.2226573
40
1.6853563
50
0.2514425
51
8.5950705
0
ARC
8
DEFAULT_255_2_778
10
7.4984489
20
15.1178193
40
2.3913381
50
8.5788067
51
15.5567175
0
ARC
8
DEFAULT_255_2_778
10
7.0083487
20
14.9911869
40
2.8974608
50
15.3698923
51
16.2120693
0
ARC
8
DEFAULT_255_2_778
10
5.9640862
20
14.6475979
40
3.9963101
50
16.762266
51
27.4540638
0
ARC
8
DEFAULT_255_2_778
10
5.1197253
20
14.2437069
40
4.9318853
50
27.0953532
51
29.8121391
0
ARC
8
DEFAULT_255_2_778
10
5.1659994
20
14.2703226
40
4.8785029
50
29.8111066
51
30.5361714
0
ARC
8
DEFAULT_255_2_778
10
5.2517594
20
14.3209301
40
4.7789242
50
30.5359863
51
31.2578288
0
LINE
8
DEFAULT_255_2_778
10
7.4274798
20
15.8558664
11
7.3888798
21
15.8558664
0
LINE
8
DEFAULT_255_2_778
10
4.3802798
20
12.8472664
11
4.3802798
21
11.5164664
0
LINE
8
DEFAULT_255_2_778
10
4.3802798
20
11.5164664
11
4.3222798
21
11.4584664
0
LINE
8
DEFAULT_255_2_778
10
4.2836798
20
5.7112664
11
2.3937798
21
5.7112664
0
LINE
8
DEFAULT_255_2_778
10
1.2364798
20
6.5404664
11
0.1757798
21
6.5404664
0
LINE
8
DEFAULT_255_2_778
10
0.1757798
20
6.5404664
11
0.1757798
21
6.4054664
0
LINE
8
DEFAULT_255_2_778
10
2.3551798
20
4.5346664
11
4.7660798
21
4.5346664
0
LINE
8
DEFAULT_255_2_778
10
4.7660798
20
4.5346664
11
4.2646798
21
2.7023664
0
LINE
8
DEFAULT_255_2_778
10
5.9616798
20
0.6775664
11
6.1159798
21
0.7354664
0
LINE
8
DEFAULT_255_2_778
10
6.1159798
20
0.7354664
11
6.1931798
21
0.6005664
0
LINE
8
DEFAULT_255_2_778
10
6.1931798
20
0.6005664
11
6.3087798
21
0.4269664
0
LINE
8
DEFAULT_255_2_778
10
8.5461798
20
0.4269664
11
8.6617798
21
0.6005664
0
LINE
8
DEFAULT_255_2_778
10
8.6617798
20
0.6005664
11
8.7389798
21
0.7354664
0
LINE
8
DEFAULT_255_2_778
10
8.7389798
20
0.7354664
11
8.8932798
21
0.6775664
0
LINE
8
DEFAULT_255_2_778
10
10.5519798
20
2.7023664
11
10.0505798
21
4.5346664
0
LINE
8
DEFAULT_255_2_778
10
10.0505798
20
4.5346664
11
12.4614798
21
4.5346664
0
LINE
8
DEFAULT_255_2_778
10
14.6407798
20
6.4054664
11
14.6407798
21
6.5210664
0
LINE
8
DEFAULT_255_2_778
10
14.6407798
20
6.5210664
11
13.5607798
21
6.5210664
0
LINE
8
DEFAULT_255_2_778
10
12.4034798
20
5.6918664
11
10.5132798
21
5.6918664
0
LINE
8
DEFAULT_255_2_778
10
10.4746798
20
11.4391664
11
10.4553798
21
11.4584664
0
LINE
8
DEFAULT_255_2_778
10
10.4553798
20
11.4584664
11
11.9211798
21
12.4035664
0
LINE
8
DEFAULT_255_2_778
10
9.8576798
20
14.6792664
11
9.7803798
21
14.7565664
0
LINE
8
DEFAULT_255_2_778
10
9.7803798
20
14.7565664
11
9.8190798
21
14.8528664
0
ARC
8
DEFAULT_255_2_778
10
7.7960148
20
1.9297529
40
2.3562734
50
12.1767895
51
15.2242511
0
ARC
8
DEFAULT_255_2_778
10
8.0102487
20
1.9759458
40
2.1371162
50
8.9645766
51
12.1777137
0
ARC
8
DEFAULT_255_2_778
10
8.2120316
20
2.0076095
40
1.932864
50
5.3283652
51
8.9694868
0
ARC
8
DEFAULT_255_2_778
10
8.4015288
20
2.0252038
40
1.7425518
50
1.3921878
51
5.3309664
0
ARC
8
DEFAULT_255_2_778
10
8.517085
20
2.0288716
40
1.6269407
50
0.0040867
51
1.3619295
0
ARC
8
DEFAULT_255_2_778
10
8.7081731
20
2.0247875
40
1.4358587
50
350.7044402
51
0.1675993
0
ARC
8
DEFAULT_255_2_778
10
8.9799528
20
1.9795166
40
1.1603357
50
339.0492939
51
350.7427896
0
ARC
8
DEFAULT_255_2_778
10
9.1817765
20
1.901371
40
0.9439131
50
324.0734967
51
339.0987187
0
ARC
8
DEFAULT_255_2_778
10
9.3105376
20
1.8069198
40
0.7842278
50
302.8436309
51
324.1417043
0
ARC
8
DEFAULT_255_2_778
10
9.3542251
20
1.7421517
40
0.7061205
50
269.9514442
51
302.715639
0
ARC
8
DEFAULT_255_2_778
10
9.3541089
20
1.7727093
40
0.7366781
50
260.2314546
51
269.9624996
0
ARC
8
DEFAULT_255_2_778
10
9.3585103
20
1.8011249
40
0.7654286
50
257.0135134
51
260.2676566
0
ARC
8
DEFAULT_255_2_778
10
9.3746039
20
1.8603954
40
0.8268031
50
242.0144087
51
256.849784
0
ARC
8
DEFAULT_255_2_778
10
9.4405642
20
1.9853938
40
0.9681369
50
230.265564
51
242.0385647
0
ARC
8
DEFAULT_255_2_778
10
9.556814
20
2.1261347
40
1.1506794
50
220.7448239
51
230.2938442
0
ARC
8
DEFAULT_255_2_778
10
9.7234536
20
2.2705436
40
1.371184
50
212.9385713
51
220.7717116
0
ARC
8
DEFAULT_255_2_778
10
9.9387651
20
2.4107336
40
1.6281121
50
206.3860122
51
212.95904
0
ARC
8
DEFAULT_255_2_778
10
10.1521546
20
2.5187729
40
1.8672863
50
202.7622508
51
206.4458438
0
ARC
8
DEFAULT_255_2_778
10
5.8299128
20
1.670063
40
2.6034456
50
1.580094
51
2.7793747
0
ARC
8
DEFAULT_255_2_778
10
5.928432
20
1.67277
40
2.5048892
50
0.40104
51
1.580336
0
ARC
8
DEFAULT_255_2_778
10
5.9758666
20
1.6732741
40
2.4574523
50
0.0012912
51
0.3970304
0
ARC
8
DEFAULT_255_2_778
10
6.2301733
20
1.6691449
40
2.2031495
50
353.365024
51
0.1088237
0
ARC
8
DEFAULT_255_2_778
10
6.6160801
20
1.6237479
40
1.814582
50
345.521928
51
353.3809371
0
ARC
8
DEFAULT_255_2_778
10
6.9240617
20
1.5434503
40
1.496306
50
335.9109129
51
345.5506197
0
ARC
8
DEFAULT_255_2_778
10
7.1546964
20
1.4397712
40
1.2434397
50
324.1751885
51
335.934633
0
ARC
8
DEFAULT_255_2_778
10
7.3078156
20
1.3286124
40
1.054227
50
309.1799711
51
324.2027278
0
ARC
8
DEFAULT_255_2_778
10
7.3898501
20
1.2270412
40
0.9236668
50
287.5514157
51
309.2158335
0
ARC
8
DEFAULT_255_2_778
10
7.4076918
20
1.1771388
40
0.8707094
50
270.0263785
51
287.422278
0
ARC
8
DEFAULT_255_2_778
10
7.4101568
20
1.1895859
40
0.8831588
50
239.3150992
51
269.863856
0
ARC
8
DEFAULT_255_2_778
10
7.4629072
20
1.2803685
40
0.9881504
50
222.0027884
51
239.3709493
0
ARC
8
DEFAULT_255_2_778
10
7.5841216
20
1.3903132
40
1.1517978
50
208.91217
51
222.0320686
0
ARC
8
DEFAULT_255_2_778
10
7.7759277
20
1.4973838
40
1.371463
50
198.8758113
51
208.953668
0
ARC
8
DEFAULT_255_2_778
10
8.0425988
20
1.588867
40
1.6533895
50
190.1623867
51
198.8858797
0
ARC
8
DEFAULT_255_2_778
10
8.3929133
20
1.6525195
40
2.0094391
50
182.9472167
51
190.186478
0
ARC
8
DEFAULT_255_2_778
10
8.7031632
20
1.6722618
40
2.3202968
50
179.9766535
51
183.0401719
0
ARC
8
DEFAULT_255_2_778
10
8.860489
20
1.6730243
40
2.4776224
50
178.7653589
51
179.9957692
0
ARC
8
DEFAULT_255_2_778
10
8.9567107
20
1.6709541
40
2.5738665
50
177.6014043
51
178.7654372
0
ARC
8
DEFAULT_255_2_778
10
9.0335959
20
1.6678446
40
2.6508146
50
177.222325
51
177.6038032
0
ARC
8
DEFAULT_255_2_778
10
4.7671672
20
2.4501857
40
1.7458072
50
331.5748245
51
338.0038868
0
ARC
8
DEFAULT_255_2_778
10
5.0143309
20
2.3157906
40
1.4644682
50
323.8974345
51
331.5959428
0
ARC
8
DEFAULT_255_2_778
10
5.2047974
20
2.1764872
40
1.2284961
50
314.9418328
51
323.9124991
0
ARC
8
DEFAULT_255_2_778
10
5.33965
20
2.0407485
40
1.0371588
50
304.0494704
51
314.9657198
0
ARC
8
DEFAULT_255_2_778
10
5.4242847
20
1.9146094
40
0.8852581
50
290.0754196
51
304.0819525
0
ARC
8
DEFAULT_255_2_778
10
5.4552505
20
1.8347284
40
0.799603
50
281.1744849
51
289.9561376
0
ARC
8
DEFAULT_255_2_778
10
5.4632139
20
1.7951828
40
0.7592637
50
272.306031
51
281.1632707
0
ARC
8
DEFAULT_255_2_778
10
5.46425
20
1.7782361
40
0.7422891
50
270.0013651
51
272.2787561
0
ARC
8
DEFAULT_255_2_778
10
5.4657213
20
1.7736815
40
0.737736
50
226.157335
51
269.8871034
0
ARC
8
DEFAULT_255_2_778
10
5.5516021
20
1.8687202
40
0.8657789
50
208.7600943
51
226.4147939
0
ARC
8
DEFAULT_255_2_778
10
5.7047716
20
1.9536255
40
1.0409055
50
195.2688014
51
208.8005575
0
ARC
8
DEFAULT_255_2_778
10
5.9299191
20
2.01609
40
1.2745557
50
184.6418513
51
195.3122899
0
ARC
8
DEFAULT_255_2_778
10
6.1493924
20
2.0375585
40
1.4950509
50
179.9559515
51
184.781228
0
ARC
8
DEFAULT_255_2_778
10
6.3168988
20
2.0376907
40
1.6625571
50
175.8674173
51
179.9649436
0
ARC
8
DEFAULT_255_2_778
10
6.4924856
20
2.0251548
40
1.8385908
50
172.2153895
51
175.8721007
0
ARC
8
DEFAULT_255_2_778
10
6.680614
20
1.9995303
40
2.0284564
50
168.8650702
51
172.2180311
0
ARC
8
DEFAULT_255_2_778
10
6.881905
20
1.960002
40
2.2335918
50
165.7847102
51
168.8673584
0
ARC
8
DEFAULT_255_2_778
10
7.0250179
20
1.9246711
40
2.3809987
50
164.8109342
51
165.8062369
0
ARC
8
DEFAULT_255_2_778
10
5.5689861
20
3.0113758
40
1.5042815
50
70.7015552
51
90.4795503
0
ARC
8
DEFAULT_255_2_778
10
5.6731338
20
3.3088634
40
1.1890901
50
23.3851661
51
70.7005598
0
ARC
8
DEFAULT_255_2_778
10
5.4355636
20
3.1934512
40
1.4530006
50
13.4698789
51
23.8440857
0
ARC
8
DEFAULT_255_2_778
10
9.3285504
20
3.2087179
40
1.4178789
50
149.3724223
51
166.8243688
0
ARC
8
DEFAULT_255_2_778
10
9.1216355
20
3.3195355
40
1.1834153
50
99.515812
51
148.8855633
0
ARC
8
DEFAULT_255_2_778
10
9.2342483
20
2.8599213
40
1.6556941
50
89.7941843
51
100.7298536
0
ARC
8
DEFAULT_255_2_778
10
7.6605403
20
13.2550542
40
0.9035521
50
45.124406
51
90.1106194
0
ARC
8
DEFAULT_255_2_778
10
7.6616784
20
13.2539774
40
0.9035134
50
0.0745426
51
45.2237339
0
ARC
8
DEFAULT_255_2_778
10
7.6601395
20
13.2522052
40
0.9050565
50
359.9999629
51
0.1866062
0
ARC
8
DEFAULT_255_2_778
10
7.6176534
20
13.2505709
40
0.9475438
50
0.0075999
51
0.0987867
0
ARC
8
DEFAULT_255_2_778
10
7.660476
20
13.2505536
40
0.9047211
50
314.9986957
51
0.0090572
0
ARC
8
DEFAULT_255_2_778
10
7.6602335
20
13.2506978
40
0.9049945
50
270.0043574
51
315.0030972
0
ARC
8
DEFAULT_255_2_778
10
7.6599259
20
12.9132061
40
0.5675028
50
269.8859038
51
270.0380029
0
ARC
8
DEFAULT_255_2_778
10
7.6570423
20
13.2493158
40
0.9036129
50
225.2936666
51
270.1111843
0
ARC
8
DEFAULT_255_2_778
10
7.6559511
20
13.2504484
40
0.9036515
50
180.076306
51
225.3933575
0
ARC
8
DEFAULT_255_2_778
10
7.6644491
20
13.252204
40
0.9121534
50
179.9999631
51
180.1858746
0
ARC
8
DEFAULT_255_2_778
10
7.6557456
20
13.2539751
40
0.9034515
50
135.2894551
51
180.112278
0
ARC
8
DEFAULT_255_2_778
10
7.6570142
20
13.2548899
40
0.9037107
50
90.074694
51
135.3872631
0
ARC
8
DEFAULT_255_2_778
10
7.6587952
20
13.2464513
40
0.9121534
50
89.9999631
51
90.1858746
0
ARC
8
DEFAULT_255_2_778
10
8.5558616
20
9.2365622
40
2.4531155
50
24.4350729
51
55.8090715
0
ARC
8
DEFAULT_255_2_778
10
8.2625708
20
9.1139784
40
2.7708616
50
12.532471
51
24.2340997
0
ARC
8
DEFAULT_255_2_778
10
7.5925331
20
8.9621988
40
3.4578705
50
4.2717747
51
12.5783646
0
ARC
8
DEFAULT_255_2_778
10
6.8315914
20
8.8977399
40
4.2215065
50
359.9411598
51
4.3749139
0
ARC
8
DEFAULT_255_2_778
10
6.7844345
20
8.9018312
40
4.2686696
50
352.320706
51
359.8868958
0
ARC
8
DEFAULT_255_2_778
10
6.1040623
20
8.9900201
40
4.9547257
50
346.424638
51
352.3613966
0
ARC
8
DEFAULT_255_2_778
10
5.3671749
20
9.1755397
40
5.7145768
50
336.33258
51
346.3507313
0
ARC
8
DEFAULT_255_2_778
10
4.9833175
20
9.3334107
40
6.1295294
50
329.8126476
51
336.4213636
0
ARC
8
DEFAULT_255_2_778
10
10.0337102
20
5.8490231
40
0.4725227
50
58.3586509
51
80.5370501
0
ARC
8
DEFAULT_255_2_778
10
9.7240514
20
4.3243605
40
2.0280887
50
78.9893926
51
82.9797875
0
ARC
8
DEFAULT_255_2_778
10
11.9055847
20
21.3732623
40
15.1598438
50
262.1860507
51
262.6718726
0
ARC
8
DEFAULT_255_2_778
10
10.3294971
20
9.8220714
40
3.5016403
50
260.6548509
51
262.0386327
0
ARC
8
DEFAULT_255_2_778
10
9.8045936
20
6.6561065
40
0.2924846
50
249.8727297
51
261.4077258
0
ARC
8
DEFAULT_255_2_778
10
10.0077343
20
7.1751981
40
0.849864
50
241.8803227
51
249.0561285
0
ARC
8
DEFAULT_255_2_778
10
7.4324371
20
2.1638787
40
4.784578
50
62.9651741
51
63.4236033
0
ARC
8
DEFAULT_255_2_778
10
9.2163526
20
5.7620788
40
0.7685961
50
62.3518163
51
74.9889694
0
ARC
8
DEFAULT_255_2_778
10
9.280028
20
5.9658959
40
0.5553101
50
75.8879819
51
90.1271358
0
ARC
8
DEFAULT_255_2_778
10
9.276735
20
5.8875039
40
0.6337041
50
89.8136774
51
102.7352739
0
ARC
8
DEFAULT_255_2_778
10
9.3048249
20
5.7954091
40
0.7297599
50
103.2924733
51
115.5036139
0
ARC
8
DEFAULT_255_2_778
10
9.5964626
20
5.146248
40
1.4413275
50
114.8561187
51
115.8903262
0
ARC
8
DEFAULT_255_2_778
10
7.9414969
20
8.4454406
40
2.2498885
50
294.0081219
51
297.1195943
0
ARC
8
DEFAULT_255_2_778
10
8.6857278
20
6.7994581
40
0.4436174
50
288.6521463
51
292.6969142
0
ARC
8
DEFAULT_255_2_778
10
8.73533
20
6.6486634
40
0.2848817
50
278.4913888
51
288.8996204
0
ARC
8
DEFAULT_255_2_778
10
8.3385518
20
9.4695119
40
3.1334895
50
275.9282285
51
278.0507175
0
ARC
8
DEFAULT_255_2_778
10
7.2581436
20
19.9922791
40
13.7115742
50
275.4448768
51
275.8772974
0
ARC
8
DEFAULT_255_2_778
10
8.6793094
20
4.8569464
40
1.4904726
50
94.6218648
51
100.9957548
0
ARC
8
DEFAULT_255_2_778
10
8.4501354
20
5.9875339
40
0.3370583
50
99.4108121
51
133.5056168
0
ARC
8
DEFAULT_255_2_778
10
8.5689456
20
5.9065312
40
0.4785692
50
137.1487864
51
156.642028
0
ARC
8
DEFAULT_255_2_778
10
8.9016236
20
5.7416955
40
0.8495581
50
155.3316305
51
161.6305887
0
ARC
8
DEFAULT_255_2_778
10
8.8946446
20
5.7405238
40
0.8433104
50
161.4056116
51
170.0168637
0
ARC
8
DEFAULT_255_2_778
10
8.8133624
20
5.7589816
40
0.7600702
50
170.3249764
51
170.4636708
0
ARC
8
DEFAULT_255_2_778
10
7.2648947
20
5.9129353
40
0.7993927
50
350.8636861
51
357.9905153
0
ARC
8
DEFAULT_255_2_778
10
8.9044514
20
5.6565213
40
0.8601079
50
171.3415989
51
178.9218915
0
ARC
8
DEFAULT_255_2_778
10
8.5950948
20
4.4727297
40
1.1308663
50
119.1358804
51
143.3258343
0
ARC
8
DEFAULT_255_2_778
10
9.0052685
20
4.1518314
40
1.6515514
50
142.8958876
51
153.7689243
0
ARC
8
DEFAULT_255_2_778
10
5.6214897
20
4.0000071
40
1.8894873
50
27.8193984
51
37.1438946
0
ARC
8
DEFAULT_255_2_778
10
5.9044066
20
4.2098241
40
1.537281
50
37.2773608
51
51.1641518
0
ARC
8
DEFAULT_255_2_778
10
5.7553857
20
4.026336
40
1.7736583
50
51.1313498
51
55.032273
0
ARC
8
DEFAULT_255_2_778
10
6.0497815
20
5.7333043
40
0.7232943
50
356.7266679
51
13.6671154
0
ARC
8
DEFAULT_255_2_778
10
5.6066802
20
5.7181017
40
1.1609294
50
9.2246093
51
15.5206014
0
ARC
8
DEFAULT_255_2_778
10
6.30139
20
5.9344024
40
0.434258
50
12.5480763
51
46.8659038
0
ARC
8
DEFAULT_255_2_778
10
6.3508727
20
5.982057
40
0.3656672
50
47.4187797
51
84.3419587
0
ARC
8
DEFAULT_255_2_778
10
6.0868101
20
4.438876
40
1.9305366
50
81.0567356
51
84.9343283
0
ARC
8
DEFAULT_255_2_778
10
7.5643434
20
20.0753572
40
13.7756345
50
264.1249161
51
264.5554216
0
ARC
8
DEFAULT_255_2_778
10
6.4785212
20
9.4958675
40
3.1405709
50
261.9550006
51
264.0738817
0
ARC
8
DEFAULT_255_2_778
10
6.0812001
20
6.6676209
40
0.2845634
50
251.2113561
51
261.470852
0
ARC
8
DEFAULT_255_2_778
10
6.2689571
20
7.1681394
40
0.8190502
50
242.1517708
51
250.0538182
0
ARC
8
DEFAULT_255_2_778
10
4.208247
20
3.0902038
40
3.7501494
50
63.4180623
51
64.0482282
0
ARC
8
DEFAULT_255_2_778
10
5.4802705
20
5.728854
40
0.8209907
50
63.2836443
51
74.1749741
0
ARC
8
DEFAULT_255_2_778
10
5.5410971
20
5.9168532
40
0.6235716
50
74.8414931
51
88.1774037
0
ARC
8
DEFAULT_255_2_778
10
5.537679
20
5.856703
40
0.6838016
50
88.0514387
51
90.0069713
0
ARC
8
DEFAULT_255_2_778
10
5.5348416
20
5.9313956
40
0.6091153
50
89.7409285
51
102.0218809
0
ARC
8
DEFAULT_255_2_778
10
5.5409373
20
5.9268485
40
0.6148528
50
102.4892098
51
115.7062531
0
ARC
8
DEFAULT_255_2_778
10
5.7457748
20
5.482862
40
1.1037769
50
115.290055
51
117.4691586
0
ARC
8
DEFAULT_255_2_778
10
6.0161098
20
4.9557706
40
1.6961445
50
117.3585344
51
117.4239099
0
ARC
8
DEFAULT_255_2_778
10
5.9868023
20
5.0120973
40
1.6326494
50
117.4213972
51
117.4881015
0
ARC
8
DEFAULT_255_2_778
10
5.9584337
20
5.0661938
40
1.5715662
50
117.4809212
51
117.5489827
0
ARC
8
DEFAULT_255_2_778
10
6.0713455
20
4.8494769
40
1.8159331
50
117.5450817
51
117.6029366
0
ARC
8
DEFAULT_255_2_778
10
4.4570437
20
7.8612595
40
1.601405
50
294.9822478
51
298.8580716
0
ARC
8
DEFAULT_255_2_778
10
5.0084168
20
6.6832682
40
0.3007712
50
279.005406
51
294.5486555
0
ARC
8
DEFAULT_255_2_778
10
4.4426668
20
10.0980938
40
3.7621378
50
277.6638313
51
279.3749036
0
ARC
8
DEFAULT_255_2_778
10
0.7285621
20
37.8506083
40
31.7620767
50
277.4429102
51
277.6274594
0
ARC
8
DEFAULT_255_2_778
10
5.0319273
20
4.7447011
40
1.6224854
50
96.6880834
51
102.8605227
0
ARC
8
DEFAULT_255_2_778
10
4.7627692
20
5.9092133
40
0.4272885
50
102.429971
51
122.2446125
0
ARC
8
DEFAULT_255_2_778
10
10.250902
20
9.4875758
40
6.5591747
50
195.855757
51
209.3704029
0
ARC
8
DEFAULT_255_2_778
10
9.2279763
20
9.1643778
40
5.4869557
50
193.8900144
51
195.5276518
0
ARC
8
DEFAULT_255_2_778
10
8.6170178
20
9.0231172
40
4.8599613
50
186.7565184
51
194.0024386
0
ARC
8
DEFAULT_255_2_778
10
7.7652397
20
8.9198513
40
4.0019502
50
180.1008875
51
186.7230644
0
ARC
8
DEFAULT_255_2_778
10
7.6804424
20
8.923374
40
3.9171609
50
172.3127612
51
180.1545963
0
ARC
8
DEFAULT_255_2_778
10
6.8861672
20
9.0323903
40
3.1154416
50
162.1401895
51
172.3456803
0
ARC
8
DEFAULT_255_2_778
10
6.3734975
20
9.1988307
40
2.5764324
50
147.4504481
51
162.1666407
0
ARC
8
DEFAULT_255_2_778
10
6.2865572
20
9.2395286
40
2.4812829
50
124.4761103
51
147.1624748
0
ARC
8
DEFAULT_255_2_778
10
5.2639221
20
12.0999548
40
0.4823724
50
301.8258257
51
307.9716073
0
ARC
8
DEFAULT_255_2_778
10
5.3239858
20
12.0211714
40
0.3833122
50
308.1396197
51
309.9476291
0
ARC
8
DEFAULT_255_2_778
10
5.4136808
20
11.9201226
40
0.2482833
50
309.0520077
51
323.7604765
0
ARC
8
DEFAULT_255_2_778
10
5.5434348
20
11.8281524
40
0.0892963
50
322.1388999
51
354.0406868
0
ARC
8
DEFAULT_255_2_778
10
5.5808357
20
11.8213074
40
0.0514702
50
357.2984643
51
359.9815705
0
ARC
8
DEFAULT_255_2_778
10
5.5804441
20
11.8190742
40
0.051909
50
2.4474281
51
71.5319243
0
ARC
8
DEFAULT_255_2_778
10
5.5236877
20
11.6979086
40
0.1854586
50
66.7528936
51
84.8324205
0
ARC
8
DEFAULT_255_2_778
10
5.4947247
20
11.470551
40
0.4145852
50
83.6759667
51
90.2874173
0
ARC
8
DEFAULT_255_2_778
10
5.4933878
20
11.2621267
40
0.6230048
50
90.0683122
51
92.9429326
0
ARC
8
DEFAULT_255_2_778
10
5.5003839
20
11.1146794
40
0.770617
50
92.8995708
51
94.4199193
0
ARC
8
DEFAULT_255_2_778
10
7.3631517
20
12.868213
40
2.5007565
50
157.8404312
51
180.0414328
0
ARC
8
DEFAULT_255_2_778
10
7.4035186
20
12.8501833
40
2.5449429
50
100.1855294
51
157.8072881
0
ARC
8
DEFAULT_255_2_778
10
7.3881254
20
12.8807662
40
2.5121387
50
89.982429
51
99.9633275
0
ARC
8
DEFAULT_255_2_778
10
7.4159228
20
15.9636861
40
0.571421
50
267.2890203
51
267.5308817
0
ARC
8
DEFAULT_255_2_778
10
7.4447662
20
16.6284482
40
1.2368086
50
267.5226311
51
267.7495097
0
ARC
8
DEFAULT_255_2_778
10
7.4692773
20
17.2520189
40
1.8608609
50
267.7493373
51
268.0661022
0
ARC
8
DEFAULT_255_2_778
10
7.4916957
20
17.9110827
40
2.5203059
50
268.0623624
51
268.3784627
0
ARC
8
DEFAULT_255_2_778
10
7.5013473
20
18.2417777
40
2.8511416
50
268.3726353
51
268.4826356
0
ARC
8
DEFAULT_255_2_778
10
7.511456
20
18.6310072
40
3.2405023
50
268.4862006
51
268.8390805
0
ARC
8
DEFAULT_255_2_778
10
7.5211316
20
19.1077677
40
3.7173611
50
268.8388625
51
269.2563195
0
ARC
8
DEFAULT_255_2_778
10
7.5260631
20
19.4775321
40
4.0871583
50
269.2544718
51
269.6206283
0
ARC
8
DEFAULT_255_2_778
10
7.5280858
20
19.777967
40
4.3876
50
269.6201912
51
270.0011174
0
ARC
8
DEFAULT_255_2_778
10
7.5276675
20
20.0828112
40
4.6924443
50
270.0061525
51
270.9059907
0
ARC
8
DEFAULT_255_2_778
10
7.5240942
20
20.3183118
40
4.927972
50
270.9042366
51
272.2396709
0
ARC
8
DEFAULT_255_2_778
10
7.5267363
20
20.2651996
40
4.8747972
50
272.2330367
51
273.9206772
0
ARC
8
DEFAULT_255_2_778
10
7.5524258
20
19.9044187
40
4.5131042
50
273.908479
51
276.1883106
0
ARC
8
DEFAULT_255_2_778
10
7.6436167
20
19.1107077
40
3.7141915
50
276.1096327
51
280.796478
0
ARC
8
DEFAULT_255_2_778
10
7.7438643
20
18.54867
40
3.1433313
50
280.9205788
51
281.2993764
0
ARC
8
DEFAULT_255_2_778
10
7.9462648
20
17.662002
40
2.2343295
50
280.6647519
51
292.9915995
0
ARC
8
DEFAULT_255_2_778
10
8.352827
20
16.6913488
40
1.1819914
50
293.2275528
51
307.0910041
0
ARC
8
DEFAULT_255_2_778
10
8.6577012
20
16.2983803
40
0.6846924
50
306.5722459
51
335.1096251
0
ARC
8
DEFAULT_255_2_778
10
7.911486
20
15.2995622
40
1.5409571
50
20.0212775
51
27.4626008
0
ARC
8
DEFAULT_255_2_778
10
8.1570101
20
15.3886434
40
1.2797725
50
11.0198286
51
20.0374927
0
ARC
8
DEFAULT_255_2_778
10
8.3417673
20
15.4245506
40
1.0915585
50
0.1184221
51
11.023558
0
ARC
8
DEFAULT_255_2_778
10
8.4672018
20
15.4239749
40
0.9661257
50
340.917864
51
0.1679374
0
ARC
8
DEFAULT_255_2_778
10
8.4648824
20
15.4292533
40
0.9700524
50
313.7141023
51
340.6680129
0
ARC
8
DEFAULT_255_2_778
10
8.4378457
20
15.4530859
40
1.0059673
50
313.0531409
51
313.8890873
0
ARC
8
DEFAULT_255_2_778
10
8.7792284
20
13.9490292
40
0.842972
50
41.9402772
51
65.813878
0
ARC
8
DEFAULT_255_2_778
10
8.0421203
20
13.2648005
40
1.848644
50
29.3728224
51
42.4457126
0
ARC
8
DEFAULT_255_2_778
10
7.1744739
20
12.7354137
40
2.8646337
50
28.0255309
51
30.0880817
0
ARC
8
DEFAULT_255_2_778
10
11.6282862
20
12.7552983
40
2.3376337
50
145.4388287
51
168.5856062
0
ARC
8
DEFAULT_255_2_778
10
11.6781996
20
12.7359948
40
2.3903971
50
168.3688372
51
178.0006397
0
ARC
8
DEFAULT_255_2_778
10
11.602849
20
12.7400461
40
2.3149514
50
178.0357839
51
179.9978609
0
ARC
8
DEFAULT_255_2_778
10
11.2419442
20
12.7048543
40
1.9543651
50
178.9656987
51
217.5655127
0
ARC
8
DEFAULT_255_2_778
10
11.0399825
20
12.5873173
40
1.7228809
50
218.5620086
51
230.0936977
0
LINE
8
DEFAULT_255_2_778
10
9.5295958
20
4.5156046
11
10.0695958
21
2.5485046
0
LINE
8
DEFAULT_255_2_778
10
4.7271958
20
2.5485046
11
5.2671958
21
4.5156046
0
LINE
8
DEFAULT_255_2_778
10
5.2671958
20
4.5156046
11
5.5563958
21
4.5156046
0
LINE
8
DEFAULT_255_2_778
10
6.8485958
20
3.5319046
11
7.9479958
21
3.5319046
0
LINE
8
DEFAULT_255_2_778
10
9.2401958
20
4.5156046
11
9.5295958
21
4.5156046
0
LINE
8
DEFAULT_255_2_778
10
7.6587958
20
14.1586046
11
7.6587958
21
14.1586046
0
LINE
8
DEFAULT_255_2_778
10
8.0444958
20
5.6727046
11
8.0444958
21
5.4605046
0
LINE
8
DEFAULT_255_2_778
10
7.5237958
20
4.8818046
11
7.4081958
21
4.6889046
0
LINE
8
DEFAULT_255_2_778
10
7.4081958
20
4.6889046
11
7.2925958
21
4.8818046
0
LINE
8
DEFAULT_255_2_778
10
6.7718958
20
5.4798046
11
6.7718958
21
5.6920046
0
LINE
8
DEFAULT_255_2_778
10
4.8819958
20
11.2850046
11
5.5182958
21
11.6901046
0
LINE
8
DEFAULT_255_2_778
10
5.4409958
20
11.8830046
11
4.8623958
21
11.8250046
0
LINE
8
DEFAULT_255_2_778
10
4.8623958
20
11.8250046
11
4.8623958
21
12.8664046
0
LINE
8
DEFAULT_255_2_778
10
9.9346958
20
11.2657046
11
9.9343958
21
11.2657046
0
ARC
8
DEFAULT_255_2_778
10
10.2506591
20
9.4684554
40
6.5591747
50
195.855757
51
209.3704029
0
ARC
8
DEFAULT_255_2_778
10
9.2277335
20
9.1452574
40
5.4869557
50
193.8900144
51
195.5276518
0
ARC
8
DEFAULT_255_2_778
10
8.616775
20
9.0039968
40
4.8599613
50
186.7565184
51
194.0024386
0
ARC
8
DEFAULT_255_2_778
10
7.7649969
20
8.900731
40
4.0019502
50
180.1008875
51
186.7230644
0
ARC
8
DEFAULT_255_2_778
10
7.6801996
20
8.9042536
40
3.9171609
50
172.3127612
51
180.1545963
0
ARC
8
DEFAULT_255_2_778
10
6.8859244
20
9.0132699
40
3.1154416
50
162.1401895
51
172.3456803
0
ARC
8
DEFAULT_255_2_778
10
6.3732547
20
9.1797103
40
2.5764324
50
147.4504481
51
162.1666407
0
ARC
8
DEFAULT_255_2_778
10
6.2863144
20
9.2204082
40
2.4812829
50
124.4761103
51
147.1624748
0
ARC
8
DEFAULT_255_2_778
10
5.2636793
20
12.0808344
40
0.4823724
50
301.8258257
51
307.9716073
0
ARC
8
DEFAULT_255_2_778
10
5.323743
20
12.002051
40
0.3833122
50
308.1396197
51
309.9476291
0
ARC
8
DEFAULT_255_2_778
10
5.413438
20
11.9010022
40
0.2482833
50
309.0520077
51
323.7604765
0
ARC
8
DEFAULT_255_2_778
10
5.543192
20
11.809032
40
0.0892963
50
322.1388999
51
354.0406868
0
ARC
8
DEFAULT_255_2_778
10
5.5805929
20
11.802187
40
0.0514702
50
357.2984643
51
359.9815705
0
ARC
8
DEFAULT_255_2_778
10
5.5802013
20
11.7999538
40
0.051909
50
2.4474281
51
71.5319243
0
ARC
8
DEFAULT_255_2_778
10
5.5234448
20
11.6787882
40
0.1854586
50
66.7528936
51
84.8324205
0
ARC
8
DEFAULT_255_2_778
10
5.4944819
20
11.4514306
40
0.4145852
50
83.6759667
51
90.2874173
0
ARC
8
DEFAULT_255_2_778
10
5.4931449
20
11.2430063
40
0.6230048
50
90.0683122
51
92.9429326
0
ARC
8
DEFAULT_255_2_778
10
5.5001411
20
11.095559
40
0.770617
50
92.8995708
51
94.4199193
0
ARC
8
DEFAULT_255_2_778
10
7.3473665
20
12.8503456
40
2.4852154
50
159.2282678
51
180.0705783
0
ARC
8
DEFAULT_255_2_778
10
7.4533276
20
12.7953025
40
2.6038469
50
123.4133634
51
158.9227006
0
ARC
8
DEFAULT_255_2_778
10
7.4739897
20
13.7219926
40
1.9157679
50
139.397663
51
152.3024
0
ARC
8
DEFAULT_255_2_778
10
7.656917
20
13.6402539
40
2.1157647
50
152.6450507
51
175.6306908
0
ARC
8
DEFAULT_255_2_778
10
7.9359296
20
13.6027807
40
2.3968753
50
175.2456441
51
178.5392237
0
ARC
8
DEFAULT_255_2_778
10
7.9928571
20
13.6010264
40
2.4538289
50
178.5321587
51
180.0015908
0
ARC
8
DEFAULT_255_2_778
10
8.1673639
20
13.60885
40
2.6283475
50
180.1720333
51
200.3786349
0
ARC
8
DEFAULT_255_2_778
10
7.9779065
20
13.53008
40
2.4233312
50
200.192641
51
213.1406761
0
ARC
8
DEFAULT_255_2_778
10
7.548857
20
13.2471053
40
1.909375
50
213.0691522
51
226.2742785
0
ARC
8
DEFAULT_255_2_778
10
7.1908497
20
12.8685945
40
1.3883874
50
226.154074
51
242.9498732
0
ARC
8
DEFAULT_255_2_778
10
9.0269373
20
7.6124444
40
4.7165648
50
121.543977
51
125.7587928
0
ARC
8
DEFAULT_255_2_778
10
8.5743588
20
8.239655
40
3.9431182
50
125.7481175
51
130.7506411
0
ARC
8
DEFAULT_255_2_778
10
8.1628598
20
8.7162929
40
3.3134242
50
130.7402641
51
136.7123816
0
ARC
8
DEFAULT_255_2_778
10
7.8062248
20
9.0515409
40
2.8239557
50
136.7023038
51
144.0118729
0
ARC
8
DEFAULT_255_2_778
10
7.5273247
20
9.2539357
40
2.479356
50
144.0090748
51
153.3806465
0
ARC
8
DEFAULT_255_2_778
10
7.4036438
20
9.3187373
40
2.3397512
50
153.4422625
51
168.4042206
0
ARC
8
DEFAULT_255_2_778
10
7.67113
20
9.2688747
40
2.6118053
50
168.5121816
51
180.1895876
0
ARC
8
DEFAULT_255_2_778
10
8.3693835
20
9.2728478
40
3.3100686
50
180.2183677
51
189.5810661
0
ARC
8
DEFAULT_255_2_778
10
9.4782744
20
9.4555968
40
4.433911
50
189.5246327
51
196.0081492
0
ARC
8
DEFAULT_255_2_778
10
11.0229919
20
9.8964925
40
6.0403162
50
195.9873363
51
200.938658
0
ARC
8
DEFAULT_255_2_778
10
13.4089292
20
10.8102887
40
8.5952565
50
200.9439516
51
204.9644632
0
ARC
8
DEFAULT_255_2_778
10
15.633076
20
11.8201775
40
11.0378546
50
204.8441393
51
205.5807834
0
ARC
8
DEFAULT_255_2_778
10
17.6195533
20
12.7792726
40
13.2437354
50
205.6126007
51
207.2281489
0
ARC
8
DEFAULT_255_2_778
10
21.7361207
20
14.8964253
40
17.8728241
50
207.2252049
51
208.4346021
0
ARC
8
DEFAULT_255_2_778
10
6.0706605
20
6.7288528
40
0.3464736
50
251.8389819
51
261.5007607
0
ARC
8
DEFAULT_255_2_778
10
6.3920644
20
7.619313
40
1.2930526
50
244.8771125
51
250.6049861
0
ARC
8
DEFAULT_255_2_778
10
4.8280174
20
4.1317953
40
2.5294014
50
66.3400747
51
66.5493326
0
ARC
8
DEFAULT_255_2_778
10
5.4769015
20
5.6633004
40
0.8662806
50
65.6108634
51
76.0990524
0
ARC
8
DEFAULT_255_2_778
10
5.5391476
20
5.8817473
40
0.6393265
50
76.8108686
51
89.698924
0
ARC
8
DEFAULT_255_2_778
10
5.5373625
20
5.8318645
40
0.6892197
50
89.5723243
51
90.0007932
0
ARC
8
DEFAULT_255_2_778
10
5.5345836
20
5.9113595
40
0.6097311
50
89.739759
51
102.010941
0
ARC
8
DEFAULT_255_2_778
10
5.5404638
20
5.9077455
40
0.6145099
50
102.4770821
51
115.6977634
0
ARC
8
DEFAULT_255_2_778
10
5.7444714
20
5.4654408
40
1.1015592
50
115.2835328
51
117.4656718
0
ARC
8
DEFAULT_255_2_778
10
5.9029708
20
5.1539502
40
1.4510467
50
117.3460204
51
117.4223585
0
ARC
8
DEFAULT_255_2_778
10
5.9848719
20
4.9957702
40
1.6291721
50
117.417053
51
117.4838294
0
ARC
8
DEFAULT_255_2_778
10
5.9567561
20
5.049697
40
1.568356
50
117.4817986
51
117.5499275
0
ARC
8
DEFAULT_255_2_778
10
6.5902173
20
3.8355981
40
2.9377753
50
117.551588
51
117.5873121
0
ARC
8
DEFAULT_255_2_778
10
4.4561388
20
7.8433357
40
1.6029908
50
294.9874274
51
298.8550259
0
ARC
8
DEFAULT_255_2_778
10
5.008441
20
6.6635666
40
0.3003528
50
278.966488
51
294.558273
0
ARC
8
DEFAULT_255_2_778
10
4.442424
20
10.0787734
40
3.7621378
50
277.6638313
51
279.3749036
0
ARC
8
DEFAULT_255_2_778
10
0.7283193
20
37.8312879
40
31.7620767
50
277.4429102
51
277.6274594
0
ARC
8
DEFAULT_255_2_778
10
5.0316845
20
4.7253808
40
1.6224854
50
96.6880834
51
102.8605227
0
ARC
8
DEFAULT_255_2_778
10
4.7625264
20
5.8898929
40
0.4272885
50
102.429971
51
122.2446125
0
ARC
8
DEFAULT_255_2_778
10
7.9115526
20
15.2611481
40
1.5409459
50
20.0215813
51
27.4625521
0
ARC
8
DEFAULT_255_2_778
10
8.1571032
20
15.3502405
40
1.2797327
50
11.0203102
51
20.037796
0
ARC
8
DEFAULT_255_2_778
10
8.3419049
20
15.38616
40
1.0914726
50
0.1184629
51
11.0239371
0
ARC
8
DEFAULT_255_2_778
10
8.4673982
20
15.3855826
40
0.9659812
50
340.9141318
51
0.1680981
0
ARC
8
DEFAULT_255_2_778
10
8.4650041
20
15.3909009
40
0.9699918
50
313.6781848
51
340.6634966
0
ARC
8
DEFAULT_255_2_778
10
8.4367808
20
15.4159818
40
1.0076271
50
313.0445127
51
313.8539414
0
ARC
8
DEFAULT_255_2_778
10
10.8367511
20
19.2390003
40
4.8703077
50
249.3656191
51
249.4173303
0
ARC
8
DEFAULT_255_2_778
10
10.7825143
20
19.0950391
40
4.7164687
50
249.3138003
51
249.3659223
0
ARC
8
DEFAULT_255_2_778
10
10.9566859
20
19.5559322
40
5.2091736
50
249.2662724
51
249.3123452
0
ARC
8
DEFAULT_255_2_778
10
10.646612
20
18.7376682
40
4.33413
50
249.2162456
51
249.2703169
0
ARC
8
DEFAULT_255_2_778
10
10.974351
20
19.6015356
40
5.2580778
50
249.1740732
51
249.2176015
0
ARC
8
DEFAULT_255_2_778
10
11.0576597
20
19.8209504
40
5.492776
50
249.1348622
51
249.175564
0
ARC
8
DEFAULT_255_2_778
10
11.2006619
20
20.1956066
40
5.8937958
50
249.0775953
51
249.1330803
0
ARC
8
DEFAULT_255_2_778
10
11.3089306
20
20.4785525
40
6.1967488
50
249.0257996
51
249.0767717
0
ARC
8
DEFAULT_255_2_778
10
2.8608422
20
-1.2969238
40
17.1601507
50
68.7124289
51
69.1349962
0
ARC
8
DEFAULT_255_2_778
10
8.4446534
20
13.336373
40
1.4977133
50
69.3543915
51
71.8846424
0
ARC
8
DEFAULT_255_2_778
10
8.6366733
20
13.9259575
40
0.8776483
50
71.8312247
51
81.3371974
0
ARC
8
DEFAULT_255_2_778
10
8.6149811
20
13.7943595
40
1.0110136
50
81.2451832
51
81.8588487
0
ARC
8
DEFAULT_255_2_778
10
8.7588262
20
14.8325321
40
0.0373539
50
176.6450692
51
268.9672956
0
ARC
8
DEFAULT_255_2_778
10
8.7765121
20
14.8340469
40
0.05498
50
151.2510048
51
179.30057
0
ARC
8
DEFAULT_255_2_778
10
8.8036841
20
14.8182278
40
0.0864149
50
123.9048346
51
150.7204299
0
ARC
8
DEFAULT_255_2_778
10
8.8248857
20
14.7917346
40
0.1202631
50
123.7031241
51
125.2476429
0
ARC
8
DEFAULT_255_2_778
10
8.1399675
20
15.8480337
40
1.1386687
50
302.8814076
51
342.7504064
0
ARC
8
DEFAULT_255_2_778
10
7.9632738
20
15.875669
40
1.3158669
50
343.8827336
51
357.4207778
0
ARC
8
DEFAULT_255_2_778
10
7.588067
20
15.9038964
40
1.6920016
50
357.0376433
51
0.0291196
0
ARC
8
DEFAULT_255_2_778
10
7.4086388
20
15.9043181
40
1.8714296
50
0.0134181
51
1.9354684
0
ARC
8
DEFAULT_255_2_778
10
7.3176544
20
15.9017127
40
1.9624501
50
1.9217758
51
2.0462475
0
ARC
8
DEFAULT_255_2_778
10
7.4229381
20
1.2125266
40
0.9032874
50
270.7169057
51
273.9494361
0
ARC
8
DEFAULT_255_2_778
10
7.4229879
20
1.208504
40
0.8992644
50
270.0000223
51
270.7169402
0
ARC
8
DEFAULT_255_2_778
10
7.4251701
20
1.2199075
40
0.9106704
50
231.3199424
51
269.8627259
0
ARC
8
DEFAULT_255_2_778
10
7.5287583
20
1.3506018
40
1.0774365
50
211.1310415
51
231.3632399
0
ARC
8
DEFAULT_255_2_778
10
7.7878816
20
1.5092182
40
1.3812481
50
196.7618777
51
211.2060235
0
ARC
8
DEFAULT_255_2_778
10
8.2079126
20
1.6381784
40
1.8206255
50
185.9438444
51
196.8357111
0
ARC
8
DEFAULT_255_2_778
10
8.6930383
20
1.6948455
40
2.3090192
50
179.90116
51
186.0958516
0
ARC
8
DEFAULT_255_2_778
10
8.9925751
20
1.6985391
40
2.6085527
50
178.5268136
51
179.9936373
0
ARC
8
DEFAULT_255_2_778
10
9.0910308
20
1.696198
40
2.707036
50
177.8769053
51
178.5308545
0
ARC
8
DEFAULT_255_2_778
10
4.7674317
20
2.4501194
40
1.7454301
50
331.5767745
51
338.0075938
0
ARC
8
DEFAULT_255_2_778
10
5.0146406
20
2.3157081
40
1.4640438
50
323.8970243
51
331.5979893
0
ARC
8
DEFAULT_255_2_778
10
5.205079
20
2.1764248
40
1.2281062
50
314.9384493
51
323.9120312
0
ARC
8
DEFAULT_255_2_778
10
5.3399006
20
2.0407035
40
1.0368029
50
304.0422711
51
314.962251
0
ARC
8
DEFAULT_255_2_778
10
5.4244572
20
1.9146463
40
0.8850137
50
290.0641912
51
304.0747475
0
ARC
8
DEFAULT_255_2_778
10
5.4553637
20
1.8348814
40
0.7994884
50
281.1615609
51
289.9448269
0
ARC
8
DEFAULT_255_2_778
10
5.4632966
20
1.7954628
40
0.7592798
50
272.3034539
51
281.1500638
0
ARC
8
DEFAULT_255_2_778
10
5.4643382
20
1.7783051
40
0.7420941
50
270.0009601
51
272.2763372
0
ARC
8
DEFAULT_255_2_778
10
5.4658152
20
1.7740957
40
0.7378861
50
226.1600138
51
269.8862848
0
ARC
8
DEFAULT_255_2_778
10
5.5516672
20
1.8691225
40
0.8659006
50
208.7640437
51
226.4178723
0
ARC
8
DEFAULT_255_2_778
10
5.7046971
20
1.9539634
40
1.0408739
50
195.2717653
51
208.8044345
0
ARC
8
DEFAULT_255_2_778
10
5.9296385
20
2.0163854
40
1.2743143
50
184.6429526
51
195.315314
0
ARC
8
DEFAULT_255_2_778
10
6.14891
20
2.0378424
40
1.4946075
50
179.955861
51
184.7823956
0
ARC
8
DEFAULT_255_2_778
10
6.3163979
20
2.0379745
40
1.6620953
50
175.8669353
51
179.9648614
0
ARC
8
DEFAULT_255_2_778
10
6.4918587
20
2.0254404
40
1.8380032
50
172.2142796
51
175.8714407
0
ARC
8
DEFAULT_255_2_778
10
6.6793888
20
1.9999018
40
2.0272644
50
168.8629135
51
172.2171408
0
ARC
8
DEFAULT_255_2_778
10
6.8807225
20
1.9603716
40
2.2324421
50
165.7820115
51
168.8655639
0
ARC
8
DEFAULT_255_2_778
10
7.0233445
20
1.9251582
40
2.3793444
50
164.8077935
51
165.803561
0
ARC
8
DEFAULT_255_2_778
10
5.5689475
20
3.0117052
40
1.5042318
50
70.6991996
51
90.4797264
0
ARC
8
DEFAULT_255_2_778
10
5.6729656
20
3.3089127
40
1.1893475
50
23.3902687
51
70.6961462
0
ARC
8
DEFAULT_255_2_778
10
5.4352076
20
3.1933515
40
1.4534908
50
13.4806279
51
23.8505617
0
ARC
8
DEFAULT_255_2_778
10
11.5317595
20
1.7428862
40
4.0143388
50
153.8390614
51
158.4726701
0
ARC
8
DEFAULT_255_2_778
10
11.5147385
20
1.750998
40
3.9955289
50
158.4913136
51
164.0142777
0
ARC
8
DEFAULT_255_2_778
10
11.7360182
20
1.6880897
40
4.2255766
50
164.0205737
51
167.96912
0
ARC
8
DEFAULT_255_2_778
10
13.7543063
20
1.347704
40
6.2710979
50
168.77115
51
179.9062461
0
ARC
8
DEFAULT_255_2_778
10
23.7175242
20
1.0857821
40
16.2365889
50
179.0394725
51
180.0498408
0
ARC
8
DEFAULT_255_2_778
10
49.5531516
20
1.1165752
40
42.0722341
50
180.0611701
51
180.5082951
0
ARC
8
DEFAULT_255_2_778
10
504.1299228
20
4.6393298
40
496.6626307
50
180.4494522
51
180.454922
0
ARC
8
DEFAULT_255_2_778
10
-55.9216285
20
0.1478248
40
63.4069447
50
0.2354974
51
0.4952817
0
ARC
8
DEFAULT_255_2_778
10
-20.9956054
20
0.309322
40
28.4805585
50
0.0041488
51
0.1994004
0
LINE
8
DEFAULT_255_2_778
10
4.881753
20
11.2658843
11
5.518053
21
11.6709843
0
LINE
8
DEFAULT_255_2_778
10
5.440753
20
11.8638843
11
4.862153
21
11.8058843
0
LINE
8
DEFAULT_255_2_778
10
4.862153
20
11.8058843
11
4.862153
21
12.8472843
0
LINE
8
DEFAULT_255_2_778
10
9.278853
20
15.9717843
11
9.278853
21
15.9717843
0
LINE
8
DEFAULT_255_2_778
10
4.727153
20
2.5486843
11
5.267253
21
4.5158843
0
LINE
8
DEFAULT_255_2_778
10
5.267253
20
4.5158843
11
5.556353
21
4.5158843
0
LINE
8
DEFAULT_255_2_778
10
6.848653
20
3.5321843
11
7.928653
21
3.5321843
0
LINE
8
DEFAULT_255_2_778
10
7.928653
20
3.5321843
11
7.928653
21
3.5127843
0
LINE
8
DEFAULT_255_2_778
10
7.484953
20
0.3113843
11
7.485153
21
0.3113843
0
ARC
8
DEFAULT_255_2_778
10
7.4197491
20
8.2119697
40
2.3210858
50
68.2247906
51
90.2852739
0
ARC
8
DEFAULT_255_2_778
10
7.4720519
20
8.3672824
40
2.1574716
50
35.9974831
51
67.9845827
0
ARC
8
DEFAULT_255_2_778
10
7.245112
20
8.2003517
40
2.4391898
50
20.7632164
51
36.0367161
0
ARC
8
DEFAULT_255_2_778
10
6.8230991
20
8.0384638
40
2.8911851
50
9.3157519
51
20.7982432
0
ARC
8
DEFAULT_255_2_778
10
6.2342485
20
7.9400109
40
3.4882071
50
0.1348767
51
9.3458787
0
ARC
8
DEFAULT_255_2_778
10
5.8735423
20
7.9292823
40
3.8489502
50
359.9991725
51
0.2819432
0
ARC
8
DEFAULT_255_2_778
10
6.4971189
20
7.9333632
40
3.2253763
50
353.3795807
51
359.9265199
0
ARC
8
DEFAULT_255_2_778
10
5.9654022
20
8.0049448
40
3.7618131
50
336.453511
51
353.2302858
0
ARC
8
DEFAULT_255_2_778
10
9.3022308
20
6.1763193
40
0.3444433
50
71.066481
51
84.2244728
0
ARC
8
DEFAULT_255_2_778
10
9.2742143
20
5.7491502
40
0.7724112
50
85.3455477
51
91.0698373
0
ARC
8
DEFAULT_255_2_778
10
9.2577231
20
5.8869509
40
0.6344792
50
89.8131208
51
102.7286154
0
ARC
8
DEFAULT_255_2_778
10
9.2856528
20
5.7954833
40
0.7298872
50
103.2851824
51
115.499718
0
ARC
8
DEFAULT_255_2_778
10
9.5766775
20
5.1476016
40
1.4400369
50
114.8534656
51
115.8888593
0
ARC
8
DEFAULT_255_2_778
10
7.9221122
20
8.445958
40
2.2502528
50
294.0070569
51
297.1204608
0
ARC
8
DEFAULT_255_2_778
10
8.6667254
20
6.7990362
40
0.4429687
50
288.6407761
51
292.6938408
0
ARC
8
DEFAULT_255_2_778
10
8.7161038
20
6.6488714
40
0.2849009
50
278.5361491
51
288.8840408
0
ARC
8
DEFAULT_255_2_778
10
8.3185251
20
9.4803351
40
3.1441294
50
275.9250516
51
278.0421289
0
ARC
8
DEFAULT_255_2_778
10
7.2306192
20
20.0822205
40
13.8016845
50
275.4441918
51
275.8739424
0
ARC
8
DEFAULT_255_2_778
10
8.6600296
20
4.8585059
40
1.489128
50
94.6205832
51
100.9993084
0
ARC
8
DEFAULT_255_2_778
10
8.4311326
20
5.9875611
40
0.3372688
50
99.4240363
51
133.4951955
0
ARC
8
DEFAULT_255_2_778
10
8.5506411
20
5.9063946
40
0.4793988
50
137.1822857
51
156.6381606
0
ARC
8
DEFAULT_255_2_778
10
8.8820505
20
5.7421392
40
0.8489933
50
155.3305858
51
161.6336916
0
ARC
8
DEFAULT_255_2_778
10
8.8717244
20
5.7420452
40
0.8392294
50
161.4054627
51
170.0578826
0
ARC
8
DEFAULT_255_2_778
10
8.6808376
20
5.7789066
40
0.6448536
50
170.3555918
51
170.519044
0
ARC
8
DEFAULT_255_2_778
10
7.2458915
20
5.9131574
40
0.7993927
50
350.8636861
51
357.9905153
0
ARC
8
DEFAULT_255_2_778
10
8.8854482
20
5.6567434
40
0.8601079
50
171.3415989
51
178.9218915
0
ARC
8
DEFAULT_255_2_778
10
8.5761392
20
4.4727691
40
1.1310491
50
119.1334841
51
143.3211883
0
ARC
8
DEFAULT_255_2_778
10
8.9838974
20
4.1537311
40
1.6486861
50
142.8936712
51
153.7848537
0
ARC
8
DEFAULT_255_2_778
10
5.6051166
20
4.0022249
40
1.8861415
50
27.8044863
51
37.1448332
0
ARC
8
DEFAULT_255_2_778
10
5.8856051
20
4.210162
40
1.5370061
50
37.2797333
51
51.1699964
0
ARC
8
DEFAULT_255_2_778
10
5.7352475
20
4.02507
40
1.7754709
50
51.1353014
51
55.0324258
0
LINE
8
DEFAULT_255_2_778
10
6.7527926
20
5.6922267
11
6.7527926
21
5.6946082
0
ARC
8
DEFAULT_255_2_778
10
6.0391234
20
5.7347588
40
0.7147977
50
356.7799674
51
13.7310674
0
ARC
8
DEFAULT_255_2_778
10
5.5928683
20
5.7201138
40
1.1554198
50
9.1790536
51
15.504349
0
ARC
8
DEFAULT_255_2_778
10
6.2825722
20
5.9347866
40
0.4340129
50
12.5333518
51
46.8691363
0
ARC
8
DEFAULT_255_2_778
10
6.3317669
20
5.9820375
40
0.3659145
50
47.4325431
51
84.3162888
0
ARC
8
DEFAULT_255_2_778
10
6.0677031
20
4.4413365
40
1.9283432
50
81.0408082
51
84.9200474
0
ARC
8
DEFAULT_255_2_778
10
7.5502901
20
20.0910039
40
13.7914313
50
264.1112658
51
264.5417762
0
ARC
8
DEFAULT_255_2_778
10
6.4603377
20
9.4958522
40
3.1403657
50
261.9375249
51
264.0596415
0
ARC
8
DEFAULT_255_2_778
10
6.0618364
20
6.6676009
40
0.2841865
50
251.2409912
51
261.512566
0
ARC
8
DEFAULT_255_2_778
10
6.2490486
20
7.1673249
40
0.8177379
50
242.1615556
51
250.0804769
0
ARC
8
DEFAULT_255_2_778
10
4.1899547
20
3.0904712
40
3.7497675
50
63.430174
51
64.0608137
0
ARC
8
DEFAULT_255_2_778
10
5.4611808
20
5.7289431
40
0.8211157
50
63.2966516
51
74.1826472
0
ARC
8
DEFAULT_255_2_778
10
5.5219874
20
5.9169879
40
0.6236592
50
74.8485891
51
88.1779018
0
ARC
8
DEFAULT_255_2_778
10
5.5185699
20
5.856775
40
0.6839518
50
88.0521422
51
90.006478
0
ARC
8
DEFAULT_255_2_778
10
5.4905193
20
6.2535423
40
0.2885436
50
84.436632
51
111.4998878
0
ARC
8
DEFAULT_255_2_778
10
5.4551383
20
6.3783382
40
0.1599785
50
116.0957401
51
116.565528
0
ARC
8
DEFAULT_255_2_778
10
8.832183
20
8.0242448
40
3.7618131
50
186.7697142
51
203.546489
0
ARC
8
DEFAULT_255_2_778
10
8.3004662
20
7.9526632
40
3.2253765
50
180.0734801
51
186.6204193
0
ARC
8
DEFAULT_255_2_778
10
8.6039451
20
7.9157469
40
3.5290048
50
170.2033546
51
179.4677893
0
ARC
8
DEFAULT_255_2_778
10
8.0002896
20
8.0213851
40
2.9161777
50
158.8395354
51
170.2305619
0
ARC
8
DEFAULT_255_2_778
10
7.565471
20
8.1915015
40
2.4492692
50
143.6471352
51
158.8789443
0
ARC
8
DEFAULT_255_2_778
10
7.3451811
20
8.3500931
40
2.1778474
50
96.6228386
51
143.5721164
0
ARC
8
DEFAULT_255_2_778
10
7.406783
20
8.0300601
40
2.5029673
50
89.956287
51
97.1786532
0
LINE
8
DEFAULT_255_2_778
10
8.0254926
20
5.6729267
11
8.0254926
21
5.4607267
0
LINE
8
DEFAULT_255_2_778
10
7.5047926
20
4.8820267
11
7.3890926
21
4.6891267
0
LINE
8
DEFAULT_255_2_778
10
7.3890926
20
4.6891267
11
7.2734926
21
4.8820267
0
LINE
8
DEFAULT_255_2_778
10
6.7527926
20
5.4800267
11
6.7527926
21
5.6922267
0
ARC
8
DEFAULT_255_2_778
10
8.0381251
20
10.277184
40
4.0493268
50
47.6860918
51
57.2391267
0
ARC
8
DEFAULT_255_2_778
10
7.2263615
20
9.0651257
40
5.5079286
50
56.960804
51
60.2118564
0
ARC
8
DEFAULT_255_2_778
10
7.0480672
20
8.7630879
40
5.8586352
50
60.166035
51
60.2614778
0
ARC
8
DEFAULT_255_2_778
10
12.0264607
20
12.6588264
40
2.3902868
50
150.1062108
51
159.8071559
0
ARC
8
DEFAULT_255_2_778
10
11.6794046
20
12.7862085
40
2.0205922
50
159.8002256
51
170.948028
0
ARC
8
DEFAULT_255_2_778
10
11.4397115
20
12.8264237
40
1.7775585
50
171.0126023
51
179.9235477
0
ARC
8
DEFAULT_255_2_778
10
11.3192888
20
12.8284928
40
1.6571341
50
179.989531
51
183.3578758
0
ARC
8
DEFAULT_255_2_778
10
11.6575087
20
12.8230429
40
1.9946141
50
182.6325183
51
195.5633313
0
ARC
8
DEFAULT_255_2_778
10
11.3127885
20
12.7232267
40
1.6357564
50
195.4348928
51
208.2735866
0
ARC
8
DEFAULT_255_2_778
10
10.9083419
20
12.5071888
40
1.1772293
50
208.3376141
51
218.9564241
0
ARC
8
DEFAULT_255_2_778
10
6.4250776
20
8.8631848
40
6.1934856
50
36.8462444
51
39.4353024
0
ARC
8
DEFAULT_255_2_778
10
6.7378841
20
9.1172133
40
5.7905317
50
39.460038
51
39.6501411
0
ARC
8
DEFAULT_255_2_778
10
7.5903361
20
9.8523427
40
4.6651494
50
39.3790992
51
47.131864
0
LINE
8
DEFAULT_255_2_778
10
9.9928997
20
11.7670304
11
11.3813997
21
12.5772304
0
ARC
8
DEFAULT_255_2_778
10
11.1108359
20
12.6719632
40
1.444888
50
193.0402427
51
207.235117
0
ARC
8
DEFAULT_255_2_778
10
11.4408822
20
12.8484836
40
1.8191369
50
207.4211744
51
217.2272749
0
ARC
8
DEFAULT_255_2_778
10
9.834747
20
17.9668216
40
5.6256236
50
274.411831
51
285.9526437
0
ARC
8
DEFAULT_255_2_778
10
9.8705642
20
17.5545159
40
5.2117858
50
270.0262759
51
274.3679175
0
ARC
8
DEFAULT_255_2_778
10
9.8724324
20
17.2738408
40
4.9311101
50
268.0298774
51
270.0060654
0
LINE
8
DEFAULT_255_2_778
10
9.9924089
20
11.7479454
11
11.3809089
21
12.5578454
0
ARC
8
DEFAULT_255_2_778
10
8.8597238
20
11.019802
40
2.8094302
50
38.031546
51
55.6575754
0
ARC
8
DEFAULT_255_2_778
10
7.4375304
20
9.1006957
40
5.1971201
50
54.6472606
51
56.5388491
0
ARC
8
DEFAULT_255_2_778
10
6.3540628
20
7.4625232
40
7.1611747
50
56.5336324
51
57.9102795
0
ARC
8
DEFAULT_255_2_778
10
5.2557616
20
5.7217252
40
9.2194793
50
57.8748139
51
58.2423086
0
ARC
8
DEFAULT_255_2_778
10
10.662405
20
13.1457359
40
0.6924238
50
143.1623239
51
174.3605896
0
LINE
8
DEFAULT_255_2_778
10
9.9733323
20
13.2137786
11
11.0726323
21
12.7509786
0
ARC
8
DEFAULT_255_2_778
10
7.9405999
20
13.5536018
40
0.2965738
50
1.4074197
51
88.5925803
0
ARC
8
DEFAULT_255_2_778
10
7.9403277
20
13.5684428
40
0.2968527
50
271.4586419
51
358.5413235
0
ARC
8
DEFAULT_255_2_778
10
7.9555774
20
13.5685794
40
0.2969929
50
181.4843378
51
268.5156577
0
ARC
8
DEFAULT_255_2_778
10
7.9522016
20
13.5938044
40
0.2953575
50
180.0532104
51
186.3990302
0
ARC
8
DEFAULT_255_2_778
10
7.9181975
20
13.5879483
40
0.2614129
50
88.8553543
51
178.7765194
0
ARC
8
DEFAULT_255_2_778
10
7.947798
20
13.4673644
40
0.3827218
50
89.9871002
51
93.6520625
0
ARC
8
DEFAULT_255_2_778
10
5.5432009
20
5.8977565
40
0.2186635
50
47.2941886
51
91.5448295
0
ARC
8
DEFAULT_255_2_778
10
5.5322096
20
5.942299
40
0.174116
50
88.3227367
51
90.0009869
0
ARC
8
DEFAULT_255_2_778
10
5.5322023
20
5.9421306
40
0.1742843
50
89.9985684
51
138.1366555
0
ARC
8
DEFAULT_255_2_778
10
5.5192526
20
5.9282827
40
0.1749119
50
131.9153119
51
180.0177585
0
ARC
8
DEFAULT_255_2_778
10
5.519388
20
5.9282176
40
0.1750473
50
179.9964252
51
181.5638389
0
ARC
8
DEFAULT_255_2_778
10
5.5187184
20
4.9929723
40
0.1743776
50
178.4331442
51
180.0037001
0
ARC
8
DEFAULT_255_2_778
10
5.5194083
20
4.9929674
40
0.1750676
50
180.0020868
51
228.0619125
0
ARC
8
DEFAULT_255_2_778
10
5.5466642
20
5.0127443
40
0.2081144
50
226.1185968
51
267.4227241
0
ARC
8
DEFAULT_255_2_778
10
5.5424022
20
4.9788818
40
0.174116
50
268.3227367
51
270.0009869
0
ARC
8
DEFAULT_255_2_778
10
5.5424096
20
4.9790502
40
0.1742843
50
269.9985684
51
318.1366555
0
ARC
8
DEFAULT_255_2_778
10
5.5552035
20
4.9929674
40
0.1750675
50
311.9380875
51
359.9979132
0
ARC
8
DEFAULT_255_2_778
10
5.5558935
20
4.9929723
40
0.1743777
50
359.9962999
51
1.5668558
0
ARC
8
DEFAULT_255_2_778
10
5.5924723
20
5.9697292
40
0.1453039
50
341.4238137
51
359.8103573
0
ARC
8
DEFAULT_255_2_778
10
5.6410497
20
5.975668
40
0.0969386
50
356.2028103
51
58.6344199
0
LINE
8
DEFAULT_255_2_778
10
4.9393059
20
6.0584404
11
4.9248309
21
6.0584404
0
LINE
8
DEFAULT_255_2_778
10
4.9248309
20
6.0584404
11
4.9393059
21
6.0584404
0
ARC
8
DEFAULT_255_2_778
10
4.9429061
20
5.8181787
40
0.2402887
50
90.8584746
51
134.7468633
0
ARC
8
DEFAULT_255_2_778
10
4.9948015
20
5.7527847
40
0.3233966
50
133.1205117
51
135.0801609
0
ARC
8
DEFAULT_255_2_778
10
4.9249226
20
5.8049006
40
0.2374418
50
132.0770516
51
174.6740316
0
ARC
8
DEFAULT_255_2_778
10
4.1588689
20
5.8418864
40
0.5298479
50
348.9287957
51
358.3835768
0
ARC
8
DEFAULT_255_2_778
10
5.1988419
20
5.6383945
40
0.5298468
50
168.9287909
51
178.3835909
0
ARC
8
DEFAULT_255_2_778
10
4.9056218
20
5.1546798
40
0.2374409
50
185.3258929
51
227.9230339
0
ARC
8
DEFAULT_255_2_778
10
4.9227462
20
5.1375577
40
0.2374425
50
222.0770745
51
264.6739298
0
ARC
8
DEFAULT_255_2_778
10
4.9094067
20
5.0668709
40
0.1660691
50
273.659355
51
319.5103058
0
ARC
8
DEFAULT_255_2_778
10
4.9187214
20
5.0891254
40
0.17495
50
311.9648152
51
0.03764
0
ARC
8
DEFAULT_255_2_778
10
4.9177684
20
5.0892368
40
0.1759031
50
0.0011431
51
1.5648242
0
ARC
8
DEFAULT_255_2_778
10
4.9177684
20
5.889644
40
0.1759032
50
358.4351758
51
359.9988569
0
ARC
8
DEFAULT_255_2_778
10
4.9187214
20
5.8897554
40
0.17495
50
359.96236
51
48.0351848
0
ARC
8
DEFAULT_255_2_778
10
4.9360254
20
5.9105555
40
0.1479169
50
47.6315455
51
88.8066597
0
ARC
8
DEFAULT_255_2_778
10
6.1514966
20
5.8023499
40
0.2380195
50
42.1700761
51
84.6701727
0
ARC
8
DEFAULT_255_2_778
10
6.1650031
20
5.8736327
40
0.1660527
50
93.6935732
51
139.5158038
0
ARC
8
DEFAULT_255_2_778
10
6.1555526
20
5.8512827
40
0.1749119
50
131.9153119
51
180.0177585
0
ARC
8
DEFAULT_255_2_778
10
6.155688
20
5.8512176
40
0.1750473
50
179.9964252
51
181.5638389
0
ARC
8
DEFAULT_255_2_778
10
6.155688
20
5.0125632
40
0.1750473
50
178.4361611
51
180.0035748
0
ARC
8
DEFAULT_255_2_778
10
6.1555526
20
5.0124981
40
0.1749118
50
179.9822415
51
228.0846881
0
ARC
8
DEFAULT_255_2_778
10
6.1161628
20
4.9266741
40
0.0892471
50
209.7853436
51
257.7729278
0
ARC
8
DEFAULT_255_2_778
10
5.9957497
20
4.5285641
40
0.3270407
50
65.0268053
51
71.9169632
0
ARC
8
DEFAULT_255_2_778
10
6.0622143
20
4.6795956
40
0.1621069
50
63.3182198
51
63.7846687
0
ARC
8
DEFAULT_255_2_778
10
6.1322674
20
5.0615696
40
0.2381511
50
275.3097549
51
317.5552928
0
ARC
8
DEFAULT_255_2_778
10
6.085587
20
5.1261121
40
0.3165671
50
314.6356948
51
314.7884759
0
ARC
8
DEFAULT_255_2_778
10
6.0031804
20
5.1760307
40
0.4107123
50
318.0431376
51
336.6060538
0
ARC
8
DEFAULT_255_2_778
10
5.8502879
20
5.2606827
40
0.5848943
50
334.9417641
51
341.4842334
0
ARC
8
DEFAULT_255_2_778
10
6.9351442
20
5.0599716
40
0.5304495
50
168.9348744
51
178.3829477
0
ARC
8
DEFAULT_255_2_778
10
3.7270435
20
5.6132341
40
2.7251672
50
350.4643159
51
350.8339327
0
ARC
8
DEFAULT_255_2_778
10
5.9842709
20
5.2565555
40
0.440008
50
349.8645083
51
358.9562548
0
ARC
8
DEFAULT_255_2_778
10
5.5544557
20
5.6130138
40
0.8699238
50
358.8556585
51
5.7271366
0
ARC
8
DEFAULT_255_2_778
10
6.0723836
20
5.6604005
40
0.3498817
50
6.4696977
51
18.1241002
0
ARC
8
DEFAULT_255_2_778
10
6.1487205
20
5.7784588
40
0.2563513
50
357.9391937
51
359.9993819
0
ARC
8
DEFAULT_255_2_778
10
6.1482625
20
5.7783285
40
0.2568091
50
0.0284605
51
45.7049653
0
LINE
8
DEFAULT_255_2_778
10
5.3444059
20
5.9234404
11
5.3444059
21
4.9977404
0
LINE
8
DEFAULT_255_2_778
10
5.7302059
20
4.9977404
11
5.7302059
21
5.9234404
0
LINE
8
DEFAULT_255_2_778
10
4.6692059
20
5.6533404
11
4.6692059
21
5.1326404
0
LINE
8
DEFAULT_255_2_778
10
4.9007059
20
4.9011404
11
4.9200059
21
4.9011404
0
LINE
8
DEFAULT_255_2_778
10
5.0936059
20
5.0940404
11
5.0936059
21
5.8848404
0
LINE
8
DEFAULT_255_2_778
10
4.9391059
20
6.0584404
11
4.9393059
21
6.0584404
0
LINE
8
DEFAULT_255_2_778
10
6.1736059
20
6.0393404
11
6.1543059
21
6.0393404
0
LINE
8
DEFAULT_255_2_778
10
5.9807059
20
5.8464404
11
5.9807059
21
5.0173404
0
LINE
8
DEFAULT_255_2_778
10
6.1350059
20
4.8244404
11
6.1543059
21
4.8244404
0
LINE
8
DEFAULT_255_2_778
10
6.4242059
20
5.2485404
11
6.4242059
21
5.5956404
0
LINE
8
DEFAULT_255_2_778
10
6.3276059
20
5.9621404
11
6.3279059
21
5.9621404
0
ARC
8
DEFAULT_255_2_778
10
5.4596429
20
5.5748241
40
0.3538181
50
301.1915388
51
330.8938229
0
ARC
8
DEFAULT_255_2_778
10
5.5540596
20
5.4270886
40
0.1785913
50
270.8409479
51
299.8261303
0
ARC
8
DEFAULT_255_2_778
10
5.5662365
20
5.4481451
40
0.1998572
50
218.6704287
51
267.2594965
0
ARC
8
DEFAULT_255_2_778
10
5.7399636
20
5.6139625
40
0.4396022
50
205.8894283
51
221.3968773
0
ARC
8
DEFAULT_255_2_778
10
5.5185224
20
5.9285128
40
0.1741162
50
179.9990129
51
181.6772631
0
ARC
8
DEFAULT_255_2_778
10
5.5190599
20
5.9284553
40
0.1746537
50
131.917481
51
179.9801425
0
ARC
8
DEFAULT_255_2_778
10
5.5472784
20
5.9069226
40
0.2096324
50
92.7335386
51
133.7250679
0
ARC
8
DEFAULT_255_2_778
10
5.5432446
20
5.8976596
40
0.2187382
50
47.3011557
51
91.5623398
0
ARC
8
DEFAULT_255_2_778
10
5.5749017
20
5.9284553
40
0.1746538
50
0.0198575
51
48.082519
0
ARC
8
DEFAULT_255_2_778
10
5.5754392
20
5.9285128
40
0.1741161
50
358.3227369
51
0.0009871
0
ARC
8
DEFAULT_255_2_778
10
4.847174
20
5.6364653
40
0.2824118
50
297.6328419
51
330.8763145
0
ARC
8
DEFAULT_255_2_778
10
4.8824963
20
5.5817534
40
0.2176383
50
269.7853161
51
296.0747517
0
ARC
8
DEFAULT_255_2_778
10
4.9051236
20
5.6236256
40
0.2605659
50
210.3396487
51
264.838195
0
ARC
8
DEFAULT_255_2_778
10
5.1891317
20
5.8594392
40
0.6276732
50
210.8347722
51
215.830347
0
ARC
8
DEFAULT_255_2_778
10
5.6909249
20
5.6677809
40
1.0408447
50
176.0176633
51
180.7962551
0
ARC
8
DEFAULT_255_2_778
10
5.019894
20
5.7135838
40
0.3682542
50
162.0922485
51
175.8760562
0
ARC
8
DEFAULT_255_2_778
10
4.9059162
20
5.8048813
40
0.2374507
50
132.0811347
51
174.6995722
0
ARC
8
DEFAULT_255_2_778
10
4.9699413
20
5.7578062
40
0.3157026
50
134.9041303
51
134.98078
0
ARC
8
DEFAULT_255_2_778
10
4.9231419
20
5.8218235
40
0.2376286
50
95.3511544
51
137.8093057
0
ARC
8
DEFAULT_255_2_778
10
4.9095139
20
5.8925376
40
0.1662279
50
40.4648767
51
86.2862624
0
ARC
8
DEFAULT_255_2_778
10
4.9195048
20
5.870546
40
0.1744505
50
0.022814
51
48.112266
0
ARC
8
DEFAULT_255_2_778
10
4.9198366
20
5.8706128
40
0.1741187
50
358.3227566
51
0.0008755
0
ARC
8
DEFAULT_255_2_778
10
6.1518817
20
5.8022468
40
0.2377895
50
42.1484965
51
84.6916988
0
ARC
8
DEFAULT_255_2_778
10
6.165278
20
5.8733087
40
0.1660527
50
93.6935732
51
139.5158038
0
ARC
8
DEFAULT_255_2_778
10
6.1557786
20
5.8509806
40
0.174863
50
131.9081681
51
179.9950958
0
ARC
8
DEFAULT_255_2_778
10
6.1552901
20
5.8509845
40
0.1743745
50
179.9963603
51
181.5668511
0
ARC
8
DEFAULT_255_2_778
10
6.3665539
20
5.730928
40
0.440307
50
208.8730799
51
235.3414652
0
ARC
8
DEFAULT_255_2_778
10
6.197387
20
5.494252
40
0.1494947
50
237.0876132
51
268.3877136
0
ARC
8
DEFAULT_255_2_778
10
6.1791121
20
5.5668987
40
0.2225273
50
273.6247849
51
321.1495997
0
ARC
8
DEFAULT_255_2_778
10
6.0226946
20
5.7262779
40
0.4450802
50
317.8002438
51
329.2956889
0
ARC
8
DEFAULT_255_2_778
10
5.3646366
20
5.6291809
40
1.0408447
50
359.2037449
51
3.9823367
0
ARC
8
DEFAULT_255_2_778
10
6.0356676
20
5.6749838
40
0.3682542
50
4.1239438
51
17.9077515
0
ARC
8
DEFAULT_255_2_778
10
6.2242176
20
5.829307
40
0.1669974
50
345.7558163
51
359.8239929
0
ARC
8
DEFAULT_255_2_778
10
6.2015699
20
5.8203754
40
0.1898312
50
2.5417866
51
48.1667144
0
LINE
8
DEFAULT_255_2_778
10
5.3444808
20
5.4220165
11
5.3444808
21
5.9234165
0
LINE
8
DEFAULT_255_2_778
10
5.7494808
20
5.9234165
11
5.7494808
21
5.4607165
0
LINE
8
DEFAULT_255_2_778
10
5.7494808
20
5.4607165
11
5.7687808
21
5.4027165
0
LINE
8
DEFAULT_255_2_778
10
4.6501808
20
5.5377165
11
4.6501808
21
5.6533165
0
LINE
8
DEFAULT_255_2_778
10
4.9009808
20
6.0584165
11
4.9202808
21
6.0584165
0
LINE
8
DEFAULT_255_2_778
10
5.0938808
20
5.8655165
11
5.0938808
21
5.4990165
0
LINE
8
DEFAULT_255_2_778
10
5.0938808
20
5.4990165
11
5.0938808
21
5.4990165
0
LINE
8
DEFAULT_255_2_778
10
6.1738808
20
6.0390165
11
6.1545808
21
6.0390165
0
LINE
8
DEFAULT_255_2_778
10
5.9809808
20
5.8462165
11
5.9809808
21
5.5183165
0
LINE
8
DEFAULT_255_2_778
10
6.4053808
20
5.4990165
11
6.4053808
21
5.6147165
0
LINE
8
DEFAULT_255_2_778
10
6.3281808
20
5.9618165
11
6.3281808
21
5.9618165
0
ARC
8
DEFAULT_255_2_778
10
9.2538421
20
5.8974624
40
0.2189114
50
88.9102114
51
132.6626243
0
ARC
8
DEFAULT_255_2_778
10
9.25982
20
5.8509675
40
0.2653729
50
90.0064244
51
90.3917306
0
ARC
8
DEFAULT_255_2_778
10
9.2648865
20
5.9422962
40
0.1741188
50
89.9991245
51
91.6772434
0
ARC
8
DEFAULT_255_2_778
10
9.2648197
20
5.9419645
40
0.1744505
50
41.887734
51
89.977186
0
ARC
8
DEFAULT_255_2_778
10
9.2778436
20
5.9282827
40
0.1749119
50
359.9822415
51
48.0846881
0
ARC
8
DEFAULT_255_2_778
10
9.2777081
20
5.9282176
40
0.1750473
50
358.4361611
51
0.0035748
0
ARC
8
DEFAULT_255_2_778
10
9.2783778
20
4.9929723
40
0.1743776
50
359.9962999
51
1.5668558
0
ARC
8
DEFAULT_255_2_778
10
9.2776878
20
4.9929674
40
0.1750676
50
311.9380875
51
359.9979132
0
ARC
8
DEFAULT_255_2_778
10
9.250432
20
5.0127443
40
0.2081144
50
272.5772759
51
313.8814032
0
ARC
8
DEFAULT_255_2_778
10
9.2546939
20
4.978882
40
0.1741162
50
269.9990129
51
271.6772631
0
ARC
8
DEFAULT_255_2_778
10
9.2547514
20
4.9794195
40
0.1746537
50
221.917481
51
269.9801425
0
ARC
8
DEFAULT_255_2_778
10
9.1606623
20
4.9673803
40
0.1106179
50
196.5630082
51
251.0775493
0
ARC
8
DEFAULT_255_2_778
10
9.1854434
20
4.979358
40
0.1378561
50
180.3813674
51
198.3988345
0
ARC
8
DEFAULT_255_2_778
10
9.2982063
20
5.916172
40
0.2509047
50
154.3982327
51
182.7485567
0
ARC
8
DEFAULT_255_2_778
10
9.1438212
20
5.9868865
40
0.081174
50
118.1776995
51
152.3224802
0
ARC
8
DEFAULT_255_2_778
10
9.8734901
20
5.8181787
40
0.2402887
50
45.2531367
51
89.1415254
0
ARC
8
DEFAULT_255_2_778
10
9.8215946
20
5.7527847
40
0.3233966
50
44.9198391
51
46.8794883
0
ARC
8
DEFAULT_255_2_778
10
9.8914879
20
5.8053674
40
0.2370858
50
5.2206989
51
47.8499374
0
ARC
8
DEFAULT_255_2_778
10
10.657227
20
5.8418864
40
0.5298476
50
181.6164213
51
191.0712072
0
ARC
8
DEFAULT_255_2_778
10
9.6172544
20
5.6383945
40
0.5298467
50
1.6164083
51
11.0712115
0
ARC
8
DEFAULT_255_2_778
10
9.9101392
20
5.1547445
40
0.2377806
50
312.1443405
51
354.6660818
0
ARC
8
DEFAULT_255_2_778
10
9.8933448
20
5.1377959
40
0.2376802
50
275.3219634
51
317.8972761
0
ARC
8
DEFAULT_255_2_778
10
9.8974107
20
5.029051
40
0.1279174
50
242.4723234
51
269.4085197
0
ARC
8
DEFAULT_255_2_778
10
9.9441965
20
5.1167592
40
0.2273213
50
223.9328181
51
242.2322858
0
ARC
8
DEFAULT_255_2_778
10
9.8974926
20
5.0892674
40
0.1750675
50
180.0020868
51
228.0619125
0
ARC
8
DEFAULT_255_2_778
10
9.8968027
20
5.0892723
40
0.1743777
50
178.4331442
51
180.0037001
0
ARC
8
DEFAULT_255_2_778
10
9.8968027
20
5.8896085
40
0.1743776
50
179.9962999
51
181.5668558
0
ARC
8
DEFAULT_255_2_778
10
9.8974926
20
5.8896134
40
0.1750676
50
131.9380875
51
179.9979132
0
ARC
8
DEFAULT_255_2_778
10
9.8246088
20
6.0048691
40
0.0465896
50
94.4871562
51
161.255713
0
ARC
8
DEFAULT_255_2_778
10
9.8743779
20
5.8550547
40
0.2034
50
89.320453
51
105.224744
0
ARC
8
DEFAULT_255_2_778
10
8.6454943
20
5.8025893
40
0.2377807
50
95.3339037
51
137.8556242
0
ARC
8
DEFAULT_255_2_778
10
8.632093
20
5.8736327
40
0.1660527
50
40.4841962
51
86.3064268
0
ARC
8
DEFAULT_255_2_778
10
8.6418664
20
5.8515485
40
0.1744984
50
0.0001604
51
48.1052509
0
ARC
8
DEFAULT_255_2_778
10
8.6415896
20
5.8515464
40
0.1747751
50
358.3258919
51
0.0008634
0
ARC
8
DEFAULT_255_2_778
10
8.6415896
20
5.0122344
40
0.1747752
50
359.9991366
51
1.6741081
0
ARC
8
DEFAULT_255_2_778
10
8.6418664
20
5.0122323
40
0.1744984
50
311.8947491
51
359.9998396
0
ARC
8
DEFAULT_255_2_778
10
8.6808859
20
4.9267584
40
0.0893302
50
282.2175091
51
330.1828139
0
ARC
8
DEFAULT_255_2_778
10
8.8044411
20
4.5203431
40
0.3358303
50
108.1567812
51
114.6430878
0
ARC
8
DEFAULT_255_2_778
10
8.7358624
20
4.6779923
40
0.1639798
50
115.8316478
51
116.7363523
0
ARC
8
DEFAULT_255_2_778
10
8.6648287
20
5.0615696
40
0.2381511
50
222.4447072
51
264.6902451
0
ARC
8
DEFAULT_255_2_778
10
8.7115091
20
5.1261121
40
0.3165671
50
225.2115241
51
225.3643052
0
ARC
8
DEFAULT_255_2_778
10
8.7939158
20
5.1760307
40
0.4107123
50
203.3939462
51
221.9568624
0
ARC
8
DEFAULT_255_2_778
10
8.9468083
20
5.2606827
40
0.5848943
50
198.5157666
51
205.0582359
0
ARC
8
DEFAULT_255_2_778
10
7.861952
20
5.0599716
40
0.5304495
50
1.6170523
51
11.0651256
0
ARC
8
DEFAULT_255_2_778
10
11.0700527
20
5.6132341
40
2.7251672
50
189.1660673
51
189.5356841
0
ARC
8
DEFAULT_255_2_778
10
8.8128252
20
5.2565555
40
0.440008
50
181.0437452
51
190.1354917
0
ARC
8
DEFAULT_255_2_778
10
9.2426136
20
5.6130141
40
0.8698969
50
174.2727042
51
181.1443946
0
ARC
8
DEFAULT_255_2_778
10
8.7247125
20
5.6604005
40
0.3498817
50
161.8758998
51
173.5303023
0
ARC
8
DEFAULT_255_2_778
10
8.6483757
20
5.7784588
40
0.2563513
50
180.0006181
51
182.0608063
0
ARC
8
DEFAULT_255_2_778
10
8.6488336
20
5.7783285
40
0.2568091
50
134.2950347
51
179.9715395
0
LINE
8
DEFAULT_255_2_778
10
9.4526902
20
5.9234404
11
9.4526902
21
4.9977404
0
LINE
8
DEFAULT_255_2_778
10
9.0475902
20
4.9784404
11
9.0475902
21
5.9041404
0
LINE
8
DEFAULT_255_2_778
10
10.1468902
20
5.6533404
11
10.1468902
21
5.1326404
0
LINE
8
DEFAULT_255_2_778
10
9.9153902
20
4.9011404
11
9.8960902
21
4.9011404
0
LINE
8
DEFAULT_255_2_778
10
9.7224902
20
5.0940404
11
9.7224902
21
5.8848404
0
LINE
8
DEFAULT_255_2_778
10
9.8767902
20
6.0584404
11
9.8770902
21
6.0584404
0
LINE
8
DEFAULT_255_2_778
10
8.6233902
20
6.0393404
11
8.6427902
21
6.0393404
0
LINE
8
DEFAULT_255_2_778
10
8.8162902
20
5.8464404
11
8.8162902
21
5.0173404
0
LINE
8
DEFAULT_255_2_778
10
8.6620902
20
4.8244404
11
8.6427902
21
4.8244404
0
LINE
8
DEFAULT_255_2_778
10
8.3728902
20
5.2485404
11
8.3728902
21
5.5956404
0
LINE
8
DEFAULT_255_2_778
10
8.4694902
20
5.9621404
11
8.4691902
21
5.9621404
0
ARC
8
DEFAULT_255_2_778
10
9.3567425
20
5.575338
40
0.3544129
50
209.1477294
51
238.8099998
0
ARC
8
DEFAULT_255_2_778
10
9.2620355
20
5.4271249
40
0.1786277
50
240.1769582
51
269.1578207
0
ARC
8
DEFAULT_255_2_778
10
9.2498543
20
5.4481451
40
0.1998572
50
272.7405035
51
321.3295713
0
ARC
8
DEFAULT_255_2_778
10
9.0761271
20
5.6139625
40
0.4396022
50
318.6031227
51
334.1105717
0
ARC
8
DEFAULT_255_2_778
10
9.2975684
20
5.9285128
40
0.1741162
50
358.3227369
51
0.0009871
0
ARC
8
DEFAULT_255_2_778
10
9.2970309
20
5.9284553
40
0.1746537
50
0.0198575
51
48.082519
0
ARC
8
DEFAULT_255_2_778
10
9.2688119
20
5.9069218
40
0.2096333
50
46.2749763
51
87.2663345
0
ARC
8
DEFAULT_255_2_778
10
9.2728462
20
5.8976596
40
0.2187382
50
88.4376602
51
132.6988443
0
ARC
8
DEFAULT_255_2_778
10
9.2411891
20
5.9284553
40
0.1746538
50
131.917481
51
179.9801425
0
ARC
8
DEFAULT_255_2_778
10
9.2406515
20
5.9285128
40
0.1741161
50
179.9990129
51
181.6772631
0
ARC
8
DEFAULT_255_2_778
10
9.9496167
20
5.6364653
40
0.2824118
50
209.1236855
51
242.3671581
0
ARC
8
DEFAULT_255_2_778
10
9.9142945
20
5.5817534
40
0.2176383
50
243.9252483
51
270.2146839
0
ARC
8
DEFAULT_255_2_778
10
9.8922671
20
5.6221051
40
0.2589979
50
275.0599038
51
329.31544
0
ARC
8
DEFAULT_255_2_778
10
9.6083097
20
5.8594583
40
0.6271243
50
323.8973549
51
329.1332618
0
ARC
8
DEFAULT_255_2_778
10
9.1058658
20
5.6677809
40
1.0408447
50
359.2037449
51
3.9823367
0
ARC
8
DEFAULT_255_2_778
10
9.7768968
20
5.7135838
40
0.3682542
50
4.1239438
51
17.9077515
0
ARC
8
DEFAULT_255_2_778
10
9.8904874
20
5.8048645
40
0.2378379
50
5.2958421
51
47.3962849
0
ARC
8
DEFAULT_255_2_778
10
9.814628
20
5.7472281
40
0.3320388
50
44.4924316
51
44.7811494
0
ARC
8
DEFAULT_255_2_778
10
9.8283198
20
5.7601676
40
0.3132061
50
44.8653029
51
44.9423647
0
ARC
8
DEFAULT_255_2_778
10
9.8741716
20
5.8222369
40
0.2371872
50
42.1525812
51
84.717147
0
ARC
8
DEFAULT_255_2_778
10
9.8780665
20
5.9307531
40
0.1276706
50
90.6087668
51
117.6036461
0
ARC
8
DEFAULT_255_2_778
10
9.9254457
20
5.8420923
40
0.2281946
50
117.8308821
51
136.0673541
0
ARC
8
DEFAULT_255_2_778
10
9.8779078
20
5.8702806
40
0.174863
50
131.9081681
51
179.9950958
0
ARC
8
DEFAULT_255_2_778
10
9.8774193
20
5.8702845
40
0.1743745
50
179.9963603
51
181.5668511
0
ARC
8
DEFAULT_255_2_778
10
8.644909
20
5.8022468
40
0.2377895
50
95.3083012
51
137.8515035
0
ARC
8
DEFAULT_255_2_778
10
8.6318109
20
5.8732866
40
0.1660684
50
40.4895601
51
86.3406761
0
ARC
8
DEFAULT_255_2_778
10
8.6413295
20
5.8511224
40
0.174746
50
359.9651921
51
48.0649783
0
ARC
8
DEFAULT_255_2_778
10
8.6401975
20
5.8510198
40
0.175878
50
358.435034
51
359.9988451
0
ARC
8
DEFAULT_255_2_778
10
8.4311775
20
5.7301467
40
0.4392813
50
304.6442047
51
331.1695111
0
ARC
8
DEFAULT_255_2_778
10
8.5996241
20
5.4944137
40
0.1496558
50
271.6027719
51
302.8937343
0
ARC
8
DEFAULT_255_2_778
10
8.6178787
20
5.5668987
40
0.2225273
50
218.8504003
51
266.3752151
0
ARC
8
DEFAULT_255_2_778
10
8.7742961
20
5.7262779
40
0.4450802
50
210.7043111
51
222.1997562
0
ARC
8
DEFAULT_255_2_778
10
9.4323541
20
5.6291809
40
1.0408447
50
176.0176633
51
180.7962551
0
ARC
8
DEFAULT_255_2_778
10
8.7613232
20
5.6749838
40
0.3682542
50
162.0922485
51
175.8760562
0
ARC
8
DEFAULT_255_2_778
10
8.5727364
20
5.8293009
40
0.1669602
50
180.1765034
51
194.2452409
0
ARC
8
DEFAULT_255_2_778
10
8.5951883
20
5.8203919
40
0.1895972
50
131.7617281
51
177.4623206
0
LINE
8
DEFAULT_255_2_778
10
9.47161
20
5.4220165
11
9.47161
21
5.9234165
0
LINE
8
DEFAULT_255_2_778
10
9.06661
20
5.9234165
11
9.06661
21
5.4607165
0
LINE
8
DEFAULT_255_2_778
10
9.06661
20
5.4607165
11
9.04721
21
5.4027165
0
LINE
8
DEFAULT_255_2_778
10
10.14661
20
5.5377165
11
10.14661
21
5.6533165
0
LINE
8
DEFAULT_255_2_778
10
9.89601
20
6.0584165
11
9.87671
21
6.0584165
0
LINE
8
DEFAULT_255_2_778
10
9.70311
20
5.8655165
11
9.70311
21
5.4990165
0
LINE
8
DEFAULT_255_2_778
10
9.70311
20
5.4990165
11
9.70291
21
5.4990165
0
LINE
8
DEFAULT_255_2_778
10
8.62291
20
6.0390165
11
8.64241
21
6.0390165
0
LINE
8
DEFAULT_255_2_778
10
8.81601
20
5.8462165
11
8.81601
21
5.5183165
0
LINE
8
DEFAULT_255_2_778
10
8.39161
20
5.4990165
11
8.39161
21
5.6147165
0
LINE
8
DEFAULT_255_2_778
10
8.46891
20
5.9618165
11
8.46861
21
5.9618165
0
ARC
8
DEFAULT_255_2_778
10
7.7511197
20
13.3119251
40
1.037222
50
139.7280085
51
180.084181
0
ARC
8
DEFAULT_255_2_778
10
7.7542571
20
13.3125811
40
1.0391949
50
92.5061461
51
139.8674201
0
ARC
8
DEFAULT_255_2_778
10
7.7552596
20
13.2929252
40
1.0588759
50
89.9978812
51
92.5138339
0
ARC
8
DEFAULT_255_2_778
10
7.7568651
20
13.3145894
40
1.0372129
50
49.8140568
51
90.0865231
0
ARC
8
DEFAULT_255_2_778
10
7.7574652
20
13.3114762
40
1.0392068
50
2.6109768
51
49.9500911
0
ARC
8
DEFAULT_255_2_778
10
7.7377656
20
13.3104401
40
1.0589333
50
359.9978962
51
2.6184241
0
ARC
8
DEFAULT_255_2_778
10
7.7594575
20
13.3088093
40
1.0372425
50
319.9036823
51
0.0879354
0
ARC
8
DEFAULT_255_2_778
10
7.7564298
20
13.3081973
40
1.0391672
50
272.6130949
51
320.0370124
0
ARC
8
DEFAULT_255_2_778
10
7.7553343
20
13.3284963
40
1.059495
50
269.9980781
51
272.6222292
0
ARC
8
DEFAULT_255_2_778
10
7.7537515
20
13.3062646
40
1.0372645
50
229.7316861
51
270.0854673
0
ARC
8
DEFAULT_255_2_778
10
7.7530677
20
13.3092993
40
1.039141
50
182.6054278
51
229.8686121
0
ARC
8
DEFAULT_255_2_778
10
7.7729413
20
13.3103583
40
1.0590424
50
179.9976776
51
182.6137853
0
LINE
8
DEFAULT_255_2_778
10
6.7138988
20
13.3104012
11
6.7138988
21
13.3104012
0
ARC
8
DEFAULT_255_2_778
10
7.6765616
20
13.2924746
40
0.7504704
50
93.2009842
51
180.1273214
0
ARC
8
DEFAULT_255_2_778
10
7.6782427
20
13.2720023
40
0.7710047
50
89.9962626
51
93.2407703
0
ARC
8
DEFAULT_255_2_778
10
7.6799607
20
13.2925384
40
0.7504704
50
3.2009842
51
90.1273214
0
ARC
8
DEFAULT_255_2_778
10
7.6594884
20
13.2908573
40
0.7710047
50
359.9962626
51
3.2407703
0
ARC
8
DEFAULT_255_2_778
10
7.6800245
20
13.2891393
40
0.7504704
50
273.2009842
51
0.1273214
0
ARC
8
DEFAULT_255_2_778
10
7.6783433
20
13.3096116
40
0.7710047
50
269.9962626
51
273.2407703
0
ARC
8
DEFAULT_255_2_778
10
7.6766254
20
13.2890755
40
0.7504704
50
183.2009842
51
270.1273214
0
ARC
8
DEFAULT_255_2_778
10
7.6970977
20
13.2907567
40
0.7710047
50
179.9962626
51
183.2407703
0
LINE
8
DEFAULT_255_2_778
10
6.926093
20
13.290807
11
6.926093
21
13.290807
0
ARC
8
DEFAULT_255_2_778
10
7.9283813
20
13.5807186
40
0.2503063
50
89.8868718
51
180.1131054
0
ARC
8
DEFAULT_255_2_778
10
7.9293697
20
13.5807188
40
0.2503062
50
359.8868475
51
90.1131088
0
ARC
8
DEFAULT_255_2_778
10
7.9293699
20
13.5797303
40
0.2503061
50
269.8868395
51
0.1131283
0
ARC
8
DEFAULT_255_2_778
10
7.9283815
20
13.5797304
40
0.2503064
50
179.8868946
51
270.1130893
0
LINE
8
DEFAULT_255_2_778
10
7.6780755
20
13.5802245
11
7.6780755
21
13.5802245
0
ENDSEC
0
EOF