0
SECTION
2
HEADER
9
$MEASUREMENT
70
1
0
ENDSEC
0
SECTION
2
TABLES
0
TABLE
2
LTYPE
0
LTYPE
72
65
70
64
2
CONTINUOUS
3
______
73
0
40
0
0
ENDTAB
0
TABLE
2
LAYER
0
LAYER
2
DEFAULT_255_2_778
70
0
62
255
6
CONTINUOUS
0
ENDTAB
0
ENDSEC
0
SECTION
2
ENTITIES
0
ARC
8
DEFAULT_255_2_778
10
5.2981735
20
8.8553799
40
5.1170875
50
182.7665233
51
185.0119937
0
ARC
8
DEFAULT_255_2_778
10
5.5503369
20
8.8676751
40
5.3695505
50
180.6746848
51
182.7676959
0
ARC
8
DEFAULT_255_2_778
10
5.7164613
20
8.8703418
40
5.5356949
50
179.9990422
51
180.6820376
0
ARC
8
DEFAULT_255_2_778
10
6.0271138
20
8.8670756
40
5.8463484
50
175.7491809
51
179.967084
0
ARC
8
DEFAULT_255_2_778
10
6.5496358
20
8.8287806
40
6.3702714
50
171.8506823
51
175.7540472
0
ARC
8
DEFAULT_255_2_778
10
7.056561
20
8.7561889
40
6.8823679
50
167.8494673
51
171.8506797
0
ARC
8
DEFAULT_255_2_778
10
7.5302949
20
8.6546839
40
7.3668541
50
164.006723
51
167.8532069
0
ARC
8
DEFAULT_255_2_778
10
7.8935612
20
8.551895
40
7.7443806
50
161.1091994
51
164.0161815
0
ARC
8
DEFAULT_255_2_778
10
8.3077137
20
8.405742
40
8.1835461
50
154.3971901
51
161.079846
0
ARC
8
DEFAULT_255_2_778
10
8.6673552
20
8.2353582
40
8.5815029
50
147.1580033
51
154.4089266
0
ARC
8
DEFAULT_255_2_778
10
8.7707188
20
8.1711906
40
8.7031457
50
139.2876571
51
147.1721243
0
ARC
8
DEFAULT_255_2_778
10
8.69502
20
8.238248
40
8.6020278
50
130.9882273
51
139.2973393
0
ARC
8
DEFAULT_255_2_778
10
8.5839732
20
8.3655662
40
8.4330865
50
123.0416234
51
130.9860901
0
ARC
8
DEFAULT_255_2_778
10
8.5333844
20
8.4412703
40
8.3420421
50
115.4665708
51
123.0338636
0
ARC
8
DEFAULT_255_2_778
10
8.5479384
20
8.4095989
40
8.3768942
50
110.8116593
51
115.4632998
0
ARC
8
DEFAULT_255_2_778
10
8.6047613
20
8.2909249
40
8.5080212
50
106.4486529
51
110.8854056
0
ARC
8
DEFAULT_255_2_778
10
8.5845877
20
8.3588665
40
8.437148
50
101.5488026
51
106.4479066
0
ARC
8
DEFAULT_255_2_778
10
8.5772433
20
8.394041
40
8.4012154
50
96.040576
51
101.5477542
0
ARC
8
DEFAULT_255_2_778
10
8.57662
20
8.3987009
40
8.3965159
50
92.2570501
51
96.0396929
0
ARC
8
DEFAULT_255_2_778
10
8.5768823
20
8.3923047
40
8.4029173
50
89.9998473
51
92.2571196
0
ARC
8
DEFAULT_255_2_778
10
8.5728536
20
8.3374454
40
8.4577775
50
53.3213135
51
89.9725562
0
ARC
8
DEFAULT_255_2_778
10
8.6066807
20
8.3870792
40
8.3977659
50
40.7357026
51
53.3041314
0
ARC
8
DEFAULT_255_2_778
10
8.5605215
20
8.3491143
40
8.4575169
50
31.2501073
51
40.7265231
0
ARC
8
DEFAULT_255_2_778
10
8.4862884
20
8.3015916
40
8.5456335
50
30.6292639
51
31.2643039
0
ARC
8
DEFAULT_255_2_778
10
8.5330616
20
8.3280737
40
8.4918939
50
24.3826654
51
30.6362992
0
ARC
8
DEFAULT_255_2_778
10
8.6054074
20
8.3612339
40
8.4123112
50
17.1175186
51
24.3803759
0
ARC
8
DEFAULT_255_2_778
10
8.6180175
20
8.3656646
40
8.3989555
50
8.1783694
51
17.1139516
0
ARC
8
DEFAULT_255_2_778
10
8.592287
20
8.36187
40
8.4249641
50
2.5220045
51
8.1790201
0
ARC
8
DEFAULT_255_2_778
10
8.573592
20
8.3608735
40
8.4436847
50
359.9997316
51
2.5231777
0
ARC
8
DEFAULT_255_2_778
10
8.5588107
20
8.3604109
40
8.4584659
50
332.106903
51
0.0028654
0
ARC
8
DEFAULT_255_2_778
10
8.6142278
20
8.3347015
40
8.3974601
50
320.7276385
51
332.08505
0
ARC
8
DEFAULT_255_2_778
10
8.5738109
20
8.3691411
40
8.4505494
50
311.8284268
51
320.7203359
0
ARC
8
DEFAULT_255_2_778
10
8.513251
20
8.4343363
40
8.539517
50
310.3768292
51
311.8394781
0
ARC
8
DEFAULT_255_2_778
10
11.3276277
20
6.6080278
40
1.1918311
50
120.6997382
51
131.7408313
0
ARC
8
DEFAULT_255_2_778
10
9.3444859
20
10.605788
40
3.2753915
50
294.8153371
51
307.0092723
0
ARC
8
DEFAULT_255_2_778
10
9.5853364
20
10.2904513
40
2.8786057
50
306.9592488
51
324.2060482
0
ARC
8
DEFAULT_255_2_778
10
9.7505957
20
10.1653338
40
2.6713863
50
324.3096527
51
357.1720213
0
ARC
8
DEFAULT_255_2_778
10
9.5893166
20
10.1821968
40
2.8333149
50
356.9923402
51
0.0052531
0
ARC
8
DEFAULT_255_2_778
10
9.4903764
20
10.1812624
40
2.9322552
50
0.0233336
51
5.8166386
0
ARC
8
DEFAULT_255_2_778
10
9.3276456
20
10.1646067
40
3.0958362
50
5.8180817
51
11.2610877
0
ARC
8
DEFAULT_255_2_778
10
9.2002367
20
10.140614
40
3.2254777
50
11.2371129
51
13.0153256
0
ARC
8
DEFAULT_255_2_778
10
9.3284445
20
10.1753699
40
3.0927402
50
12.9228972
51
28.5139928
0
ARC
8
DEFAULT_255_2_778
10
9.4450689
20
10.2393272
40
2.9597308
50
28.5038127
51
48.3404431
0
ARC
8
DEFAULT_255_2_778
10
9.5920448
20
10.4218451
40
2.7256992
50
48.098422
51
79.3053542
0
ARC
8
DEFAULT_255_2_778
10
9.648613
20
10.642418
40
2.498503
50
79.6413777
51
89.9741216
0
ARC
8
DEFAULT_255_2_778
10
9.6496738
20
10.6844259
40
2.4564949
50
89.9984207
51
93.1415316
0
ARC
8
DEFAULT_255_2_778
10
8.191172
20
39.0807761
40
25.9773031
50
269.7900995
51
272.9212263
0
ARC
8
DEFAULT_255_2_778
10
8.1859092
20
84.1842573
40
71.0806669
50
269.2419392
51
269.9275316
0
ARC
8
DEFAULT_255_2_778
10
12.0870162
20
412.7629579
40
399.6824713
50
269.2648237
51
269.3059349
0
ARC
8
DEFAULT_255_2_778
10
4.6521524
20
-161.4074584
40
174.5360886
50
89.2427862
51
89.4330409
0
ARC
8
DEFAULT_255_2_778
10
5.7607729
20
-49.5526102
40
62.6757466
50
89.4346377
51
89.972869
0
ARC
8
DEFAULT_255_2_778
10
6.3906833
20
6.892827
40
2.7919625
50
257.2573041
51
269.9991638
0
ARC
8
DEFAULT_255_2_778
10
6.3906094
20
6.9024867
40
2.8016222
50
270.0006785
51
270.3484164
0
ARC
8
DEFAULT_255_2_778
10
6.3906942
20
6.8901512
40
2.7892864
50
270.3482152
51
280.7183961
0
ARC
8
DEFAULT_255_2_778
10
7.1396974
20
11.5557473
40
11.9635855
50
296.6169764
51
300.5476765
0
ARC
8
DEFAULT_255_2_778
10
7.7276636
20
10.3819059
40
10.6507231
50
292.2649234
51
296.6183465
0
ARC
8
DEFAULT_255_2_778
10
8.1541592
20
9.3356473
40
9.5208769
50
286.8469858
51
292.2752725
0
ARC
8
DEFAULT_255_2_778
10
8.432794
20
8.4091944
40
8.5534326
50
279.7633838
51
286.8592123
0
ARC
8
DEFAULT_255_2_778
10
8.5495331
20
7.7308221
40
7.8650891
50
270.0398723
51
279.7633099
0
ARC
8
DEFAULT_255_2_778
10
8.5569571
20
7.6066916
40
7.7409569
50
260.0402705
51
269.9855617
0
ARC
8
DEFAULT_255_2_778
10
8.6289042
20
8.0174515
40
8.15797
50
253.788534
51
260.0415387
0
ARC
8
DEFAULT_255_2_778
10
8.8015164
20
8.6133163
40
8.7783324
50
248.8026286
51
253.7924938
0
ARC
8
DEFAULT_255_2_778
10
9.0710152
20
9.3109684
40
9.5262276
50
244.745162
51
248.8086053
0
ARC
8
DEFAULT_255_2_778
10
9.364124
20
9.9397008
40
10.219919
50
242.429574
51
244.7628354
0
ARC
8
DEFAULT_255_2_778
10
8.8605918
20
9.0318968
40
9.1821861
50
235.9860887
51
242.5929701
0
ARC
8
DEFAULT_255_2_778
10
8.3066811
20
8.2143635
40
8.1946769
50
227.0939457
51
235.998773
0
ARC
8
DEFAULT_255_2_778
10
8.0732876
20
7.9341273
40
7.8305433
50
202.5081873
51
226.9488473
0
ARC
8
DEFAULT_255_2_778
10
9.4265312
20
8.5394601
40
9.3125252
50
195.324361
51
202.7615436
0
ARC
8
DEFAULT_255_2_778
10
10.8898024
20
8.9435951
40
10.8305765
50
189.4979992
51
195.3404863
0
ARC
8
DEFAULT_255_2_778
10
11.9105464
20
9.1298888
40
11.8680783
50
188.7897983
51
189.5718812
0
ARC
8
DEFAULT_255_2_778
10
6.8093411
20
59.215572
40
47.0892694
50
270.1777798
51
271.277262
0
ARC
8
DEFAULT_255_2_778
10
8.9059535
20
-34.6037991
40
46.7535257
50
90.1875821
51
91.2831481
0
ARC
8
DEFAULT_255_2_778
10
8.830126
20
-1.6017849
40
13.7514779
50
85.5334469
51
90.3218224
0
ARC
8
DEFAULT_255_2_778
10
9.765146
20
10.8343194
40
1.2808404
50
45.1175087
51
83.9090807
0
ARC
8
DEFAULT_255_2_778
10
9.3205624
20
10.3435657
40
1.9425415
50
24.3729569
51
46.0404761
0
ARC
8
DEFAULT_255_2_778
10
9.1484366
20
10.244946
40
2.1401076
50
1.6914096
51
24.8762477
0
ARC
8
DEFAULT_255_2_778
10
9.3345548
20
10.2600067
40
1.9536495
50
0.0016227
51
1.4110201
0
ARC
8
DEFAULT_255_2_778
10
9.3898462
20
10.2595698
40
1.8983582
50
355.8602749
51
0.0148555
0
ARC
8
DEFAULT_255_2_778
10
8.6547986
20
10.3007183
40
2.6344859
50
344.963938
51
356.1217172
0
ARC
8
DEFAULT_255_2_778
10
9.2649612
20
10.1333545
40
2.0017978
50
329.8345441
51
345.0595664
0
ARC
8
DEFAULT_255_2_778
10
9.6784347
20
9.8790936
40
1.5165999
50
282.2174694
51
330.290105
0
ARC
8
DEFAULT_255_2_778
10
9.6044004
20
10.1757713
40
1.8222507
50
272.4076534
51
282.5184948
0
ARC
8
DEFAULT_255_2_778
10
8.4888214
20
36.9851877
40
28.6548673
50
270.7254844
51
272.3843678
0
ARC
8
DEFAULT_255_2_778
10
8.1302141
20
64.6849413
40
56.3569416
50
269.9378943
51
270.7334663
0
ARC
8
DEFAULT_255_2_778
10
8.1424611
20
219.9180756
40
211.5900555
50
269.8604151
51
269.9801418
0
ARC
8
DEFAULT_255_2_778
10
7.0162063
20
-255.8495664
40
264.1789205
50
89.8675332
51
89.9442514
0
ARC
8
DEFAULT_255_2_778
10
7.4470889
20
10.029916
40
1.7095481
50
253.3986229
51
264.1637254
0
LINE
8
DEFAULT_255_2_778
10
5.7902515
20
13.1213292
11
5.7902515
21
8.4083292
0
LINE
8
DEFAULT_255_2_778
10
5.7902515
20
8.4083292
11
0.2006515
21
8.4083292
0
LINE
8
DEFAULT_255_2_778
10
14.0452515
20
1.9289292
11
10.5341515
21
7.4973292
0
LINE
8
DEFAULT_255_2_778
10
5.7904515
20
13.1231292
11
5.7902515
21
13.1213292
0
LINE
8
DEFAULT_255_2_778
10
6.9094515
20
4.1495292
11
6.9094515
21
7.3182292
0
LINE
8
DEFAULT_255_2_778
10
6.9094515
20
7.3182292
11
9.3838515
21
7.3182292
0
LINE
8
DEFAULT_255_2_778
10
9.3838515
20
7.3182292
11
13.2202515
21
1.2526292
0
LINE
8
DEFAULT_255_2_778
10
0.1818515
20
7.3163292
11
5.7751515
21
7.3163292
0
LINE
8
DEFAULT_255_2_778
10
5.7751515
20
7.3163292
11
5.7748515
21
4.1696292
0
LINE
8
DEFAULT_255_2_778
10
6.9554515
20
8.3889292
11
6.9554515
21
12.1265292
0
LINE
8
DEFAULT_255_2_778
10
6.9586515
20
8.3916292
11
6.9554515
21
8.3889292
0
ENDSEC
0
EOF