0
SECTION
2
HEADER
9
$MEASUREMENT
70
1
0
ENDSEC
0
SECTION
2
TABLES
0
TABLE
2
LTYPE
0
LTYPE
72
65
70
64
2
CONTINUOUS
3
______
73
0
40
0
0
ENDTAB
0
TABLE
2
LAYER
0
LAYER
2
DEFAULT_255_2_778
70
0
62
255
6
CONTINUOUS
0
ENDTAB
0
ENDSEC
0
SECTION
2
ENTITIES
0
ARC
8
DEFAULT_255_2_778
10
20.8572485
20
114.8863835
40
20.7249804
50
173.886013
51
180.011755
0
ARC
8
DEFAULT_255_2_778
10
20.501686
20
114.9237827
40
20.3674571
50
166.8527399
51
173.8840907
0
ARC
8
DEFAULT_255_2_778
10
20.3358695
20
114.9613545
40
20.1974409
50
158.3761194
51
166.8495381
0
ARC
8
DEFAULT_255_2_778
10
20.3476891
20
114.9546487
40
20.2109
50
147.2481015
51
158.3707948
0
ARC
8
DEFAULT_255_2_778
10
20.4344182
20
114.8989904
40
20.3139522
50
117.5455429
51
147.2484141
0
ARC
8
DEFAULT_255_2_778
10
20.368849
20
115.0105666
40
20.1847022
50
108.1855724
51
117.5269853
0
ARC
8
DEFAULT_255_2_778
10
20.3846018
20
114.9577633
40
20.2397843
50
100.3371356
51
108.1812872
0
ARC
8
DEFAULT_255_2_778
10
20.4264294
20
114.7242745
40
20.4769889
50
93.8756307
51
100.3350412
0
ARC
8
DEFAULT_255_2_778
10
20.4504369
20
114.3942384
40
20.8078931
50
89.9949565
51
93.8801608
0
ARC
8
DEFAULT_255_2_778
10
115.2832206
20
114.4771515
40
20.7249804
50
83.886013
51
90.011755
0
ARC
8
DEFAULT_255_2_778
10
115.3206198
20
114.832714
40
20.3674571
50
76.8527399
51
83.8840907
0
ARC
8
DEFAULT_255_2_778
10
115.3581916
20
114.9985305
40
20.1974409
50
68.3761194
51
76.8495381
0
ARC
8
DEFAULT_255_2_778
10
115.3514858
20
114.9867109
40
20.2109
50
57.2481015
51
68.3707948
0
ARC
8
DEFAULT_255_2_778
10
115.2958275
20
114.8999818
40
20.3139522
50
27.5455429
51
57.2484141
0
ARC
8
DEFAULT_255_2_778
10
115.4074037
20
114.965551
40
20.1847022
50
18.1855724
51
27.5269853
0
ARC
8
DEFAULT_255_2_778
10
115.3546004
20
114.9497982
40
20.2397843
50
10.3371356
51
18.1812872
0
ARC
8
DEFAULT_255_2_778
10
115.1211116
20
114.9079706
40
20.4769889
50
3.8756307
51
10.3350412
0
ARC
8
DEFAULT_255_2_778
10
114.7910755
20
114.8839631
40
20.8078931
50
359.9949565
51
3.8801608
0
ARC
8
DEFAULT_255_2_778
10
114.8739886
20
20.0511794
40
20.7249804
50
353.886013
51
0.011755
0
ARC
8
DEFAULT_255_2_778
10
115.2295511
20
20.0137802
40
20.3674571
50
346.8527399
51
353.8840907
0
ARC
8
DEFAULT_255_2_778
10
115.3953676
20
19.9762084
40
20.1974409
50
338.3761194
51
346.8495381
0
ARC
8
DEFAULT_255_2_778
10
115.383548
20
19.9829142
40
20.2109
50
327.2481015
51
338.3707948
0
ARC
8
DEFAULT_255_2_778
10
115.2968189
20
20.0385725
40
20.3139522
50
297.5455429
51
327.2484141
0
ARC
8
DEFAULT_255_2_778
10
115.3623881
20
19.9269963
40
20.1847022
50
288.1855724
51
297.5269853
0
ARC
8
DEFAULT_255_2_778
10
115.3466353
20
19.9797996
40
20.2397843
50
280.3371356
51
288.1812872
0
ARC
8
DEFAULT_255_2_778
10
115.3048077
20
20.2132884
40
20.4769889
50
273.8756307
51
280.3350412
0
ARC
8
DEFAULT_255_2_778
10
115.2808002
20
20.5433245
40
20.8078931
50
269.9949565
51
273.8801608
0
ARC
8
DEFAULT_255_2_778
10
20.4480165
20
20.4604114
40
20.7249804
50
263.886013
51
270.011755
0
ARC
8
DEFAULT_255_2_778
10
20.4106173
20
20.1048489
40
20.3674571
50
256.8527399
51
263.8840907
0
ARC
8
DEFAULT_255_2_778
10
20.3730455
20
19.9390324
40
20.1974409
50
248.3761194
51
256.8495381
0
ARC
8
DEFAULT_255_2_778
10
20.3797513
20
19.950852
40
20.2109
50
237.2481015
51
248.3707948
0
ARC
8
DEFAULT_255_2_778
10
20.4354096
20
20.0375811
40
20.3139522
50
207.5455429
51
237.2484141
0
ARC
8
DEFAULT_255_2_778
10
20.3238334
20
19.9720119
40
20.1847022
50
198.1855724
51
207.5269853
0
ARC
8
DEFAULT_255_2_778
10
20.3766367
20
19.9877647
40
20.2397843
50
190.3371356
51
198.1812872
0
ARC
8
DEFAULT_255_2_778
10
20.6101255
20
20.0295923
40
20.4769889
50
183.8756307
51
190.3350412
0
ARC
8
DEFAULT_255_2_778
10
20.9401616
20
20.0535998
40
20.8078931
50
179.9949565
51
183.8801608
0
LINE
8
DEFAULT_255_2_778
10
20.4522686
20
135.2021314
11
115.2789686
21
135.2021314
0
LINE
8
DEFAULT_255_2_778
10
135.5989686
20
114.8821314
11
135.5989686
21
20.0554314
0
LINE
8
DEFAULT_255_2_778
10
115.2789686
20
-0.2645686
11
20.4522686
21
-0.2645686
0
LINE
8
DEFAULT_255_2_778
10
0.1322686
20
20.0554314
11
0.1322686
21
114.8821314
0
ARC
8
DEFAULT_255_2_778
10
38.6342622
20
38.1041135
40
9.3977795
50
170.6623485
51
180.024979
0
ARC
8
DEFAULT_255_2_778
10
38.4571693
20
38.1318975
40
9.2185252
50
158.8221541
51
170.6541571
0
ARC
8
DEFAULT_255_2_778
10
38.460878
20
38.1274628
40
9.2235861
50
140.6485663
51
158.8047897
0
ARC
8
DEFAULT_255_2_778
10
38.4833405
20
38.1138564
40
9.2495838
50
114.5860489
51
140.6716187
0
ARC
8
DEFAULT_255_2_778
10
38.4607426
20
38.1536177
40
9.2040261
50
101.791804
51
114.561111
0
ARC
8
DEFAULT_255_2_778
10
38.486547
20
38.0229893
40
9.3371711
50
92.1961866
51
101.7829992
0
ARC
8
DEFAULT_255_2_778
10
38.4965943
20
37.8465102
40
9.5139062
50
89.998258
51
92.215922
0
ARC
8
DEFAULT_255_2_778
10
38.5009807
20
37.9626378
40
9.3977795
50
80.6623485
51
90.024979
0
ARC
8
DEFAULT_255_2_778
10
38.5287646
20
38.1397307
40
9.2185252
50
68.8221541
51
80.6541571
0
ARC
8
DEFAULT_255_2_778
10
38.52433
20
38.136022
40
9.2235861
50
50.6485663
51
68.8047897
0
ARC
8
DEFAULT_255_2_778
10
38.5107236
20
38.1135595
40
9.2495838
50
24.5860489
51
50.6716187
0
ARC
8
DEFAULT_255_2_778
10
38.5504849
20
38.1361574
40
9.2040261
50
11.791804
51
24.561111
0
ARC
8
DEFAULT_255_2_778
10
38.4198565
20
38.110353
40
9.3371711
50
2.1961866
51
11.7829992
0
ARC
8
DEFAULT_255_2_778
10
38.2433774
20
38.1003057
40
9.5139062
50
359.998258
51
2.215922
0
ARC
8
DEFAULT_255_2_778
10
38.359505
20
38.0959193
40
9.3977795
50
350.6623485
51
0.024979
0
ARC
8
DEFAULT_255_2_778
10
38.5365979
20
38.0681354
40
9.2185252
50
338.8221541
51
350.6541571
0
ARC
8
DEFAULT_255_2_778
10
38.5328892
20
38.07257
40
9.2235861
50
320.6485663
51
338.8047897
0
ARC
8
DEFAULT_255_2_778
10
38.5104267
20
38.0861764
40
9.2495838
50
294.5860489
51
320.6716187
0
ARC
8
DEFAULT_255_2_778
10
38.5330246
20
38.0464151
40
9.2040261
50
281.791804
51
294.561111
0
ARC
8
DEFAULT_255_2_778
10
38.5072202
20
38.1770435
40
9.3371711
50
272.1961866
51
281.7829992
0
ARC
8
DEFAULT_255_2_778
10
38.4971729
20
38.3535226
40
9.5139062
50
269.998258
51
272.215922
0
ARC
8
DEFAULT_255_2_778
10
38.4927865
20
38.237395
40
9.3977795
50
260.6623485
51
270.024979
0
ARC
8
DEFAULT_255_2_778
10
38.4650025
20
38.0603021
40
9.2185252
50
248.8221541
51
260.6541571
0
ARC
8
DEFAULT_255_2_778
10
38.4694372
20
38.0640108
40
9.2235861
50
230.6485663
51
248.8047897
0
ARC
8
DEFAULT_255_2_778
10
38.4830436
20
38.0864733
40
9.2495838
50
204.5860489
51
230.6716187
0
ARC
8
DEFAULT_255_2_778
10
38.4432823
20
38.0638754
40
9.2040261
50
191.791804
51
204.561111
0
ARC
8
DEFAULT_255_2_778
10
38.5739107
20
38.0896798
40
9.3371711
50
182.1961866
51
191.7829992
0
ARC
8
DEFAULT_255_2_778
10
38.7503898
20
38.0997271
40
9.5139062
50
179.998258
51
182.215922
0
LINE
8
DEFAULT_255_2_778
10
29.2364836
20
38.1000164
11
29.2364836
21
38.1000164
0
ARC
8
DEFAULT_255_2_778
10
28.9750906
20
28.634615
40
42.8028841
50
85.6067399
51
90.0042696
0
ARC
8
DEFAULT_255_2_778
10
29.0018039
20
28.9926006
40
42.4439041
50
80.7471138
51
85.6056767
0
ARC
8
DEFAULT_255_2_778
10
29.0219845
20
29.1236836
40
42.3112818
50
75.226213
51
80.7455442
0
ARC
8
DEFAULT_255_2_778
10
28.9928257
20
29.0200642
40
42.4189112
50
68.8008855
51
75.2238202
0
ARC
8
DEFAULT_255_2_778
10
28.86549
20
28.6992194
40
42.7640902
50
60.8698521
51
68.7972707
0
ARC
8
DEFAULT_255_2_778
10
28.6055631
20
28.2424001
40
43.2896607
50
48.9769755
51
60.8636673
0
ARC
8
DEFAULT_255_2_778
10
28.5073598
20
28.1100241
40
43.4539901
50
31.9154584
51
48.9938495
0
ARC
8
DEFAULT_255_2_778
10
28.9718353
20
28.4074764
40
42.9024769
50
23.2957132
51
31.9061993
0
ARC
8
DEFAULT_255_2_778
10
29.3450974
20
28.5714947
40
42.4947793
50
16.50324
51
23.2916273
0
ARC
8
DEFAULT_255_2_778
10
29.5145473
20
28.6238
40
42.3174519
50
10.8873934
51
16.5005118
0
ARC
8
DEFAULT_255_2_778
10
29.4542652
20
28.613545
40
42.3785859
50
5.8042297
51
10.8856147
0
ARC
8
DEFAULT_255_2_778
10
29.1705864
20
28.585368
40
42.6636598
50
1.4514722
51
5.803349
0
ARC
8
DEFAULT_255_2_778
10
28.8657154
20
28.5753958
40
42.9686856
50
359.9994708
51
1.4544677
0
ARC
8
DEFAULT_255_2_778
10
28.9755401
20
28.0449427
40
73.5550564
50
86.7192972
51
90.0028347
0
ARC
8
DEFAULT_255_2_778
10
29.010977
20
28.6716246
40
72.9273736
50
83.2102146
51
86.7189163
0
ARC
8
DEFAULT_255_2_778
10
29.0601474
20
29.0892706
40
72.5068435
50
79.3530655
51
83.2097788
0
ARC
8
DEFAULT_255_2_778
10
29.0964823
20
29.287215
40
72.3055937
50
75.2194778
51
79.3523823
0
ARC
8
DEFAULT_255_2_778
10
29.0902272
20
29.267798
40
72.3259639
50
70.5111711
51
75.2186107
0
ARC
8
DEFAULT_255_2_778
10
29.0081975
20
29.0405112
40
72.5675957
50
65.1039565
51
70.5099853
0
ARC
8
DEFAULT_255_2_778
10
28.8213497
20
28.6427295
40
73.0070709
50
58.5621359
51
65.1023641
0
ARC
8
DEFAULT_255_2_778
10
28.5313284
20
28.1732234
40
73.5589239
50
49.5895044
51
58.5601372
0
ARC
8
DEFAULT_255_2_778
10
28.3962888
20
28.000302
40
73.7781309
50
33.9619904
51
49.5967083
0
ARC
8
DEFAULT_255_2_778
10
28.8874681
20
28.3395657
40
73.1812159
50
26.8621238
51
33.9565143
0
ARC
8
DEFAULT_255_2_778
10
29.3237359
20
28.5630288
40
72.691052
50
21.1637481
51
26.8603699
0
ARC
8
DEFAULT_255_2_778
10
29.6118855
20
28.676349
40
72.3814251
50
16.2797211
51
21.1624459
0
ARC
8
DEFAULT_255_2_778
10
29.7015785
20
28.7038022
40
72.2876326
50
11.9982228
51
16.2787628
0
ARC
8
DEFAULT_255_2_778
10
29.5842698
20
28.6796426
40
72.4074011
50
8.2697423
51
11.9976258
0
ARC
8
DEFAULT_255_2_778
10
29.2605555
20
28.6333937
40
72.7344014
50
4.6596081
51
8.2691177
0
ARC
8
DEFAULT_255_2_778
10
28.7129454
20
28.5894127
40
73.2837744
50
1.2370958
51
4.6590999
0
ARC
8
DEFAULT_255_2_778
10
28.2064113
20
28.5755611
40
73.7904896
50
359.9995636
51
1.2393572
0
ENDSEC
0
EOF