0
SECTION
2
HEADER
9
$MEASUREMENT
70
1
0
ENDSEC
0
SECTION
2
TABLES
0
TABLE
2
LTYPE
0
LTYPE
72
65
70
64
2
CONTINUOUS
3
______
73
0
40
0
0
ENDTAB
0
TABLE
2
LAYER
0
LAYER
2
DEFAULT_255_2_778
70
0
62
255
6
CONTINUOUS
0
ENDTAB
0
ENDSEC
0
SECTION
2
ENTITIES
0
ARC
8
DEFAULT_255_2_778
10
7.2409376
20
5.3591784
40
0.7452076
50
218.0101609
51
270.5951674
0
ARC
8
DEFAULT_255_2_778
10
7.1751647
20
5.2957791
40
0.6544117
50
198.3080842
51
217.18281
0
ARC
8
DEFAULT_255_2_778
10
5.0417095
20
4.5761189
40
1.597168
50
18.7764945
51
28.2160562
0
ARC
8
DEFAULT_255_2_778
10
5.0112007
20
4.5586965
40
1.632289
50
28.2486165
51
37.2951631
0
ARC
8
DEFAULT_255_2_778
10
4.9243986
20
4.4921965
40
1.7416361
50
37.3052704
51
45.1777723
0
ARC
8
DEFAULT_255_2_778
10
4.8516422
20
4.420829
40
1.8435439
50
45.1374204
51
48.3056228
0
ARC
8
DEFAULT_255_2_778
10
4.7868074
20
4.3464954
40
1.9421748
50
48.3360438
51
55.0958238
0
ARC
8
DEFAULT_255_2_778
10
4.750111
20
4.2956694
40
2.0048558
50
55.0668972
51
59.9995923
0
ARC
8
DEFAULT_255_2_778
10
4.7943177
20
4.373504
40
1.9153457
50
59.9806344
51
63.6437399
0
ARC
8
DEFAULT_255_2_778
10
4.916632
20
4.621723
40
1.6386273
50
63.6228541
51
66.5774929
0
ARC
8
DEFAULT_255_2_778
10
5.1053655
20
5.058341
40
1.162964
50
66.5588825
51
68.7834192
0
ARC
8
DEFAULT_255_2_778
10
5.3412976
20
5.6685794
40
0.5087064
50
68.6818895
51
70.4675977
0
ARC
8
DEFAULT_255_2_778
10
5.7745131
20
6.8532255
40
0.7527066
50
180.792767
51
249.5380908
0
ARC
8
DEFAULT_255_2_778
10
5.7452758
20
8.3438312
40
0.7233979
50
98.2332408
51
180.0649547
0
ARC
8
DEFAULT_255_2_778
10
5.7636765
20
8.2843849
40
0.7849263
50
89.9706629
51
98.9411761
0
ARC
8
DEFAULT_255_2_778
10
5.7724922
20
8.3088683
40
0.7604893
50
51.17913
51
90.633915
0
ARC
8
DEFAULT_255_2_778
10
5.8043612
20
8.3600681
40
0.7006585
50
6.0564127
51
50.58486
0
ARC
8
DEFAULT_255_2_778
10
5.7120297
20
8.3435213
40
0.7942488
50
359.9631897
51
6.5406627
0
ARC
8
DEFAULT_255_2_778
10
8.7294724
20
8.3409763
40
0.7361271
50
89.6064672
51
134.7225689
0
ARC
8
DEFAULT_255_2_778
10
8.7345296
20
8.3023785
40
0.7747076
50
88.1767743
51
90.0000867
0
ARC
8
DEFAULT_255_2_778
10
8.7346632
20
8.2997148
40
0.7773657
50
52.6346175
51
88.1928604
0
ARC
8
DEFAULT_255_2_778
10
8.7326364
20
8.2978347
40
0.78009
50
46.5340581
51
52.6001086
0
ARC
8
DEFAULT_255_2_778
10
8.7362034
20
8.3417794
40
0.746254
50
359.4959792
51
44.4113015
0
LINE
8
DEFAULT_255_2_778
10
9.4824284
20
8.3352148
11
9.4824284
21
8.3350736
0
ARC
8
DEFAULT_255_2_778
10
8.7364502
20
8.3283439
40
0.7460086
50
315.5808592
51
0.5168693
0
ARC
8
DEFAULT_255_2_778
10
8.7336076
20
5.6446667
40
0.4721457
50
89.9543606
51
90.1370249
0
ARC
8
DEFAULT_255_2_778
10
8.733946
20
5.37654
40
0.7402726
50
44.9802195
51
89.9970809
0
ARC
8
DEFAULT_255_2_778
10
8.7343074
20
5.3761786
40
0.7402726
50
0.0029191
51
45.0197805
0
ARC
8
DEFAULT_255_2_778
10
8.7665493
20
5.3762163
40
0.7080306
50
359.8781898
51
359.9999984
0
ARC
8
DEFAULT_255_2_778
10
8.7197077
20
5.3713812
40
0.7548781
50
270.9693533
51
0.2527419
0
ARC
8
DEFAULT_255_2_778
10
8.7307467
20
0.6090763
40
0.7357991
50
359.6045992
51
44.741375
0
ARC
8
DEFAULT_255_2_778
10
8.6917322
20
0.6040036
40
0.7747962
50
358.1662144
51
359.999629
0
ARC
8
DEFAULT_255_2_778
10
8.6892383
20
0.603874
40
0.7772848
50
322.6608413
51
358.1816419
0
ARC
8
DEFAULT_255_2_778
10
8.6873457
20
0.6059084
40
0.7800237
50
316.5238517
51
322.6263535
0
ARC
8
DEFAULT_255_2_778
10
8.7354632
20
0.5920535
40
0.7359351
50
269.6031531
51
314.728751
0
ARC
8
DEFAULT_255_2_778
10
8.7303772
20
0.6317138
40
0.7755778
50
268.1676004
51
269.9991672
0
ARC
8
DEFAULT_255_2_778
10
8.7302239
20
0.6335934
40
0.7774515
50
232.630038
51
268.1833247
0
ARC
8
DEFAULT_255_2_778
10
8.7321647
20
0.6353331
40
0.7800122
50
226.5342856
51
232.5942994
0
ARC
8
DEFAULT_255_2_778
10
5.7374555
20
0.5848347
40
0.7688643
50
332.4226897
51
0.5944096
0
ARC
8
DEFAULT_255_2_778
10
5.7828611
20
0.5754939
40
0.7244051
50
270.6105293
51
331.4149292
0
ARC
8
DEFAULT_255_2_778
10
5.7641015
20
0.6875685
40
0.8368575
50
269.9984176
51
271.8131649
0
ARC
8
DEFAULT_255_2_778
10
5.7629493
20
0.3228555
40
0.4721457
50
269.9543606
51
270.1370249
0
ARC
8
DEFAULT_255_2_778
10
5.7626791
20
0.5913879
40
0.7406784
50
224.9932303
51
269.9918094
0
ARC
8
DEFAULT_255_2_778
10
5.7629871
20
0.5916896
40
0.7411095
50
180.0006867
51
224.9928894
0
ARC
8
DEFAULT_255_2_778
10
5.8204604
20
0.5916807
40
0.7985828
50
179.9189012
51
179.9999992
0
ARC
8
DEFAULT_255_2_778
10
5.780044
20
2.0706495
40
0.7581754
50
127.3286399
51
179.708176
0
ARC
8
DEFAULT_255_2_778
10
5.7173877
20
2.1491454
40
0.6577675
50
109.4669131
51
127.1349482
0
ARC
8
DEFAULT_255_2_778
10
4.9840863
20
4.28148
40
1.597168
50
288.7764945
51
298.2160562
0
ARC
8
DEFAULT_255_2_778
10
4.9666639
20
4.3119888
40
1.632289
50
298.2486165
51
307.2951631
0
ARC
8
DEFAULT_255_2_778
10
4.9001638
20
4.3987909
40
1.7416361
50
307.3052704
51
315.1777723
0
ARC
8
DEFAULT_255_2_778
10
4.8287964
20
4.4715473
40
1.8435439
50
315.1374204
51
318.3056228
0
ARC
8
DEFAULT_255_2_778
10
4.7544628
20
4.5363821
40
1.9421748
50
318.3360438
51
325.0958238
0
ARC
8
DEFAULT_255_2_778
10
4.7036368
20
4.5730785
40
2.0048558
50
325.0668972
51
329.9995923
0
ARC
8
DEFAULT_255_2_778
10
4.7814713
20
4.5288718
40
1.9153457
50
329.9806344
51
333.6437399
0
ARC
8
DEFAULT_255_2_778
10
5.0296903
20
4.4065575
40
1.6386273
50
333.6228541
51
336.5774929
0
ARC
8
DEFAULT_255_2_778
10
5.4663083
20
4.217824
40
1.162964
50
336.5588825
51
338.7834192
0
ARC
8
DEFAULT_255_2_778
10
6.0765468
20
3.9818919
40
0.5087064
50
338.6818895
51
340.4675977
0
ARC
8
DEFAULT_255_2_778
10
7.2610909
20
3.5486676
40
0.7526141
50
90.785101
51
159.5347461
0
ARC
8
DEFAULT_255_2_778
10
8.7336076
20
3.8290667
40
0.4721457
50
89.9543606
51
90.1370249
0
ARC
8
DEFAULT_255_2_778
10
8.7339121
20
3.560617
40
0.7405956
50
45.001517
51
89.9944622
0
ARC
8
DEFAULT_255_2_778
10
8.7339016
20
3.5605104
40
0.7406785
50
0.0081906
51
45.0067697
0
ARC
8
DEFAULT_255_2_778
10
8.7665493
20
3.5606163
40
0.7080306
50
359.8781898
51
359.9999984
0
ARC
8
DEFAULT_255_2_778
10
8.7617529
20
3.5502768
40
0.7128803
50
316.6190426
51
0.7100446
0
ARC
8
DEFAULT_255_2_778
10
8.748305
20
3.5770543
40
0.7411166
50
278.9195729
51
315.8285014
0
ARC
8
DEFAULT_255_2_778
10
8.7178854
20
3.7123023
40
0.8794924
50
269.9148544
51
279.5112315
0
ARC
8
DEFAULT_255_2_778
10
3.9305385
20
0.6477929
40
0.7863883
50
238.7708661
51
270.942837
0
ARC
8
DEFAULT_255_2_778
10
3.861866
20
0.5161691
40
0.6383036
50
194.0303004
51
237.9162924
0
ARC
8
DEFAULT_255_2_778
10
4.0403987
20
0.5666822
40
0.8237764
50
179.6699152
51
194.4283964
0
ARC
8
DEFAULT_255_2_778
10
4.1847054
20
0.5713092
40
0.9680693
50
178.0819152
51
179.9929677
0
ARC
8
DEFAULT_255_2_778
10
0.9897667
20
0.6000992
40
0.7463922
50
269.4945379
51
314.39876
0
LINE
8
DEFAULT_255_2_778
10
0.9831822
20
-0.1462639
11
0.9830409
21
-0.1462639
0
ARC
8
DEFAULT_255_2_778
10
0.976292
20
0.5998538
40
0.7461482
50
225.5934382
51
270.5182485
0
ARC
8
DEFAULT_255_2_778
10
1.017614
20
0.6010435
40
0.7764431
50
194.230706
51
223.4760223
0
ARC
8
DEFAULT_255_2_778
10
1.0201669
20
0.6019643
40
0.7791441
50
181.8809292
51
194.2501924
0
ARC
8
DEFAULT_255_2_778
10
1.0158652
20
0.6017227
40
0.7748368
50
180.0008608
51
181.8735126
0
ARC
8
DEFAULT_255_2_778
10
0.9766163
20
0.6067561
40
0.7356052
50
135.2524106
51
180.3929587
0
ARC
8
DEFAULT_255_2_778
10
0.9841068
20
3.5474468
40
0.7334943
50
269.9989957
51
270.72426
0
ARC
8
DEFAULT_255_2_778
10
0.9841727
20
3.5472353
40
0.733283
50
225.0127081
51
269.9938463
0
ARC
8
DEFAULT_255_2_778
10
0.9838276
20
3.5466326
40
0.7326126
50
180.0051548
51
224.9984695
0
ARC
8
DEFAULT_255_2_778
10
0.9829984
20
3.5465786
40
0.7317834
50
179.2457902
51
180.0009291
0
ARC
8
DEFAULT_255_2_778
10
0.9593075
20
3.5577163
40
0.7080307
50
180.0000016
51
180.1218102
0
ARC
8
DEFAULT_255_2_778
10
0.9918725
20
3.5576447
40
0.7405956
50
135.001517
51
179.9944622
0
ARC
8
DEFAULT_255_2_778
10
0.9919791
20
3.5576342
40
0.7406785
50
90.0081906
51
135.0067697
0
ARC
8
DEFAULT_255_2_778
10
0.9922493
20
3.8261667
40
0.4721461
50
89.8629751
51
90.0456394
0
ARC
8
DEFAULT_255_2_778
10
2.4828066
20
3.553203
40
0.7451481
50
38.0079437
51
90.5942398
0
ARC
8
DEFAULT_255_2_778
10
2.5481103
20
3.6161741
40
0.6549853
50
18.3254827
51
37.1852548
0
ARC
8
DEFAULT_255_2_778
10
4.714214
20
4.346838
40
1.6310459
50
198.7664878
51
207.818444
0
ARC
8
DEFAULT_255_2_778
10
4.7336031
20
4.3580544
40
1.6534287
50
207.8486534
51
216.7530444
0
ARC
8
DEFAULT_255_2_778
10
4.8086987
20
4.4145504
40
1.7474023
50
216.7639008
51
224.5658469
0
ARC
8
DEFAULT_255_2_778
10
4.8735512
20
4.4768395
40
1.8373165
50
224.5305688
51
227.6857813
0
ARC
8
DEFAULT_255_2_778
10
4.9309619
20
4.5411959
40
1.9235546
50
227.7117343
51
234.3973215
0
ARC
8
DEFAULT_255_2_778
10
4.9611346
20
4.5818012
40
1.9741353
50
234.3713795
51
239.3934469
0
ARC
8
DEFAULT_255_2_778
10
4.9137637
20
4.5005159
40
1.8800561
50
239.3747277
51
243.1121701
0
ARC
8
DEFAULT_255_2_778
10
4.7901137
20
4.2553493
40
1.6054734
50
243.0910163
51
246.1092739
0
ARC
8
DEFAULT_255_2_778
10
4.6014501
20
3.828514
40
1.1388022
50
246.0908212
51
248.3636206
0
ARC
8
DEFAULT_255_2_778
10
4.365721
20
3.2317925
40
0.497208
50
248.2599291
51
250.0873634
0
ARC
8
DEFAULT_255_2_778
10
3.9333874
20
2.0591976
40
0.7525618
50
0.7852309
51
69.5456423
0
ARC
8
DEFAULT_255_2_778
10
3.9606041
20
0.5881452
40
0.7252744
50
276.0279464
51
359.9736014
0
ARC
8
DEFAULT_255_2_778
10
3.9441623
20
0.6626706
40
0.8011597
50
269.9725498
51
276.6376151
0
ARC
8
DEFAULT_255_2_778
10
4.780578
20
4.5661431
40
1.678878
50
109.7854899
51
118.65323
0
ARC
8
DEFAULT_255_2_778
10
4.7941517
20
4.5429203
40
1.7057657
50
118.6792938
51
127.1481176
0
ARC
8
DEFAULT_255_2_778
10
4.850244
20
4.469341
40
1.7982871
50
127.1569431
51
134.6129931
0
ARC
8
DEFAULT_255_2_778
10
4.9104282
20
4.4068632
40
1.8850315
50
134.5815042
51
137.6120152
0
ARC
8
DEFAULT_255_2_778
10
4.9738481
20
4.3501923
40
1.9700781
50
137.6381158
51
144.3404263
0
ARC
8
DEFAULT_255_2_778
10
5.0139228
20
4.3203376
40
2.0200431
50
144.3150556
51
149.2051311
0
ARC
8
DEFAULT_255_2_778
10
4.9343754
20
4.3669996
40
1.9278221
50
149.1860311
51
152.9942572
0
ARC
8
DEFAULT_255_2_778
10
4.6899169
20
4.4909838
40
1.6537205
50
152.9755968
51
155.9863986
0
ARC
8
DEFAULT_255_2_778
10
4.2590209
20
4.6824335
40
1.1822079
50
155.9633709
51
158.3079593
0
ARC
8
DEFAULT_255_2_778
10
3.6432964
20
4.9263481
40
0.5199323
50
158.2042521
51
160.077779
0
ARC
8
DEFAULT_255_2_778
10
2.4493648
20
5.3665027
40
0.7525622
50
270.7852481
51
339.5456126
0
ARC
8
DEFAULT_255_2_778
10
0.9769487
20
5.0866457
40
0.472636
50
269.9543848
51
270.1369522
0
ARC
8
DEFAULT_255_2_778
10
0.9765348
20
5.3543397
40
0.7403302
50
224.9820663
51
270.0029129
0
ARC
8
DEFAULT_255_2_778
10
0.9761495
20
5.3546435
40
0.7402726
50
180.0029191
51
225.0197805
0
ARC
8
DEFAULT_255_2_778
10
0.9439075
20
5.3546058
40
0.7080306
50
179.8781898
51
179.9999984
0
ARC
8
DEFAULT_255_2_778
10
1.0019491
20
5.3679851
40
0.7661627
50
143.6924572
51
180.8880049
0
ARC
8
DEFAULT_255_2_778
10
0.9316632
20
5.4052085
40
0.6875802
50
102.5479724
51
142.7240293
0
ARC
8
DEFAULT_255_2_778
10
0.9747445
20
5.2436426
40
0.8546749
50
89.7764959
51
103.0139546
0
ARC
8
DEFAULT_255_2_778
10
0.9844446
20
8.3231231
40
0.7403457
50
194.2581146
51
224.5756636
0
ARC
8
DEFAULT_255_2_778
10
0.990452
20
8.3245664
40
0.7465236
50
180.0061159
51
194.2519173
0
LINE
8
DEFAULT_255_2_778
10
0.2439285
20
8.3244867
11
0.2439284
21
8.3246486
0
ARC
8
DEFAULT_255_2_778
10
0.9851279
20
8.3255357
40
0.7412
50
140.8845228
51
180.0685771
0
ARC
8
DEFAULT_255_2_778
10
0.9933181
20
8.3185989
40
0.751931
50
135.4918012
51
140.86814
0
ARC
8
DEFAULT_255_2_778
10
0.9750918
20
8.3228877
40
0.7359906
50
89.6079038
51
134.7352201
0
ARC
8
DEFAULT_255_2_778
10
0.9801296
20
8.2841534
40
0.7747077
50
88.1767742
51
90.0000866
0
ARC
8
DEFAULT_255_2_778
10
0.9802463
20
8.2816587
40
0.7771972
50
52.6601643
51
88.1912205
0
ARC
8
DEFAULT_255_2_778
10
0.9780776
20
8.2795661
40
0.7801765
50
46.5240131
51
52.6267602
0
ARC
8
DEFAULT_255_2_778
10
3.9464495
20
8.3247441
40
0.7421711
50
91.1152886
51
179.9948295
0
ARC
8
DEFAULT_255_2_778
10
3.9463732
20
8.3110555
40
0.7558557
50
89.9996048
51
91.0893086
0
ARC
8
DEFAULT_255_2_778
10
3.9463893
20
8.3247173
40
0.7421938
50
1.117006
51
90.00084
0
ARC
8
DEFAULT_255_2_778
10
3.9327229
20
8.3248163
40
0.7558557
50
359.9996048
51
1.0893086
0
ARC
8
DEFAULT_255_2_778
10
3.924829
20
6.8360335
40
0.7637822
50
312.3717124
51
0.5309355
0
ARC
8
DEFAULT_255_2_778
10
4.055217
20
6.708457
40
0.581749
50
285.6631655
51
311.3522528
0
ARC
8
DEFAULT_255_2_778
10
22.8642131
20
7.1493717
40
5.7714646
50
267.4805538
51
269.9331424
0
ARC
8
DEFAULT_255_2_778
10
22.9242364
20
8.5892864
40
7.2126267
50
265.4604004
51
267.5070154
0
ARC
8
DEFAULT_255_2_778
10
22.9429804
20
8.9063688
40
7.5302006
50
261.6478651
51
265.5091824
0
ARC
8
DEFAULT_255_2_778
10
22.6221845
20
6.731571
40
5.3318712
50
258.7215454
51
261.6638767
0
ARC
8
DEFAULT_255_2_778
10
22.1782987
20
4.5200091
40
3.0762055
50
255.1216099
51
258.7733628
0
ARC
8
DEFAULT_255_2_778
10
21.8732486
20
3.3491991
40
1.8663311
50
253.137741
51
254.9434222
0
ARC
8
DEFAULT_255_2_778
10
22.5937817
20
4.9564655
40
2.5141876
50
246.5453857
51
248.3393603
0
ARC
8
DEFAULT_255_2_778
10
22.8925935
20
5.7066511
40
3.3216939
50
248.3253571
51
250.0773448
0
ARC
8
DEFAULT_255_2_778
10
23.0793199
20
6.219332
40
3.86732
50
250.0646811
51
251.7676047
0
ARC
8
DEFAULT_255_2_778
10
23.1537947
20
6.4438555
40
4.1038725
50
251.7607812
51
254.8933625
0
ARC
8
DEFAULT_255_2_778
10
23.0393081
20
5.9951776
40
3.6408684
50
254.7926068
51
260.7076646
0
ARC
8
DEFAULT_255_2_778
10
22.9097631
20
5.2328299
40
2.8676108
50
260.8025188
51
264.3259405
0
ARC
8
DEFAULT_255_2_778
10
22.8528058
20
4.6317982
40
2.2638942
50
264.2564595
51
269.8575793
0
ARC
8
DEFAULT_255_2_778
10
22.8610028
20
4.0253166
40
1.6574632
50
269.5221087
51
283.2529198
0
ARC
8
DEFAULT_255_2_778
10
23.017673
20
3.3875189
40
1.0007547
50
282.8932214
51
304.2441144
0
ARC
8
DEFAULT_255_2_778
10
23.2068389
20
3.1060778
40
0.6616576
50
304.4172227
51
353.8797778
0
ARC
8
DEFAULT_255_2_778
10
23.0108178
20
3.139902
40
0.8602618
50
353.0317217
51
0.0938488
0
ARC
8
DEFAULT_255_2_778
10
23.1156126
20
3.1552589
40
0.7555946
50
358.9422921
51
20.3043151
0
ARC
8
DEFAULT_255_2_778
10
23.1963371
20
3.167844
40
0.6757135
50
21.6788439
51
47.1040887
0
ARC
8
DEFAULT_255_2_778
10
22.8455752
20
2.8038611
40
1.1811526
50
46.6571556
51
57.5361805
0
ARC
8
DEFAULT_255_2_778
10
22.3339086
20
2.0167063
40
2.119965
50
57.2877999
51
63.0725086
0
ARC
8
DEFAULT_255_2_778
10
21.8300087
20
1.051056
40
3.2091396
50
62.8589696
51
64.8110586
0
ARC
8
DEFAULT_255_2_778
10
21.3798184
20
0.093137
40
4.2675724
50
64.8152659
51
66.598069
0
ARC
8
DEFAULT_255_2_778
10
20.7492791
20
-1.3630005
40
5.8543664
50
66.5948888
51
68.0628025
0
ARC
8
DEFAULT_255_2_778
10
20.0801862
20
-3.014797
40
7.63653
50
68.0361547
51
68.7562528
0
ARC
8
DEFAULT_255_2_778
10
24.3593189
20
8.1328003
40
4.3043446
50
240.9471496
51
249.4328068
0
ARC
8
DEFAULT_255_2_778
10
22.9928107
20
5.7502275
40
1.5584198
50
205.8548268
51
242.3277265
0
ARC
8
DEFAULT_255_2_778
10
23.0381169
20
5.7285096
40
1.5902057
50
190.8802433
51
204.4386268
0
ARC
8
DEFAULT_255_2_778
10
23.6122437
20
5.8412158
40
2.1752872
50
181.6283764
51
190.9410831
0
ARC
8
DEFAULT_255_2_778
10
24.1466477
20
5.8682488
40
2.7102694
50
179.9859992
51
181.8785943
0
ARC
8
DEFAULT_255_2_778
10
23.205603
20
5.8795355
40
1.7692564
50
165.7157707
51
180.344066
0
ARC
8
DEFAULT_255_2_778
10
22.8990969
20
5.9511341
40
1.4545741
50
118.7879018
51
165.4699764
0
ARC
8
DEFAULT_255_2_778
10
23.2399291
20
5.3998324
40
2.102136
50
106.3759985
51
119.6933452
0
ARC
8
DEFAULT_255_2_778
10
23.4630774
20
4.6545372
40
2.8801134
50
96.4124137
51
106.4549244
0
ARC
8
DEFAULT_255_2_778
10
23.5705793
20
3.7682193
40
3.7729008
50
89.8754862
51
96.5314974
0
ARC
8
DEFAULT_255_2_778
10
23.5778624
20
3.1190596
40
4.4220516
50
88.3074528
51
89.9881306
0
ARC
8
DEFAULT_255_2_778
10
23.5466771
20
2.3886118
40
5.1531107
50
81.0338608
51
88.2007468
0
ARC
8
DEFAULT_255_2_778
10
23.6290102
20
2.8512167
40
4.6833359
50
76.7380838
51
81.1467774
0
ARC
8
DEFAULT_255_2_778
10
23.9736293
20
4.3017476
40
3.1924329
50
72.3790196
51
76.7860522
0
ARC
8
DEFAULT_255_2_778
10
24.2847151
20
5.3019947
40
2.1449553
50
70.3082541
51
72.210626
0
ARC
8
DEFAULT_255_2_778
10
24.0862499
20
5.0992118
40
1.3547223
50
60.3379886
51
63.179517
0
ARC
8
DEFAULT_255_2_778
10
23.9305144
20
4.7922421
40
1.6989369
50
63.1633807
51
65.6979085
0
ARC
8
DEFAULT_255_2_778
10
23.7319877
20
4.3425026
40
2.1905311
50
65.8065703
51
71.5630332
0
ARC
8
DEFAULT_255_2_778
10
23.593543
20
3.9347287
40
2.6211606
50
71.511106
51
77.9201691
0
ARC
8
DEFAULT_255_2_778
10
23.5698932
20
3.8345817
40
2.7240402
50
77.8745699
51
85.9275556
0
ARC
8
DEFAULT_255_2_778
10
23.5754512
20
3.9074018
40
2.6510093
50
85.9356053
51
89.990767
0
ARC
8
DEFAULT_255_2_778
10
23.5652178
20
4.6372936
40
1.9211471
50
89.6820584
51
97.7052468
0
ARC
8
DEFAULT_255_2_778
10
23.454332
20
5.4231478
40
1.1275302
50
97.4755784
51
110.3042523
0
ARC
8
DEFAULT_255_2_778
10
23.2802782
20
5.8786964
40
0.6399112
50
109.8421505
51
134.0039483
0
ARC
8
DEFAULT_255_2_778
10
23.237819
20
5.9501984
40
0.5593109
50
135.9642579
51
178.6982948
0
ARC
8
DEFAULT_255_2_778
10
23.5423881
20
5.9107335
40
0.8653098
50
176.543458
51
180.0345937
0
ARC
8
DEFAULT_255_2_778
10
23.3003137
20
5.9010948
40
0.623302
50
179.1619779
51
198.3312017
0
ARC
8
DEFAULT_255_2_778
10
23.2430047
20
5.8976948
40
0.5680246
50
199.8238919
51
229.9841121
0
ARC
8
DEFAULT_255_2_778
10
23.6353951
20
6.3343151
40
1.1548936
50
229.0031639
51
238.6086064
0
ARC
8
DEFAULT_255_2_778
10
24.0390228
20
6.9647796
40
1.9033869
50
238.122423
51
240.3022845
0
ARC
8
DEFAULT_255_2_778
10
24.5093822
20
7.799623
40
2.8616064
50
240.4028588
51
243.440027
0
ARC
8
DEFAULT_255_2_778
10
25.5507176
20
9.8750229
40
5.1836007
50
243.4018111
51
245.1957028
0
ARC
8
DEFAULT_255_2_778
10
27.5526375
20
14.1898283
40
9.9401965
50
245.1548531
51
246.012307
0
ARC
8
DEFAULT_255_2_778
10
32.8026612
20
25.9794181
40
22.8458995
50
246.0031551
51
246.4086233
0
ARC
8
DEFAULT_255_2_778
10
19.2814275
20
-5.216686
40
11.15467
50
66.6527278
51
66.8907306
0
ARC
8
DEFAULT_255_2_778
10
21.1846743
20
-0.8895661
40
6.4276754
50
62.7511544
51
66.9429415
0
ARC
8
DEFAULT_255_2_778
10
22.7682772
20
2.1676098
40
2.9847144
50
54.1721754
51
62.9069973
0
ARC
8
DEFAULT_255_2_778
10
23.6834002
20
3.3783165
40
1.4678066
50
18.0089807
51
55.4711452
0
ARC
8
DEFAULT_255_2_778
10
23.3857926
20
3.3026182
40
1.7743501
50
5.512607
51
17.3624827
0
ARC
8
DEFAULT_255_2_778
10
22.7294067
20
3.2301574
40
2.4346781
50
359.8694765
51
5.7260552
0
ARC
8
DEFAULT_255_2_778
10
23.2505026
20
3.2140552
40
1.9136049
50
345.0212527
51
0.3160572
0
ARC
8
DEFAULT_255_2_778
10
23.5109149
20
3.1547831
40
1.6467521
50
299.2317174
51
344.6716419
0
ARC
8
DEFAULT_255_2_778
10
23.1668741
20
3.7019612
40
2.2924959
50
286.4604729
51
300.0569407
0
ARC
8
DEFAULT_255_2_778
10
22.9573738
20
4.39415
40
3.015682
50
276.5403761
51
286.5512834
0
ARC
8
DEFAULT_255_2_778
10
22.8615179
20
5.171697
40
3.7990928
50
269.8908177
51
276.6409211
0
ARC
8
DEFAULT_255_2_778
10
18.7688813
20
4.0468
40
1.691888
50
269.38016
51
283.3944838
0
ARC
8
DEFAULT_255_2_778
10
18.9603854
20
3.2868591
40
0.908314
50
282.7478297
51
310.116529
0
ARC
8
DEFAULT_255_2_778
10
19.0776434
20
3.1202211
40
0.7055473
50
311.5541256
51
344.6141049
0
ARC
8
DEFAULT_255_2_778
10
18.7657125
20
3.2096454
40
1.0300306
50
344.4217354
51
0.1443147
0
ARC
8
DEFAULT_255_2_778
10
18.4794656
20
3.2222942
40
1.3163127
50
359.5623548
51
0.0007362
0
ARC
8
DEFAULT_255_2_778
10
18.8476724
20
3.2333447
40
0.9481702
50
359.3332483
51
17.5164668
0
ARC
8
DEFAULT_255_2_778
10
19.0453216
20
3.2810574
40
0.7454566
50
18.591656
51
71.7765349
0
ARC
8
DEFAULT_255_2_778
10
18.7992034
20
2.6836875
40
1.3906251
50
69.8412619
51
84.0937872
0
ARC
8
DEFAULT_255_2_778
10
18.7142344
20
2.0071588
40
2.0723595
50
83.6817558
51
90.1508454
0
ARC
8
DEFAULT_255_2_778
10
18.6817882
20
6.135706
40
1.1577897
50
269.2670864
51
293.0078599
0
ARC
8
DEFAULT_255_2_778
10
18.8547339
20
5.7537985
40
0.7387319
50
292.2386974
51
348.4934931
0
ARC
8
DEFAULT_255_2_778
10
18.6819374
20
5.7893546
40
0.9151484
50
348.470193
51
0.2289238
0
ARC
8
DEFAULT_255_2_778
10
18.6818107
20
5.805169
40
0.9153485
50
359.2389562
51
16.9680179
0
ARC
8
DEFAULT_255_2_778
10
18.9580667
20
5.8833364
40
0.6283337
50
17.5021408
51
74.7367621
0
ARC
8
DEFAULT_255_2_778
10
18.7666431
20
5.3404036
40
1.2032327
50
72.748681
51
86.9123814
0
ARC
8
DEFAULT_255_2_778
10
18.7208696
20
4.807724
40
1.7376879
50
86.3513366
51
90.0557635
0
ARC
8
DEFAULT_255_2_778
10
18.897701
20
4.3541381
40
3.1115946
50
80.8586478
51
90.2140135
0
ARC
8
DEFAULT_255_2_778
10
19.029293
20
5.1503851
40
2.3045569
50
68.6667565
51
80.9436882
0
ARC
8
DEFAULT_255_2_778
10
19.2647073
20
5.7394813
40
1.6701911
50
50.1067958
51
68.837438
0
ARC
8
DEFAULT_255_2_778
10
19.4543327
20
5.9774135
40
1.3660404
50
11.537521
51
49.8085187
0
ARC
8
DEFAULT_255_2_778
10
19.1020295
20
5.8948809
40
1.7277637
50
359.7622341
51
11.8824366
0
ARC
8
DEFAULT_255_2_778
10
19.406597
20
5.8806014
40
1.4231992
50
345.6497925
51
0.2862248
0
ARC
8
DEFAULT_255_2_778
10
19.5839018
20
5.8381589
40
1.2409102
50
324.578297
51
345.5192888
0
ARC
8
DEFAULT_255_2_778
10
19.4302252
20
5.9664448
40
1.4405788
50
298.5475192
51
323.9629288
0
ARC
8
DEFAULT_255_2_778
10
19.2773004
20
6.2102296
40
1.7278973
50
293.5259236
51
299.1387812
0
ARC
8
DEFAULT_255_2_778
10
19.257477
20
6.254141
40
1.7760718
50
291.5578782
51
293.5468226
0
ARC
8
DEFAULT_255_2_778
10
19.5014419
20
2.9613965
40
1.6910306
50
49.1369548
51
76.0160913
0
ARC
8
DEFAULT_255_2_778
10
19.788316
20
3.3269434
40
1.227089
50
19.3769363
51
48.1001206
0
ARC
8
DEFAULT_255_2_778
10
19.5774557
20
3.257168
40
1.4491616
50
4.1701457
51
19.2133937
0
ARC
8
DEFAULT_255_2_778
10
19.2528494
20
3.2242067
40
1.7753296
50
359.9549569
51
4.4692909
0
ARC
8
DEFAULT_255_2_778
10
19.2254247
20
3.2104113
40
1.8027964
50
341.6341953
51
0.3940877
0
ARC
8
DEFAULT_255_2_778
10
19.4295044
20
3.1542513
40
1.5914547
50
304.380124
51
341.2380785
0
ARC
8
DEFAULT_255_2_778
10
19.1674414
20
3.5171654
40
2.0389847
50
290.3857546
51
304.6991306
0
ARC
8
DEFAULT_255_2_778
10
18.9497339
20
4.0933769
40
2.6549453
50
279.8848911
51
290.4581627
0
ARC
8
DEFAULT_255_2_778
10
18.8104609
20
4.8738373
40
3.4477302
50
271.6613311
51
279.9384743
0
ARC
8
DEFAULT_255_2_778
10
18.7819359
20
5.4620259
40
4.0365149
50
269.9906679
51
271.8240059
0
ARC
8
DEFAULT_255_2_778
10
13.7307493
20
6.5559517
40
1.7406975
50
269.536846
51
282.4515483
0
ARC
8
DEFAULT_255_2_778
10
13.8840817
20
5.890318
40
1.057678
50
282.1153639
51
302.7826079
0
ARC
8
DEFAULT_255_2_778
10
14.0605198
20
5.6096099
40
0.7261543
50
303.0708661
51
349.8872096
0
ARC
8
DEFAULT_255_2_778
10
13.7995465
20
5.668253
40
0.9934414
50
349.2003724
51
0.2513458
0
ARC
8
DEFAULT_255_2_778
10
13.6115395
20
5.6966434
40
1.1816833
50
358.8346756
51
359.9978196
0
ARC
8
DEFAULT_255_2_778
10
13.8601793
20
5.7092077
40
0.9331288
50
359.2257432
51
21.4426722
0
ARC
8
DEFAULT_255_2_778
10
14.048756
20
5.7733586
40
0.734211
50
22.1627735
51
69.0636702
0
ARC
8
DEFAULT_255_2_778
10
13.9030211
20
5.430794
40
1.1063193
50
68.3539012
51
84.7917415
0
ARC
8
DEFAULT_255_2_778
10
13.8547541
20
5.0356707
40
1.5042422
50
84.327044
51
90.090486
0
ARC
8
DEFAULT_255_2_778
10
-19.3949224
20
-16.1927428
40
38.6203529
50
27.1485879
51
31.3975286
0
ARC
8
DEFAULT_255_2_778
10
14.0222193
20
4.1781686
40
3.2920679
50
81.7452604
51
90.2252264
0
ARC
8
DEFAULT_255_2_778
10
14.160443
20
5.1076875
40
2.3523361
50
70.2915827
51
81.8265244
0
ARC
8
DEFAULT_255_2_778
10
14.3930879
20
5.7406358
40
1.6780188
50
51.3168656
51
70.4816152
0
ARC
8
DEFAULT_255_2_778
10
14.5162171
20
5.9169016
40
1.4635334
50
19.7196782
51
50.7667382
0
ARC
8
DEFAULT_255_2_778
10
14.068105
20
5.7477781
40
1.9424478
50
6.5415164
51
19.9557644
0
ARC
8
DEFAULT_255_2_778
10
13.458593
20
5.6680592
40
2.557092
50
359.8712048
51
6.7602603
0
ARC
8
DEFAULT_255_2_778
10
14.4640602
20
5.6552701
40
1.5516343
50
343.4926366
51
0.2599952
0
ARC
8
DEFAULT_255_2_778
10
14.5140921
20
5.653072
40
1.5030886
50
313.3219744
51
343.0310706
0
ARC
8
DEFAULT_255_2_778
10
14.1764608
20
6.0204068
40
2.0019863
50
287.9449355
51
313.1388841
0
ARC
8
DEFAULT_255_2_778
10
10.6291287
20
1.0821892
40
5.1519904
50
34.5825415
51
36.073687
0
ARC
8
DEFAULT_255_2_778
10
8.4328689
20
-0.4363999
40
7.822133
50
33.6427843
51
34.6095492
0
ARC
8
DEFAULT_255_2_778
10
5.2588592
20
-2.544701
40
11.6325482
50
32.5174149
51
33.626694
0
ARC
8
DEFAULT_255_2_778
10
1.0064753
20
-5.2614907
40
16.6787049
50
31.7754267
51
32.5345199
0
ARC
8
DEFAULT_255_2_778
10
-4.1199896
20
-8.4338282
40
22.7073335
50
30.8940812
51
31.7686434
0
ARC
8
DEFAULT_255_2_778
10
-9.6040031
20
-11.7194968
40
29.1002991
50
30.1324094
51
30.9013861
0
ARC
8
DEFAULT_255_2_778
10
-12.6062931
20
-13.4671995
40
32.5742294
50
29.5673594
51
30.1401167
0
ARC
8
DEFAULT_255_2_778
10
-12.5959352
20
-13.463902
40
32.5635933
50
28.9390477
51
29.571306
0
ARC
8
DEFAULT_255_2_778
10
-10.0879418
20
-12.0777609
40
29.6980362
50
28.4349691
51
28.9400213
0
ARC
8
DEFAULT_255_2_778
10
-6.0326044
20
-9.8845998
40
25.0876448
50
27.7997359
51
28.4404947
0
ARC
8
DEFAULT_255_2_778
10
-1.1934709
20
-7.3333815
40
19.6171851
50
27.1627646
51
27.8000947
0
ARC
8
DEFAULT_255_2_778
10
3.4139821
20
-4.9711477
40
14.4394666
50
26.3750349
51
27.1694421
0
LINE
8
DEFAULT_255_2_778
10
8.7303784
20
4.6140111
11
7.2486784
21
4.6140111
0
LINE
8
DEFAULT_255_2_778
10
5.0218784
20
6.8428111
11
5.0218784
21
8.3430111
0
LINE
8
DEFAULT_255_2_778
10
6.5062784
20
8.3430111
11
6.4903784
21
7.1587111
0
LINE
8
DEFAULT_255_2_778
10
6.4903784
20
7.1587111
11
8.2114784
21
8.8640111
0
LINE
8
DEFAULT_255_2_778
10
9.2692784
20
7.8062111
11
7.5640784
21
6.1168111
0
LINE
8
DEFAULT_255_2_778
10
7.5640784
20
6.1168111
11
8.7324784
21
6.1168111
0
LINE
8
DEFAULT_255_2_778
10
8.7165784
20
2.8323111
11
7.5322784
21
2.8481111
0
LINE
8
DEFAULT_255_2_778
10
7.5322784
20
2.8481111
11
9.2533784
21
1.1270111
0
LINE
8
DEFAULT_255_2_778
10
8.1955784
20
0.0692111
11
6.5062784
21
1.7612111
0
LINE
8
DEFAULT_255_2_778
10
6.5062784
20
1.7612111
11
6.5062784
21
0.5928111
0
LINE
8
DEFAULT_255_2_778
10
5.0218784
20
0.5928111
11
5.0218784
21
2.0745111
0
LINE
8
DEFAULT_255_2_778
10
7.2507784
20
4.3012111
11
8.7324784
21
4.3012111
0
LINE
8
DEFAULT_255_2_778
10
3.2171784
20
0.6037111
11
3.2330784
21
1.7880111
0
LINE
8
DEFAULT_255_2_778
10
3.2330784
20
1.7880111
11
1.5119784
21
0.0668111
0
LINE
8
DEFAULT_255_2_778
10
0.4541784
20
1.1246111
11
2.1278784
21
2.8140111
0
LINE
8
DEFAULT_255_2_778
10
2.1278784
20
2.8140111
11
0.9933784
21
2.8140111
0
LINE
8
DEFAULT_255_2_778
10
0.9933784
20
4.2983111
11
2.4750784
21
4.2983111
0
LINE
8
DEFAULT_255_2_778
10
4.6858784
20
2.0695111
11
4.6858784
21
0.5878111
0
LINE
8
DEFAULT_255_2_778
10
2.4596784
20
4.6140111
11
0.9780784
21
4.6140111
0
LINE
8
DEFAULT_255_2_778
10
0.9780784
20
6.0983111
11
2.1622784
21
6.0824111
0
LINE
8
DEFAULT_255_2_778
10
2.1622784
20
6.0824111
11
0.4570784
21
7.8035111
0
LINE
8
DEFAULT_255_2_778
10
1.5148784
20
8.8457111
11
3.2042784
21
7.1564111
0
LINE
8
DEFAULT_255_2_778
10
3.2042784
20
7.1564111
11
3.2042784
21
8.3248111
0
LINE
8
DEFAULT_255_2_778
10
4.6885784
20
8.3248111
11
4.6885784
21
6.8431111
0
LINE
8
DEFAULT_255_2_778
10
21.3318784
20
1.5631111
11
21.5930784
21
2.6500111
0
LINE
8
DEFAULT_255_2_778
10
25.0074784
20
7.3215111
11
24.7566784
21
6.2764111
0
LINE
8
DEFAULT_255_2_778
10
18.7056784
20
4.0792111
11
17.9981784
21
4.0792111
0
LINE
8
DEFAULT_255_2_778
10
17.9981784
20
4.0792111
11
17.9981784
21
2.3550111
0
LINE
8
DEFAULT_255_2_778
10
17.9981784
20
2.3550111
11
18.7505784
21
2.3550111
0
LINE
8
DEFAULT_255_2_778
10
18.7193784
20
6.5454111
11
17.9981784
21
6.5454111
0
LINE
8
DEFAULT_255_2_778
10
17.9981784
20
6.5454111
11
17.9981784
21
4.9780111
0
LINE
8
DEFAULT_255_2_778
10
17.9981784
20
4.9780111
11
18.6669784
21
4.9780111
0
LINE
8
DEFAULT_255_2_778
10
18.7818784
20
1.4250111
11
16.8381784
21
1.4250111
0
LINE
8
DEFAULT_255_2_778
10
16.8381784
20
1.4250111
11
16.8381784
21
7.4657111
0
LINE
8
DEFAULT_255_2_778
10
16.8381784
20
7.4657111
11
18.8860784
21
7.4657111
0
LINE
8
DEFAULT_255_2_778
10
13.8494784
20
6.5396111
11
13.2567784
21
6.5396111
0
LINE
8
DEFAULT_255_2_778
10
13.2567784
20
6.5396111
11
13.2567784
21
4.8153111
0
LINE
8
DEFAULT_255_2_778
10
13.2567784
20
4.8153111
11
13.7166784
21
4.8153111
0
LINE
8
DEFAULT_255_2_778
10
13.5703784
20
3.9274111
11
13.2567784
21
3.9274111
0
LINE
8
DEFAULT_255_2_778
10
13.2567784
20
3.9274111
11
13.2567784
21
1.4297111
0
LINE
8
DEFAULT_255_2_778
10
13.2567784
20
1.4297111
11
12.0968784
21
1.4297111
0
LINE
8
DEFAULT_255_2_778
10
12.0968784
20
1.4297111
11
12.0968784
21
7.4702111
0
LINE
8
DEFAULT_255_2_778
10
12.0968784
20
7.4702111
11
14.0092784
21
7.4702111
0
LINE
8
DEFAULT_255_2_778
10
16.3503784
20
1.4435111
11
14.9707784
21
1.4435111
0
LINE
8
DEFAULT_255_2_778
10
14.9707784
20
1.4435111
11
14.9704784
21
1.4297111
0
ENDSEC
0
EOF