0
SECTION
2
HEADER
9
$MEASUREMENT
70
1
0
ENDSEC
0
SECTION
2
TABLES
0
TABLE
2
LTYPE
0
LTYPE
72
65
70
64
2
CONTINUOUS
3
______
73
0
40
0
0
ENDTAB
0
TABLE
2
LAYER
0
LAYER
2
DEFAULT_255_2_778
70
0
62
255
6
CONTINUOUS
0
ENDTAB
0
ENDSEC
0
SECTION
2
ENTITIES
0
ARC
8
DEFAULT_255_2_778
10
1.3599029
20
0.9003574
40
1.1154624
50
269.7550236
51
300.315542
0
ARC
8
DEFAULT_255_2_778
10
1.3945418
20
0.8455298
40
1.0506501
50
300.1940694
51
358.1229554
0
ARC
8
DEFAULT_255_2_778
10
1.3586061
20
0.8473835
40
1.0866274
50
358.087331
51
0.0011449
0
ARC
8
DEFAULT_255_2_778
10
1.4001556
20
0.8507722
40
1.0450833
50
359.8154071
51
38.1065192
0
ARC
8
DEFAULT_255_2_778
10
1.3706454
20
0.8231015
40
1.0853863
50
38.2945298
51
81.1006302
0
ARC
8
DEFAULT_255_2_778
10
1.3557935
20
0.7575878
40
1.1524177
50
80.8750017
51
90.0328095
0
ARC
8
DEFAULT_255_2_778
10
1.3504086
20
0.7946409
40
1.1153744
50
89.7572796
51
120.660676
0
ARC
8
DEFAULT_255_2_778
10
1.3154481
20
0.8488891
40
1.0508845
50
120.5293303
51
178.1143806
0
ARC
8
DEFAULT_255_2_778
10
1.3491744
20
0.8474255
40
1.0846409
50
178.0957335
51
180.0010734
0
ARC
8
DEFAULT_255_2_778
10
1.3089084
20
0.8442245
40
1.0443797
50
179.825503
51
218.7996758
0
ARC
8
DEFAULT_255_2_778
10
1.3403063
20
0.8735558
40
1.087233
50
218.967533
51
261.355998
0
ARC
8
DEFAULT_255_2_778
10
1.3545174
20
0.9375263
40
1.1526213
50
261.1355244
51
270.03063
0
ARC
8
DEFAULT_255_2_778
10
5.5337083
20
11.4888213
40
1.4453173
50
269.9256826
51
300.0139979
0
ARC
8
DEFAULT_255_2_778
10
5.5708198
20
11.4471779
40
1.3907404
50
299.5482694
51
359.0818007
0
ARC
8
DEFAULT_255_2_778
10
5.5979204
20
11.4367995
40
1.3635133
50
359.4996056
51
0.0002386
0
ARC
8
DEFAULT_255_2_778
10
5.5711097
20
11.4392139
40
1.390326
50
359.900738
51
31.0234087
0
ARC
8
DEFAULT_255_2_778
10
5.537322
20
11.4157999
40
1.4313503
50
31.1295254
51
81.063848
0
ARC
8
DEFAULT_255_2_778
10
5.5323116
20
11.3891657
40
1.4584396
50
81.0319323
51
90.0187802
0
ARC
8
DEFAULT_255_2_778
10
5.5276021
20
11.3648918
40
1.4827195
50
89.8364852
51
116.3019061
0
ARC
8
DEFAULT_255_2_778
10
5.4861454
20
11.4339247
40
1.4024795
50
116.0332473
51
177.1275458
0
ARC
8
DEFAULT_255_2_778
10
5.5062714
20
11.4368768
40
1.4224378
50
177.2869312
51
180.0028816
0
ARC
8
DEFAULT_255_2_778
10
5.4771949
20
11.4498945
40
1.3934228
50
180.5382209
51
248.1247902
0
ARC
8
DEFAULT_255_2_778
10
5.5287416
20
11.5375703
40
1.4940683
50
247.5430905
51
270.1185738
0
ARC
8
DEFAULT_255_2_778
10
4.4388521
20
0.2597484
40
0.2479469
50
177.0508462
51
270.2991702
0
ARC
8
DEFAULT_255_2_778
10
4.4591405
20
0.3724552
40
0.3611501
50
266.9852793
51
270.0147594
0
ARC
8
DEFAULT_255_2_778
10
6.6164483
20
0.2719448
40
0.2609399
50
267.2510321
51
325.2771626
0
ARC
8
DEFAULT_255_2_778
10
6.6029542
20
0.2672981
40
0.2696297
50
327.7227999
51
1.1065605
0
ARC
8
DEFAULT_255_2_778
10
6.6244797
20
8.29718
40
0.2483574
50
357.167065
51
90.4419801
0
ARC
8
DEFAULT_255_2_778
10
6.6040223
20
8.1840446
40
0.3619606
50
87.0637194
51
90.014053
0
ARC
8
DEFAULT_255_2_778
10
4.4467217
20
8.2860382
40
0.260268
50
87.2445661
51
145.0748669
0
ARC
8
DEFAULT_255_2_778
10
4.4609883
20
8.290244
40
0.2698075
50
147.5423884
51
181.133803
0
ARC
8
DEFAULT_255_2_778
10
12.617665
20
4.5040625
40
4.7194594
50
256.4166252
51
270.0542499
0
ARC
8
DEFAULT_255_2_778
10
12.5846533
20
4.3655299
40
4.5770486
50
237.2110188
51
256.4110241
0
ARC
8
DEFAULT_255_2_778
10
12.5049981
20
4.2579132
40
4.44345
50
197.5488632
51
237.3229989
0
ARC
8
DEFAULT_255_2_778
10
12.5167841
20
4.2495769
40
4.4521888
50
182.7409355
51
197.4008418
0
ARC
8
DEFAULT_255_2_778
10
12.6598261
20
4.2605256
40
4.5955925
50
179.9965135
51
182.7920011
0
ARC
8
DEFAULT_255_2_778
10
12.5602981
20
4.265642
40
4.4960672
50
166.3895447
51
180.0616373
0
ARC
8
DEFAULT_255_2_778
10
12.4619237
20
4.2862296
40
4.3956118
50
145.1574609
51
166.3486163
0
ARC
8
DEFAULT_255_2_778
10
12.5518427
20
4.2163542
40
4.5093362
50
112.4573996
51
145.0815335
0
ARC
8
DEFAULT_255_2_778
10
12.6015391
20
4.1067441
40
4.6296194
50
96.6744261
51
112.5076076
0
ARC
8
DEFAULT_255_2_778
10
12.6203577
20
3.9671668
40
4.7704385
50
89.984676
51
96.7040725
0
ARC
8
DEFAULT_255_2_778
10
12.625846
20
3.9595513
40
4.7780558
50
76.837221
51
90.0505133
0
ARC
8
DEFAULT_255_2_778
10
12.6645596
20
4.1257859
40
4.6073728
50
58.7445374
51
76.8352536
0
ARC
8
DEFAULT_255_2_778
10
12.7618035
20
4.2643206
40
4.4385033
50
16.1532429
51
58.889772
0
ARC
8
DEFAULT_255_2_778
10
12.7346267
20
4.2701537
40
4.463004
50
1.6923838
51
15.9842485
0
ARC
8
DEFAULT_255_2_778
10
12.5891044
20
4.2612095
40
4.6087292
50
359.9987033
51
1.7501001
0
ARC
8
DEFAULT_255_2_778
10
12.7049178
20
4.2561118
40
4.4929185
50
346.3798153
51
0.0636787
0
ARC
8
DEFAULT_255_2_778
10
12.8095807
20
4.2339784
40
4.385988
50
324.9449128
51
346.3388541
0
ARC
8
DEFAULT_255_2_778
10
12.7138062
20
4.309033
40
4.5075023
50
293.9916281
51
324.8631753
0
ARC
8
DEFAULT_255_2_778
10
12.6498056
20
4.4411097
40
4.6541935
50
278.2513616
51
294.0503309
0
ARC
8
DEFAULT_255_2_778
10
12.6240339
20
4.6041286
40
4.8192238
50
269.9750293
51
278.2764365
0
ARC
8
DEFAULT_255_2_778
10
12.6293354
20
4.2324014
40
2.026909
50
269.7964224
51
290.964267
0
ARC
8
DEFAULT_255_2_778
10
12.6611621
20
4.1321375
40
1.921905
50
291.1477023
51
337.3997657
0
ARC
8
DEFAULT_255_2_778
10
12.4433328
20
4.2299902
40
2.1606217
50
337.2240335
51
354.4534802
0
ARC
8
DEFAULT_255_2_778
10
12.2115647
20
4.2595237
40
2.3941692
50
354.2861043
51
0.0306681
0
ARC
8
DEFAULT_255_2_778
10
12.3181493
20
4.2684097
40
2.2875969
50
359.8095345
51
14.9760868
0
ARC
8
DEFAULT_255_2_778
10
12.5804768
20
4.3398885
40
2.0157088
50
14.9402339
51
37.0225928
0
ARC
8
DEFAULT_255_2_778
10
12.6598195
20
4.391411
40
1.92135
50
37.2205782
51
81.0109258
0
ARC
8
DEFAULT_255_2_778
10
12.6236588
20
4.2262335
40
2.0901724
50
80.73932
51
90.0472916
0
ARC
8
DEFAULT_255_2_778
10
12.6158238
20
4.3235439
40
1.9928707
50
89.8243406
51
114.4444527
0
ARC
8
DEFAULT_255_2_778
10
12.6014225
20
4.3700734
40
1.9445623
50
114.625484
51
155.5359693
0
ARC
8
DEFAULT_255_2_778
10
12.7642978
20
4.2931679
40
2.1246646
50
155.4671829
51
173.3951142
0
ARC
8
DEFAULT_255_2_778
10
12.9768007
20
4.2627107
40
2.3392675
50
173.252747
51
180.0393244
0
ARC
8
DEFAULT_255_2_778
10
12.8896255
20
4.2538917
40
2.2521034
50
179.8164801
51
195.3917095
0
ARC
8
DEFAULT_255_2_778
10
12.661922
20
4.1906251
40
2.0157749
50
195.3757586
51
218.0444261
0
ARC
8
DEFAULT_255_2_778
10
12.6006859
20
4.1494057
40
1.942154
50
218.2000895
51
264.2137098
0
ARC
8
DEFAULT_255_2_778
10
12.6206017
20
4.2628854
40
2.0570804
50
263.9804817
51
270.014814
0
LINE
8
DEFAULT_255_2_778
10
1.3551336
20
-0.2150948
11
1.3551336
21
-0.2150948
0
LINE
8
DEFAULT_255_2_778
10
5.5318336
20
10.0435052
11
5.5318336
21
10.0435052
0
LINE
8
DEFAULT_255_2_778
10
4.1912336
20
8.2841052
11
4.1912336
21
0.2725052
0
LINE
8
DEFAULT_255_2_778
10
4.4592336
20
0.0113052
11
6.6039336
21
0.0113052
0
LINE
8
DEFAULT_255_2_778
10
6.8725336
20
0.2725052
11
6.8725336
21
8.2849052
0
LINE
8
DEFAULT_255_2_778
10
6.6039336
20
8.5460052
11
4.4592336
21
8.5460052
0
LINE
8
DEFAULT_255_2_778
10
4.1912336
20
8.2849052
11
4.1912336
21
8.2841052
0
LINE
8
DEFAULT_255_2_778
10
12.6219336
20
-0.2150948
11
12.6221336
21
-0.2153948
0
LINE
8
DEFAULT_255_2_778
10
12.6211336
20
2.2058052
11
12.6221336
21
2.2055052
0
ENDSEC
0
EOF