0
SECTION
2
HEADER
9
$MEASUREMENT
70
1
0
ENDSEC
0
SECTION
2
TABLES
0
TABLE
2
LTYPE
0
LTYPE
72
65
70
64
2
CONTINUOUS
3
______
73
0
40
0
0
ENDTAB
0
TABLE
2
LAYER
0
LAYER
2
DEFAULT_255_2_778
70
0
62
255
6
CONTINUOUS
0
ENDTAB
0
ENDSEC
0
SECTION
2
ENTITIES
0
ARC
8
DEFAULT_255_2_778
10
21.8237062
20
-7.845557
40
2.343238
50
284.4161943
51
313.7414575
0
ARC
8
DEFAULT_255_2_778
10
21.3440273
20
-6.3096945
40
3.9510184
50
277.6670054
51
285.6083225
0
ARC
8
DEFAULT_255_2_778
10
21.1048728
20
-4.580048
40
5.6971125
50
272.527153
51
277.7299108
0
ARC
8
DEFAULT_255_2_778
10
20.989051
20
-2.2512716
40
8.0287414
50
270.2109142
51
272.6201169
0
ARC
8
DEFAULT_255_2_778
10
20.9721064
20
-0.505509
40
9.7745603
50
269.9983999
51
270.272568
0
ARC
8
DEFAULT_255_2_778
10
20.9683247
20
-2.7713876
40
7.5086825
50
267.7418322
51
270.0267744
0
ARC
8
DEFAULT_255_2_778
10
20.9149194
20
-4.0227762
40
6.2561627
50
263.9901135
51
267.7789809
0
ARC
8
DEFAULT_255_2_778
10
20.818204
20
-4.989445
40
5.2846831
50
261.8493044
51
263.9356164
0
ARC
8
DEFAULT_255_2_778
10
20.5317968
20
-6.6527867
40
3.5978537
50
247.1303758
51
262.608794
0
ARC
8
DEFAULT_255_2_778
10
19.9012819
20
-8.1523093
40
1.9711665
50
224.6857679
51
247.0775705
0
ARC
8
DEFAULT_255_2_778
10
26.7346076
20
0.2355509
40
1.2576604
50
299.2764352
51
359.5753942
0
ARC
8
DEFAULT_255_2_778
10
26.6691397
20
0.3367034
40
1.3779295
50
280.3445268
51
299.5941038
0
ARC
8
DEFAULT_255_2_778
10
26.7002591
20
0.1974211
40
1.2353358
50
275.2644108
51
280.0846514
0
ARC
8
DEFAULT_255_2_778
10
26.70519
20
0.1434386
40
1.1811287
50
270.0196367
51
275.2664906
0
ARC
8
DEFAULT_255_2_778
10
26.6980722
20
0.0201351
40
1.0578518
50
236.7249006
51
270.4074463
0
ARC
8
DEFAULT_255_2_778
10
26.7055176
20
0.0275152
40
1.068109
50
236.3354735
51
236.6082021
0
ARC
8
DEFAULT_255_2_778
10
26.8751298
20
0.3403421
40
1.4228604
50
194.8017364
51
237.6338741
0
ARC
8
DEFAULT_255_2_778
10
26.5759316
20
0.2268513
40
1.1050983
50
180.0321755
51
193.0756549
0
ARC
8
DEFAULT_255_2_778
10
26.7862512
20
0.1835069
40
1.3161114
50
149.2222337
51
178.1397284
0
ARC
8
DEFAULT_255_2_778
10
26.7119692
20
0.2373989
40
1.2247423
50
90.2355819
51
149.610102
0
ARC
8
DEFAULT_255_2_778
10
26.7023167
20
0.2202483
40
1.241891
50
10.8941402
51
89.7870017
0
ARC
8
DEFAULT_255_2_778
10
26.7044529
20
0.2267394
40
1.2385808
50
359.9672157
51
10.6179534
0
ARC
8
DEFAULT_255_2_778
10
24.8235231
20
-7.3147555
40
3.3664918
50
328.4118391
51
359.6015078
0
ARC
8
DEFAULT_255_2_778
10
23.9427927
20
-6.8184262
40
4.3768808
50
317.2722249
51
328.9164152
0
ARC
8
DEFAULT_255_2_778
10
23.1949276
20
-6.1342272
40
5.3904939
50
308.2183029
51
317.3236207
0
ARC
8
DEFAULT_255_2_778
10
22.4962131
20
-5.2517005
40
6.5161262
50
300.3682746
51
308.2444018
0
ARC
8
DEFAULT_255_2_778
10
21.9048276
20
-4.2488524
40
7.6803564
50
293.4539365
51
300.3925025
0
ARC
8
DEFAULT_255_2_778
10
21.4641111
20
-3.2403511
40
8.7809466
50
287.1991609
51
293.4729205
0
ARC
8
DEFAULT_255_2_778
10
21.1708569
20
-2.2985259
40
9.7673697
50
281.1034669
51
287.2088311
0
ARC
8
DEFAULT_255_2_778
10
21.0055377
20
-1.4618868
40
10.6201853
50
274.8378506
51
281.1094202
0
ARC
8
DEFAULT_255_2_778
10
20.9501347
20
-0.8512456
40
11.2333241
50
269.983672
51
274.8567558
0
ARC
8
DEFAULT_255_2_778
10
20.9418685
20
-0.8941641
40
11.1904063
50
263.6311705
51
270.0259332
0
ARC
8
DEFAULT_255_2_778
10
20.8664334
20
-1.5608261
40
10.5194909
50
257.5879093
51
263.6367143
0
ARC
8
DEFAULT_255_2_778
10
20.6750378
20
-2.4191389
40
9.640101
50
251.1841903
51
257.6023826
0
ARC
8
DEFAULT_255_2_778
10
20.3266852
20
-3.4351505
40
8.566032
50
244.4868616
51
251.197873
0
ARC
8
DEFAULT_255_2_778
10
19.824493
20
-4.4836458
40
7.403476
50
237.4192617
51
244.4993665
0
ARC
8
DEFAULT_255_2_778
10
19.1930362
20
-5.4669874
40
6.2348485
50
229.4040281
51
237.4428741
0
ARC
8
DEFAULT_255_2_778
10
18.4651466
20
-6.3114163
40
5.1200072
50
219.7625005
51
229.4399661
0
ARC
8
DEFAULT_255_2_778
10
17.6955801
20
-6.9453818
40
4.1229539
50
206.814957
51
219.8304445
0
ARC
8
DEFAULT_255_2_778
10
16.9663272
20
-7.3007746
40
3.3118185
50
180.2213542
51
207.0190503
0
ARC
8
DEFAULT_255_2_778
10
17.0234836
20
-7.3368063
40
3.3690303
50
146.2243458
51
179.6048145
0
ARC
8
DEFAULT_255_2_778
10
17.92991
20
-7.8876014
40
4.4289209
50
135.4990534
51
146.8205927
0
ARC
8
DEFAULT_255_2_778
10
18.6777587
20
-8.6168592
40
5.4734693
50
126.4860097
51
135.5414263
0
ARC
8
DEFAULT_255_2_778
10
19.3739008
20
-9.5515246
40
6.6388879
50
118.9397143
51
126.519865
0
ARC
8
DEFAULT_255_2_778
10
19.9644916
20
-10.6147835
40
7.8551576
50
112.062873
51
118.9568113
0
ARC
8
DEFAULT_255_2_778
10
20.4171052
20
-11.7253341
40
9.0543977
50
105.6209605
51
112.0775569
0
ARC
8
DEFAULT_255_2_778
10
20.7082461
20
-12.7565556
40
10.1259266
50
99.593281
51
105.636284
0
ARC
8
DEFAULT_255_2_778
10
20.8567479
20
-13.6251735
40
11.0071458
50
93.545197
51
99.6019591
0
ARC
8
DEFAULT_255_2_778
10
20.8956599
20
-14.173087
40
11.5564179
50
89.9912068
51
93.5697728
0
ARC
8
DEFAULT_255_2_778
10
20.9023983
20
-13.675322
40
11.0586538
50
83.5947828
51
90.0257233
0
ARC
8
DEFAULT_255_2_778
10
20.9761583
20
-13.0270953
40
10.4062451
50
77.5239909
51
83.6001992
0
ARC
8
DEFAULT_255_2_778
10
21.1634086
20
-12.1918128
40
9.550235
50
71.1002842
51
77.538281
0
ARC
8
DEFAULT_255_2_778
10
21.5064709
20
-11.1964117
40
8.4973771
50
64.3512235
51
71.1147389
0
ARC
8
DEFAULT_255_2_778
10
22.0030937
20
-10.1655121
40
7.3530933
50
57.2864917
51
64.3625954
0
ARC
8
DEFAULT_255_2_778
10
22.6274076
20
-9.1982479
40
6.2018502
50
49.2869454
51
57.3099605
0
ARC
8
DEFAULT_255_2_778
10
23.3495201
20
-8.3640067
40
5.0984952
50
39.6750427
51
49.3229011
0
ARC
8
DEFAULT_255_2_778
10
24.1164909
20
-7.7342149
40
4.1060982
50
26.7733977
51
39.74373
0
ARC
8
DEFAULT_255_2_778
10
24.8525259
20
-7.3766774
40
3.2879356
50
0.2371369
51
26.9885905
0
ARC
8
DEFAULT_255_2_778
10
14.3591873
20
-5.0804432
40
1.6193746
50
180.2910508
51
247.0801663
0
ARC
8
DEFAULT_255_2_778
10
14.3124011
20
-5.0913002
40
1.5725698
50
111.2156778
51
179.9041425
0
ARC
8
DEFAULT_255_2_778
10
14.2103203
20
-4.9288704
40
1.3846857
50
107.1101036
51
109.7100751
0
ARC
8
DEFAULT_255_2_778
10
14.3641486
20
-5.4224375
40
1.9016667
50
97.2242891
51
107.1645844
0
ARC
8
DEFAULT_255_2_778
10
14.3492531
20
-5.3117101
40
1.7899451
50
90.0309301
51
97.1969872
0
ARC
8
DEFAULT_255_2_778
10
14.3652631
20
-5.0940999
40
1.5724263
50
48.9307488
51
90.6185922
0
ARC
8
DEFAULT_255_2_778
10
14.3316108
20
-5.1213247
40
1.6150774
50
39.2265219
51
48.6652106
0
ARC
8
DEFAULT_255_2_778
10
27.4343807
20
-5.0653441
40
1.5421454
50
116.8104737
51
142.4073944
0
ARC
8
DEFAULT_255_2_778
10
27.429019
20
-5.0585862
40
1.5336965
50
89.9753422
51
116.7455739
0
ARC
8
DEFAULT_255_2_778
10
27.4295972
20
-5.0726326
40
1.5477427
50
83.6923385
51
89.9969716
0
ARC
8
DEFAULT_255_2_778
10
27.4267448
20
-5.0938116
40
1.5691069
50
71.6993236
51
83.6737793
0
ARC
8
DEFAULT_255_2_778
10
27.4177644
20
-5.1232332
40
1.5998604
50
68.9566297
51
71.724831
0
ARC
8
DEFAULT_255_2_778
10
27.3834883
20
-5.2249459
40
1.7071034
50
42.5019163
51
69.1087484
0
ARC
8
DEFAULT_255_2_778
10
27.5062982
20
-5.1250233
40
1.54908
50
0.4347503
51
42.846037
0
ARC
8
DEFAULT_255_2_778
10
27.4361372
20
-5.1051482
40
1.6192166
50
292.9161457
51
359.7126345
0
LINE
8
DEFAULT_255_2_778
10
25.4213335
20
0.4734307
11
22.2077335
21
1.2150307
0
LINE
8
DEFAULT_255_2_778
10
22.2077335
20
1.2150307
11
20.9715335
21
-2.5917693
0
LINE
8
DEFAULT_255_2_778
10
20.9715335
20
-2.5917693
11
22.2077335
21
1.2150307
0
LINE
8
DEFAULT_255_2_778
10
27.9430335
20
0.2260307
11
27.9922335
21
0.2262307
0
LINE
8
DEFAULT_255_2_778
10
28.1404335
20
-7.3630693
11
28.1899335
21
-7.3381693
0
ARC
8
DEFAULT_255_2_778
10
20.8924502
20
-1.0044171
40
11.376683
50
263.7087245
51
270.025601
0
ARC
8
DEFAULT_255_2_778
10
20.8182306
20
-1.6661083
40
10.7108437
50
257.4948214
51
263.7154783
0
ARC
8
DEFAULT_255_2_778
10
20.6330035
20
-2.4931817
40
9.8632848
50
251.1392177
51
257.5049782
0
ARC
8
DEFAULT_255_2_778
10
20.3020093
20
-3.4556553
40
8.8454893
50
244.4466769
51
251.1527133
0
ARC
8
DEFAULT_255_2_778
10
19.813134
20
-4.4733828
40
7.716435
50
237.2682395
51
244.4619566
0
ARC
8
DEFAULT_255_2_778
10
19.1823576
20
-5.4499954
40
6.553833
50
229.1933217
51
237.2905779
0
ARC
8
DEFAULT_255_2_778
10
18.4560662
20
-6.2876101
40
5.4451892
50
219.8587641
51
229.2181023
0
ARC
8
DEFAULT_255_2_778
10
17.6842043
20
-6.9257189
40
4.443728
50
207.4751218
51
219.9213626
0
ARC
8
DEFAULT_255_2_778
10
16.8861428
20
-7.3214399
40
3.5531488
50
180.270247
51
207.7509989
0
ARC
8
DEFAULT_255_2_778
10
16.1522601
20
-7.3484664
40
2.8192452
50
174.0025317
51
179.7913329
0
ARC
8
DEFAULT_255_2_778
10
24.5849409
20
-8.2569544
40
11.300715
50
172.4370124
51
173.8888053
0
ARC
8
DEFAULT_255_2_778
10
14.3239486
20
-5.2069242
40
1.8243395
50
189.2713636
51
238.9336332
0
ARC
8
DEFAULT_255_2_778
10
14.6122911
20
-5.1413426
40
2.1195599
50
179.9150212
51
189.7652383
0
ARC
8
DEFAULT_255_2_778
10
14.4169323
20
-5.1385804
40
1.9241987
50
154.9518778
51
179.9886416
0
ARC
8
DEFAULT_255_2_778
10
14.4254128
20
-5.143276
40
1.9338698
50
99.6402538
51
154.9322203
0
ARC
8
DEFAULT_255_2_778
10
14.4234022
20
-5.1544921
40
1.9445946
50
90.0697902
51
99.5265097
0
ARC
8
DEFAULT_255_2_778
10
14.4328406
20
-5.0670509
40
1.8571895
50
72.6966407
51
90.3642597
0
ARC
8
DEFAULT_255_2_778
10
14.4881524
20
-4.8618441
40
1.6448388
50
44.7232436
51
72.4100883
0
ARC
8
DEFAULT_255_2_778
10
20.6756838
20
-11.937089
40
9.64189
50
90.0026754
51
121.3675118
0
ARC
8
DEFAULT_255_2_778
10
26.6976001
20
0.3144014
40
1.5928271
50
90.0016961
51
157.7158769
0
ARC
8
DEFAULT_255_2_778
10
26.6975848
20
0.312338
40
1.5948905
50
89.6641459
51
90.0011419
0
ARC
8
DEFAULT_255_2_778
10
26.6996855
20
0.3518774
40
1.5553405
50
51.633487
51
89.732994
0
ARC
8
DEFAULT_255_2_778
10
26.6898278
20
0.3036219
40
1.5994487
50
0.7658691
51
52.4295771
0
ARC
8
DEFAULT_255_2_778
10
26.6629596
20
0.3689751
40
1.6267685
50
271.5489802
51
358.4510198
0
ARC
8
DEFAULT_255_2_778
10
26.7052349
20
0.4528491
40
1.7100489
50
235.7336048
51
270.0569146
0
ARC
8
DEFAULT_255_2_778
10
26.5381107
20
0.2392873
40
1.4395683
50
186.9992374
51
236.4449436
0
ARC
8
DEFAULT_255_2_778
10
26.5327697
20
0.2254087
40
1.4326361
50
179.9763114
51
186.4743469
0
ARC
8
DEFAULT_255_2_778
10
21.1249397
20
-11.9582256
40
9.6405826
50
58.3227621
51
88.7066891
0
ARC
8
DEFAULT_255_2_778
10
27.4617182
20
-5.1556764
40
1.8943407
50
93.7901319
51
132.2701409
0
ARC
8
DEFAULT_255_2_778
10
27.4974878
20
-5.359276
40
2.099977
50
89.9932939
51
94.3967487
0
ARC
8
DEFAULT_255_2_778
10
27.4971656
20
-5.1837625
40
1.9244636
50
64.9494353
51
89.9830917
0
ARC
8
DEFAULT_255_2_778
10
27.4925875
20
-5.192097
40
1.9339527
50
9.6344569
51
64.9311118
0
ARC
8
DEFAULT_255_2_778
10
27.4817106
20
-5.1899723
40
1.9443244
50
0.0699383
51
9.5190853
0
ARC
8
DEFAULT_255_2_778
10
27.5034608
20
-5.1879652
40
1.9225728
50
299.1227749
51
0.0109148
0
ARC
8
DEFAULT_255_2_778
10
27.4713778
20
-5.1434961
40
1.9770447
50
299.2476661
51
299.3078062
0
ARC
8
DEFAULT_255_2_778
10
24.7724656
20
-7.4762617
40
3.7149203
50
0.9880984
51
9.4159431
0
ARC
8
DEFAULT_255_2_778
10
24.8585222
20
-7.3864859
40
3.6284024
50
327.8969486
51
359.5939643
0
ARC
8
DEFAULT_255_2_778
10
23.9192634
20
-6.8491264
40
4.7098242
50
317.0446188
51
328.4318513
0
ARC
8
DEFAULT_255_2_778
10
23.151938
20
-6.1413846
40
5.7536955
50
308.1457143
51
317.0933356
0
ARC
8
DEFAULT_255_2_778
10
22.4432695
20
-5.2437947
40
6.8973175
50
300.38085
51
308.1699571
0
ARC
8
DEFAULT_255_2_778
10
21.8507517
20
-4.2395807
40
8.0632996
50
293.5210609
51
300.4041443
0
ARC
8
DEFAULT_255_2_778
10
21.4043386
20
-3.2182581
40
9.1779213
50
286.902082
51
293.5318389
0
ARC
8
DEFAULT_255_2_778
10
21.1116707
20
-2.2619159
40
10.178042
50
280.4279512
51
286.9132369
0
ARC
8
DEFAULT_255_2_778
10
20.9636021
20
-1.4686498
40
10.9850064
50
274.0322575
51
280.4386051
0
ARC
8
DEFAULT_255_2_778
10
20.9242154
20
-0.9727398
40
11.4824593
50
269.99061
51
274.0543014
0
ARC
8
DEFAULT_255_2_778
10
16.4102361
20
-7.1720799
40
2.4319565
50
168.698836
51
175.5597057
0
ARC
8
DEFAULT_255_2_778
10
17.6763187
20
-7.2503536
40
3.700353
50
175.8690992
51
180.392055
0
ARC
8
DEFAULT_255_2_778
10
39.843968
20
-7.3074594
40
25.8679353
50
179.9295968
51
180.0135988
0
ARC
8
DEFAULT_255_2_778
10
17.0763098
20
-7.2902606
40
3.1003641
50
180.4313048
51
212.1156867
0
ARC
8
DEFAULT_255_2_778
10
17.9481736
20
-6.7890407
40
4.1054612
50
211.5715632
51
223.3538527
0
ARC
8
DEFAULT_255_2_778
10
18.6966051
20
-6.0895808
40
5.1298498
50
223.2957397
51
232.4041598
0
ARC
8
DEFAULT_255_2_778
10
19.3959308
20
-5.1866065
40
6.2719579
50
232.3748717
51
240.1919738
0
ARC
8
DEFAULT_255_2_778
10
19.9944452
20
-4.1472186
40
7.4713498
50
240.171626
51
247.2499316
0
ARC
8
DEFAULT_255_2_778
10
20.4451459
20
-3.0790898
40
8.6306706
50
247.232816
51
253.85703
0
ARC
8
DEFAULT_255_2_778
10
20.730652
20
-2.1007102
40
9.6498546
50
253.8438195
51
260.3128828
0
ARC
8
DEFAULT_255_2_778
10
20.8678932
20
-1.3086414
40
10.453723
50
260.3018954
51
266.8583154
0
ARC
8
DEFAULT_255_2_778
10
20.8967116
20
-0.8787476
40
10.8845514
50
266.8308656
51
270.0053796
0
ARC
8
DEFAULT_255_2_778
10
20.9025177
20
-1.011599
40
10.751701
50
269.9745055
51
276.4961099
0
ARC
8
DEFAULT_255_2_778
10
20.9795634
20
-1.6731213
40
10.0857097
50
276.4864001
51
282.8372161
0
ARC
8
DEFAULT_255_2_778
10
21.1784154
20
-2.5391797
40
9.197117
50
282.8281248
51
289.0853982
0
ARC
8
DEFAULT_255_2_778
10
21.5268169
20
-3.5395074
40
8.1378561
50
289.0701451
51
295.684675
0
ARC
8
DEFAULT_255_2_778
10
22.037531
20
-4.5953222
40
6.9650111
50
295.6629352
51
302.9862735
0
ARC
8
DEFAULT_255_2_778
10
22.6838946
20
-5.5868098
40
5.7814457
50
302.9628175
51
311.2252942
0
ARC
8
DEFAULT_255_2_778
10
23.4169604
20
-6.4178588
40
4.6732889
50
311.1802107
51
321.3705216
0
ARC
8
DEFAULT_255_2_778
10
24.1813032
20
-7.0217473
40
3.6991923
50
321.2867617
51
335.4308979
0
ARC
8
DEFAULT_255_2_778
10
24.8094988
20
-7.3051318
40
3.0100466
50
335.3648337
51
359.8388291
0
ARC
8
DEFAULT_255_2_778
10
25.4930056
20
-7.313599
40
2.326528
50
1e-7
51
0.1163858
0
ARC
8
DEFAULT_255_2_778
10
24.0531586
20
-7.3625139
40
3.7667522
50
0.8159551
51
8.4276398
0
ARC
8
DEFAULT_255_2_778
10
18.4619484
20
-8.0869915
40
9.4043286
50
7.8013519
51
8.2040823
0
ARC
8
DEFAULT_255_2_778
10
24.0253211
20
-7.6700751
40
3.8572837
50
13.8762586
51
26.19833
0
ARC
8
DEFAULT_255_2_778
10
23.9985371
20
-7.7168856
40
3.9020987
50
26.641436
51
49.3552478
0
ARC
8
DEFAULT_255_2_778
10
23.14764
20
-8.6399013
40
5.1568861
50
48.8618555
51
54.8883606
0
ARC
8
DEFAULT_255_2_778
10
21.0799891
20
-12.0583701
40
9.1466886
50
56.6099893
51
89.9994076
0
ARC
8
DEFAULT_255_2_778
10
21.080089
20
-12.0622424
40
9.1505608
50
90.0000337
51
91.1418852
0
ARC
8
DEFAULT_255_2_778
10
20.696754
20
-12.0626184
40
9.1513266
50
88.7415809
51
89.9999821
0
ARC
8
DEFAULT_255_2_778
10
20.696767
20
-12.0589966
40
9.1477049
50
90.0000632
51
121.9585632
0
ARC
8
DEFAULT_255_2_778
10
19.5111236
20
-9.5402624
40
6.3915475
50
124.8933597
51
130.6757274
0
ARC
8
DEFAULT_255_2_778
10
18.7056846
20
-8.6053832
40
5.1575586
50
130.6588369
51
137.4486783
0
ARC
8
DEFAULT_255_2_778
10
17.9446996
20
-7.9107004
40
4.1271839
50
137.4089311
51
146.1203014
0
ARC
8
DEFAULT_255_2_778
10
17.2565341
20
-7.4516165
40
3.2999462
50
146.077198
51
157.54487
0
ARC
8
DEFAULT_255_2_778
10
16.8239534
20
-7.2661886
40
2.8293449
50
157.6692101
51
166.3147384
0
ARC
8
DEFAULT_255_2_778
10
23.2993693
20
-8.3482017
40
5.4654278
50
43.3198123
51
51.4295673
0
ARC
8
DEFAULT_255_2_778
10
23.6192001
20
-8.0436792
40
5.0238162
50
32.0406834
51
43.2955804
0
ARC
8
DEFAULT_255_2_778
10
23.4744419
20
-8.1262136
40
5.1903144
50
22.6562233
51
31.9652296
0
ARC
8
DEFAULT_255_2_778
10
27.4936542
20
-5.1194749
40
1.2683438
50
307.4123994
51
339.272734
0
ARC
8
DEFAULT_255_2_778
10
27.53676
20
-5.1362796
40
1.2220805
50
339.2943504
51
359.7422738
0
ARC
8
DEFAULT_255_2_778
10
27.5280722
20
-5.1381302
40
1.2307614
50
359.8302397
51
359.9967968
0
ARC
8
DEFAULT_255_2_778
10
27.4261056
20
-5.1311894
40
1.3327464
50
359.6986539
51
22.6855253
0
ARC
8
DEFAULT_255_2_778
10
27.5033364
20
-5.107658
40
1.2524412
50
23.054933
51
84.0279434
0
ARC
8
DEFAULT_255_2_778
10
27.4739945
20
-5.2403319
40
1.3875331
50
83.3928897
51
90.0231645
0
ARC
8
DEFAULT_255_2_778
10
27.5055246
20
-5.1855111
40
1.3330985
50
91.3793856
51
125.4766047
0
ARC
8
DEFAULT_255_2_778
10
14.3399322
20
-5.1603766
40
1.332496
50
89.6989483
51
112.6876819
0
ARC
8
DEFAULT_255_2_778
10
14.3165175
20
-5.0833945
40
1.2524657
50
113.0577576
51
174.0281354
0
ARC
8
DEFAULT_255_2_778
10
14.4491665
20
-5.112738
40
1.3875331
50
173.3928898
51
180.0231645
0
ARC
8
DEFAULT_255_2_778
10
14.3645524
20
-5.1161666
40
1.3029219
50
179.8738979
51
210.5014871
0
ARC
8
DEFAULT_255_2_778
10
14.4395124
20
-5.0708701
40
1.3904998
50
210.5419237
51
227.8638491
0
ARC
8
DEFAULT_255_2_778
10
17.742219
20
-7.8090166
40
4.5666283
50
147.6001946
51
158.0496721
0
ARC
8
DEFAULT_255_2_778
10
18.0921327
20
-8.0224294
40
4.9764278
50
134.0714968
51
147.6842592
0
ARC
8
DEFAULT_255_2_778
10
17.9501461
20
-7.8750981
40
4.7718148
50
127.2177526
51
134.077063
0
ARC
8
DEFAULT_255_2_778
10
13.9359263
20
-5.9224371
40
2.1644996
50
58.5912515
51
67.5437467
0
ARC
8
DEFAULT_255_2_778
10
14.1788405
20
-5.3640879
40
1.5557418
50
67.9568662
51
70.6961775
0
ARC
8
DEFAULT_255_2_778
10
14.3085062
20
-4.9496284
40
1.1218148
50
69.9486792
51
89.2937624
0
ARC
8
DEFAULT_255_2_778
10
26.6485816
20
0.2344975
40
0.9558366
50
90.9560187
51
177.3805046
0
ARC
8
DEFAULT_255_2_778
10
26.5999593
20
0.2509125
40
0.9066258
50
178.2763972
51
180.0007265
0
ARC
8
DEFAULT_255_2_778
10
26.6296666
20
0.2496638
40
0.9363339
50
179.9242923
51
224.3895711
0
ARC
8
DEFAULT_255_2_778
10
26.6315408
20
0.248067
40
0.9365593
50
224.2395599
51
269.6955067
0
ARC
8
DEFAULT_255_2_778
10
26.6327626
20
0.2819052
40
0.9704041
50
269.6339828
51
269.9982834
0
ARC
8
DEFAULT_255_2_778
10
26.6339708
20
0.2478341
40
0.9363339
50
269.9242923
51
314.3895711
0
ARC
8
DEFAULT_255_2_778
10
26.6355676
20
0.2497083
40
0.9365593
50
314.2395599
51
359.6955067
0
ARC
8
DEFAULT_255_2_778
10
26.6017294
20
0.2509301
40
0.9704041
50
359.6339828
51
359.9982834
0
ARC
8
DEFAULT_255_2_778
10
26.6358161
20
0.2521176
40
0.9363183
50
359.9255563
51
44.7300243
0
ARC
8
DEFAULT_255_2_778
10
26.6340563
20
0.2538228
40
0.9363717
50
44.5801169
51
89.7001799
0
ARC
8
DEFAULT_255_2_778
10
26.632867
20
0.2345833
40
0.9556176
50
89.6349085
51
90.0020022
0
ARC
8
DEFAULT_255_2_778
10
20.8589985
20
-2.6307565
40
7.9459545
50
266.0899805
51
270.0997606
0
ARC
8
DEFAULT_255_2_778
10
20.7055328
20
-4.809798
40
5.7615221
50
260.578953
51
266.1349313
0
ARC
8
DEFAULT_255_2_778
10
20.4308699
20
-6.4423641
40
4.1060186
50
253.0222648
51
260.6309496
0
ARC
8
DEFAULT_255_2_778
10
20.0817509
20
-7.5700625
40
2.9255282
50
241.8235702
51
253.1126634
0
ARC
8
DEFAULT_255_2_778
10
19.7413368
20
-8.2021961
40
2.2075647
50
224.0144165
51
241.864791
0
ARC
8
DEFAULT_255_2_778
10
20.2452989
20
-10.1856505
40
2.1393321
50
163.8941477
51
167.8696559
0
ARC
8
DEFAULT_255_2_778
10
19.5060082
20
-9.9708359
40
1.3694663
50
158.6606859
51
163.948312
0
ARC
8
DEFAULT_255_2_778
10
18.9908914
20
-9.7675681
40
0.8157
50
150.9577509
51
158.7931596
0
ARC
8
DEFAULT_255_2_778
10
18.6652835
20
-9.5844757
40
0.442155
50
138.7780627
51
151.2173079
0
ARC
8
DEFAULT_255_2_778
10
18.5211653
20
-9.4593842
40
0.2513237
50
125.2029827
51
138.5770861
0
ARC
8
DEFAULT_255_2_778
10
18.4716672
20
-9.3887975
40
0.1651119
50
105.7480254
51
125.2882865
0
ARC
8
DEFAULT_255_2_778
10
18.4632239
20
-9.3626348
40
0.1376435
50
90.024166
51
105.3210781
0
ARC
8
DEFAULT_255_2_778
10
18.4547689
20
-9.4098773
40
0.1850765
50
46.6477972
51
87.3996001
0
ARC
8
DEFAULT_255_2_778
10
18.3811973
20
-9.5083955
40
0.3075442
50
44.9552396
51
49.2817944
0
ARC
8
DEFAULT_255_2_778
10
19.8597178
20
-8.0150832
40
1.7938911
50
225.3417415
51
242.7587883
0
ARC
8
DEFAULT_255_2_778
10
20.1746181
20
-7.416714
40
2.4700427
50
242.6178055
51
252.9753617
0
ARC
8
DEFAULT_255_2_778
10
20.472029
20
-6.4619987
40
3.4700017
50
252.8952186
51
260.1688459
0
ARC
8
DEFAULT_255_2_778
10
20.7124201
20
-5.0955587
40
4.8574227
50
260.1269968
51
265.6845891
0
ARC
8
DEFAULT_255_2_778
10
20.8555538
20
-3.2584648
40
6.7000801
50
265.6461741
51
269.8541039
0
ARC
8
DEFAULT_255_2_778
10
20.8731203
20
-2.0492484
40
7.9093506
50
269.7491566
51
270.0000959
0
ARC
8
DEFAULT_255_2_778
10
20.8832215
20
-3.6310248
40
6.3275822
50
269.9086542
51
274.3016112
0
ARC
8
DEFAULT_255_2_778
10
20.992961
20
-5.071862
40
4.8825728
50
274.2856777
51
279.4914565
0
ARC
8
DEFAULT_255_2_778
10
21.1872339
20
-6.2194061
40
3.7187033
50
279.4547454
51
286.1096232
0
ARC
8
DEFAULT_255_2_778
10
21.4486967
20
-7.1145681
40
2.7861438
50
286.0518393
51
294.9719102
0
ARC
8
DEFAULT_255_2_778
10
21.7481692
20
-7.750554
40
2.0831857
50
294.8899592
51
307.6115318
0
ARC
8
DEFAULT_255_2_778
10
21.9360409
20
-8.0069845
40
1.7654077
50
307.8606244
51
313.3331737
0
ARC
8
DEFAULT_255_2_778
10
23.4718198
20
-12.0224699
40
2.7505543
50
94.9452639
51
96.7708344
0
ARC
8
DEFAULT_255_2_778
10
23.4024761
20
-11.2186782
40
1.943777
50
92.784236
51
94.9512928
0
ARC
8
DEFAULT_255_2_778
10
23.3743843
20
-10.6337348
40
1.3581597
50
90.0863966
51
92.7992107
0
ARC
8
DEFAULT_255_2_778
10
23.3803877
20
-10.0012818
40
0.7257496
50
81.491182
51
90.6356457
0
ARC
8
DEFAULT_255_2_778
10
23.4536142
20
-9.5441399
40
0.2628482
50
61.5160822
51
82.5334147
0
ARC
8
DEFAULT_255_2_778
10
23.5114223
20
-9.425741
40
0.1313339
50
353.986908
51
59.0480831
0
ARC
8
DEFAULT_255_2_778
10
21.4123596
20
-7.7979483
40
2.7687786
50
310.4099055
51
323.6384221
0
ARC
8
DEFAULT_255_2_778
10
21.4763788
20
-7.8323446
40
2.7012173
50
284.9709092
51
309.8488957
0
ARC
8
DEFAULT_255_2_778
10
21.1080253
20
-6.5883347
40
3.998307
50
276.7896476
51
285.4651169
0
ARC
8
DEFAULT_255_2_778
10
20.8859552
20
-4.7971996
40
5.8031413
50
271.3407109
51
276.8761031
0
ARC
8
DEFAULT_255_2_778
10
20.8261152
20
-3.0875636
40
7.5137356
50
269.983364
51
271.491864
0
LINE
8
DEFAULT_255_2_778
10
20.6752336
20
-2.295199
11
21.9605336
21
1.610601
0
LINE
8
DEFAULT_255_2_778
10
21.9605336
20
1.610601
11
22.2571336
21
1.610601
0
LINE
8
DEFAULT_255_2_778
10
22.2571336
20
1.610601
11
25.2237336
21
0.918401
0
LINE
8
DEFAULT_255_2_778
10
25.1001336
20
0.226001
11
22.3807336
21
0.844101
0
LINE
8
DEFAULT_255_2_778
10
22.3807336
20
0.844101
11
21.3425336
21
-2.320099
0
LINE
8
DEFAULT_255_2_778
10
20.9223336
20
-12.455199
11
20.8975336
21
-12.381099
0
LINE
8
DEFAULT_255_2_778
10
14.0749336
20
-6.596799
11
14.0254336
21
-6.695499
0
LINE
8
DEFAULT_255_2_778
10
26.7318336
20
-4.099899
11
26.7069336
21
-4.075099
0
LINE
8
DEFAULT_255_2_778
10
14.3223336
20
-3.827899
11
14.3469336
21
-3.827899
0
LINE
8
DEFAULT_255_2_778
10
26.6328336
20
1.190201
11
26.6326336
21
1.190201
0
LINE
8
DEFAULT_255_2_778
10
20.8239336
20
-10.601299
11
20.8728336
21
-10.576699
0
ARC
8
DEFAULT_255_2_778
10
23.509604
20
-6.4399582
40
1.203187
50
90.7786143
51
179.1304535
0
ARC
8
DEFAULT_255_2_778
10
23.4148801
20
-6.4235821
40
1.1083262
50
179.9026403
51
180.0000096
0
ARC
8
DEFAULT_255_2_778
10
23.4490943
20
-6.4202082
40
1.1425454
50
180.169202
51
225.3564275
0
ARC
8
DEFAULT_255_2_778
10
23.4952964
20
-6.3857738
40
1.1995424
50
224.9420407
51
268.9866005
0
ARC
8
DEFAULT_255_2_778
10
23.4932643
20
-6.3904001
40
1.1948823
50
269.0801037
51
269.9995036
0
ARC
8
DEFAULT_255_2_778
10
23.4991594
20
-6.4059329
40
1.1793642
50
269.7130984
51
301.4275733
0
ARC
8
DEFAULT_255_2_778
10
23.5213224
20
-6.4492278
40
1.1308703
50
301.6131697
51
347.9493762
0
ARC
8
DEFAULT_255_2_778
10
23.4265216
20
-6.4255318
40
1.2285338
50
347.7916607
51
0.090919
0
ARC
8
DEFAULT_255_2_778
10
23.4095381
20
-6.4164392
40
1.2455364
50
359.6714081
51
25.6085063
0
ARC
8
DEFAULT_255_2_778
10
23.5170256
20
-6.3656295
40
1.1266467
50
25.6410391
51
81.884805
0
ARC
8
DEFAULT_255_2_778
10
23.494316
20
-6.4777471
40
1.2408651
50
81.5775021
51
90.04904
0
ARC
8
DEFAULT_255_2_778
10
18.392604
20
-6.4399582
40
1.203187
50
90.7786143
51
179.1304535
0
ARC
8
DEFAULT_255_2_778
10
18.2978801
20
-6.4235821
40
1.1083262
50
179.9026403
51
180.0000096
0
ARC
8
DEFAULT_255_2_778
10
18.3319062
20
-6.4202921
40
1.142357
50
180.1650227
51
225.1816974
0
ARC
8
DEFAULT_255_2_778
10
18.3782939
20
-6.3857023
40
1.1996202
50
224.7745774
51
268.7995864
0
ARC
8
DEFAULT_255_2_778
10
18.3762328
20
-6.3928627
40
1.1924196
50
268.8913926
51
270.0010168
0
ARC
8
DEFAULT_255_2_778
10
18.382171
20
-6.4060773
40
1.1792198
50
269.7125013
51
301.4295539
0
ARC
8
DEFAULT_255_2_778
10
18.4042617
20
-6.4493058
40
1.1308205
50
301.6166124
51
347.9528793
0
ARC
8
DEFAULT_255_2_778
10
18.3091968
20
-6.4255309
40
1.2287586
50
347.7938847
51
0.0908593
0
ARC
8
DEFAULT_255_2_778
10
18.2924059
20
-6.416441
40
1.2455685
50
359.671502
51
25.6078915
0
ARC
8
DEFAULT_255_2_778
10
18.3999398
20
-6.3655893
40
1.1266188
50
25.6394488
51
81.9107685
0
ARC
8
DEFAULT_255_2_778
10
18.3773066
20
-6.4775458
40
1.2406641
50
81.6034749
51
90.0486145
0
LINE
8
DEFAULT_255_2_778
10
23.4932539
20
-5.2368823
11
23.4932539
21
-5.2368823
0
LINE
8
DEFAULT_255_2_778
10
18.3762539
20
-5.2368823
11
18.3762539
21
-5.2368823
0
ENDSEC
0
EOF