0
SECTION
2
HEADER
9
$MEASUREMENT
70
1
0
ENDSEC
0
SECTION
2
TABLES
0
TABLE
2
LTYPE
0
LTYPE
72
65
70
64
2
CONTINUOUS
3
______
73
0
40
0
0
ENDTAB
0
TABLE
2
LAYER
0
LAYER
2
DEFAULT_255_2_778
70
0
62
255
6
CONTINUOUS
0
ENDTAB
0
ENDSEC
0
SECTION
2
ENTITIES
0
ARC
8
DEFAULT_255_2_778
10
36.1811716
20
14.728457
40
1.0227718
50
276.4191095
51
359.5875049
0
ARC
8
DEFAULT_255_2_778
10
36.1897541
20
14.725581
40
1.0189874
50
269.9866608
51
275.9576284
0
ARC
8
DEFAULT_255_2_778
10
36.1722409
20
11.6206441
40
2.0860211
50
89.5254835
51
105.4254219
0
ARC
8
DEFAULT_255_2_778
10
36.0793676
20
11.9903565
40
1.7049466
50
105.721479
51
127.5103739
0
ARC
8
DEFAULT_255_2_778
10
36.6354938
20
10.9338899
40
2.8886911
50
123.4976556
51
148.9417192
0
ARC
8
DEFAULT_255_2_778
10
37.2258149
20
10.1328627
40
3.8267215
50
143.2180513
51
148.3075484
0
ARC
8
DEFAULT_255_2_778
10
37.6554271
20
9.8613595
40
4.3349101
50
148.2372872
51
149.70373
0
ARC
8
DEFAULT_255_2_778
10
38.2722394
20
9.511686
40
5.0438922
50
149.8087612
51
155.0784702
0
ARC
8
DEFAULT_255_2_778
10
39.3329715
20
9.0125663
40
6.2161749
50
155.0261455
51
158.0473569
0
ARC
8
DEFAULT_255_2_778
10
40.6299427
20
8.4884984
40
7.6150246
50
158.0382564
51
159.8877254
0
ARC
8
DEFAULT_255_2_778
10
44.3030306
20
7.1452898
40
11.5260067
50
159.896328
51
160.7641811
0
ARC
8
DEFAULT_255_2_778
10
55.8283249
20
3.097764
40
23.741349
50
160.7051357
51
160.722561
0
ARC
8
DEFAULT_255_2_778
10
14.6069852
20
17.468054
40
19.9130485
50
340.487643
51
340.8502069
0
ARC
8
DEFAULT_255_2_778
10
32.3421514
20
7.2033124
40
1.0345194
50
280.3275556
51
358.7305711
0
ARC
8
DEFAULT_255_2_778
10
32.3241573
20
7.2339511
40
1.0679573
50
269.987104
51
280.9826252
0
ARC
8
DEFAULT_255_2_778
10
32.3298653
20
7.1840762
40
1.0180998
50
227.816068
51
269.6652415
0
ARC
8
DEFAULT_255_2_778
10
32.3287358
20
7.1866016
40
1.0192159
50
181.9136901
51
227.9584488
0
ARC
8
DEFAULT_255_2_778
10
32.3491786
20
7.1878217
40
1.0396882
50
180.40935
51
181.9432714
0
ARC
8
DEFAULT_255_2_778
10
32.2885186
20
14.7219998
40
0.9790025
50
137.8617897
51
180.0705841
0
ARC
8
DEFAULT_255_2_778
10
32.3210613
20
14.6942106
40
1.021779
50
92.5997768
51
137.9305962
0
ARC
8
DEFAULT_255_2_778
10
32.3238821
20
14.6697119
40
1.0463817
50
89.998097
51
92.6932316
0
ARC
8
DEFAULT_255_2_778
10
32.3267989
20
14.6259838
40
1.0901137
50
55.4190369
51
90.1514743
0
ARC
8
DEFAULT_255_2_778
10
32.4003096
20
14.7138195
40
0.9761322
50
0.4093683
51
56.0453632
0
ARC
8
DEFAULT_255_2_778
10
35.7894805
20
12.5150516
40
3.1804725
50
136.8448966
51
139.3508066
0
ARC
8
DEFAULT_255_2_778
10
35.4609126
20
12.833018
40
2.7233089
50
131.7003944
51
136.9969162
0
ARC
8
DEFAULT_255_2_778
10
34.7320464
20
13.6500956
40
1.6283838
50
126.5408384
51
131.6776296
0
ARC
8
DEFAULT_255_2_778
10
34.4488534
20
14.0237387
40
1.1595859
50
125.3279149
51
126.2907687
0
ARC
8
DEFAULT_255_2_778
10
36.4691043
20
10.9426596
40
4.843361
50
115.6544774
51
123.7494333
0
ARC
8
DEFAULT_255_2_778
10
36.2263887
20
11.4543336
40
4.277046
50
104.8490714
51
115.6911388
0
ARC
8
DEFAULT_255_2_778
10
36.1206627
20
11.8406112
40
3.8765749
50
93.2058655
51
104.8017401
0
ARC
8
DEFAULT_255_2_778
10
36.1127188
20
11.9243151
40
3.7925593
50
89.9998462
51
93.1567591
0
ARC
8
DEFAULT_255_2_778
10
36.1127277
20
11.9198244
40
3.7970499
50
88.8381872
51
89.9999803
0
ARC
8
DEFAULT_255_2_778
10
36.195744
20
14.6747691
40
1.0413421
50
61.0678852
51
90.3316183
0
ARC
8
DEFAULT_255_2_778
10
36.2229303
20
14.7288339
40
0.9808758
50
2.5786409
51
60.929923
0
ARC
8
DEFAULT_255_2_778
10
36.1626913
20
14.7208647
40
1.0414255
50
359.9960947
51
2.8675298
0
ARC
8
DEFAULT_255_2_778
10
41.6195949
20
10.9165684
40
4.977795
50
164.6726887
51
179.6072046
0
ARC
8
DEFAULT_255_2_778
10
41.5385741
20
10.9395815
40
4.8935729
50
143.4236649
51
164.6817999
0
ARC
8
DEFAULT_255_2_778
10
41.3455031
20
11.1037526
40
4.6407265
50
107.151143
51
143.630961
0
ARC
8
DEFAULT_255_2_778
10
41.3011578
20
11.1810944
40
4.553789
50
92.6048722
51
106.904967
0
ARC
8
DEFAULT_255_2_778
10
41.3110575
20
11.0444919
40
4.6907018
50
89.9968319
51
92.6498372
0
ARC
8
DEFAULT_255_2_778
10
41.3180297
20
10.9292628
40
4.8059356
50
77.5548239
51
90.0800295
0
ARC
8
DEFAULT_255_2_778
10
41.37801
20
11.1991465
40
4.5294674
50
59.3396301
51
77.5600043
0
ARC
8
DEFAULT_255_2_778
10
41.3897923
20
11.2359438
40
4.4918142
50
29.0556081
51
59.2295553
0
ARC
8
DEFAULT_255_2_778
10
41.1499197
20
11.0966941
40
4.7691291
50
15.2579344
51
29.1184264
0
ARC
8
DEFAULT_255_2_778
10
40.7944003
20
10.9990869
40
5.1378036
50
4.2649696
51
15.2646979
0
ARC
8
DEFAULT_255_2_778
10
40.5393179
20
10.9726458
40
5.3941511
50
3.4280951
51
4.3435456
0
ARC
8
DEFAULT_255_2_778
10
44.3248064
20
11.1939604
40
1.5990197
50
358.4305805
51
0.1946871
0
ARC
8
DEFAULT_255_2_778
10
45.0387477
20
11.1754535
40
0.8848401
50
355.9684023
51
358.3623589
0
ARC
8
DEFAULT_255_2_778
10
45.6201731
20
11.1251054
40
0.3014584
50
342.4573013
51
357.7448939
0
ARC
8
DEFAULT_255_2_778
10
45.8334343
20
11.062613
40
0.0794182
50
333.5136899
51
339.0686267
0
ARC
8
DEFAULT_255_2_778
10
45.0661206
20
11.1366112
40
0.8455061
50
289.2731229
51
352.5644609
0
ARC
8
DEFAULT_255_2_778
10
44.9227082
20
11.4623486
40
1.2006473
50
270.7684683
51
290.6026621
0
ARC
8
DEFAULT_255_2_778
10
44.9091586
20
11.6555627
40
1.3940689
50
269.9982881
51
271.2188048
0
ARC
8
DEFAULT_255_2_778
10
41.8634404
20
10.9236683
40
3.111598
50
192.2869894
51
197.0291668
0
ARC
8
DEFAULT_255_2_778
10
41.8369202
20
10.9153381
40
3.083801
50
197.0254835
51
198.737232
0
ARC
8
DEFAULT_255_2_778
10
41.1206501
20
10.617734
40
2.3104726
50
197.4539296
51
224.1077799
0
ARC
8
DEFAULT_255_2_778
10
40.5476992
20
10.1337123
40
1.5630316
50
225.9862931
51
226.5978372
0
ARC
8
DEFAULT_255_2_778
10
40.9687947
20
10.3285311
40
2.0013299
50
221.6651929
51
233.9604806
0
ARC
8
DEFAULT_255_2_778
10
41.5142496
20
11.0750842
40
2.9259164
50
233.9246138
51
246.3396413
0
ARC
8
DEFAULT_255_2_778
10
41.6713144
20
11.3958175
40
3.2827564
50
246.0752675
51
256.1325332
0
ARC
8
DEFAULT_255_2_778
10
41.5810511
20
11.0318895
40
2.9078018
50
256.1405574
51
262.0571194
0
ARC
8
DEFAULT_255_2_778
10
41.5308394
20
10.6903062
40
2.5625583
50
262.113643
51
265.07898
0
ARC
8
DEFAULT_255_2_778
10
41.5732358
20
11.3069899
40
3.1806236
50
265.2710186
51
269.3202441
0
ARC
8
DEFAULT_255_2_778
10
41.5777138
20
11.5062806
40
3.3799542
50
269.2844204
51
270.0012955
0
ARC
8
DEFAULT_255_2_778
10
41.5754806
20
11.6935216
40
3.567196
50
270.037096
51
275.3732413
0
ARC
8
DEFAULT_255_2_778
10
41.5997451
20
11.5736921
40
3.4456451
50
275.1581253
51
288.8159398
0
ARC
8
DEFAULT_255_2_778
10
41.9284381
20
10.6011211
40
2.419037
50
288.8764509
51
299.3809673
0
ARC
8
DEFAULT_255_2_778
10
42.2599899
20
9.9991881
40
1.7318744
50
299.593045
51
306.9693108
0
ARC
8
DEFAULT_255_2_778
10
44.0236985
20
7.8870836
40
1.0257327
50
95.4780018
51
134.7539845
0
ARC
8
DEFAULT_255_2_778
10
44.0756485
20
7.6619261
40
1.2551852
50
96.353731
51
96.8575252
0
ARC
8
DEFAULT_255_2_778
10
44.0775383
20
7.6433689
40
1.2738377
50
89.9975714
51
96.3458399
0
ARC
8
DEFAULT_255_2_778
10
44.0815702
20
7.7231003
40
1.1941129
50
75.4788009
51
90.1908643
0
ARC
8
DEFAULT_255_2_778
10
44.1650976
20
8.0367785
40
0.8695146
50
61.0800706
51
75.624297
0
ARC
8
DEFAULT_255_2_778
10
44.3292799
20
8.3279883
40
0.5352309
50
41.0107754
51
61.3886918
0
ARC
8
DEFAULT_255_2_778
10
44.4201027
20
8.4159379
40
0.4090406
50
39.2597069
51
40.0627726
0
ARC
8
DEFAULT_255_2_778
10
44.0405804
20
8.0331886
40
0.9467853
50
29.7023513
51
42.6615993
0
ARC
8
DEFAULT_255_2_778
10
43.9638631
20
7.9818698
40
1.0388718
50
9.9217411
51
30.0643239
0
ARC
8
DEFAULT_255_2_778
10
44.1132178
20
8.0114112
40
0.8866672
50
0.0946138
51
9.7042724
0
ARC
8
DEFAULT_255_2_778
10
44.1927634
20
8.0122649
40
0.8071207
50
352.7206657
51
0.0433347
0
ARC
8
DEFAULT_255_2_778
10
44.2525291
20
8.0036367
40
0.7467441
50
332.9257551
51
352.7963141
0
ARC
8
DEFAULT_255_2_778
10
44.2159812
20
8.0246134
40
0.7888373
50
319.068452
51
332.777331
0
ARC
8
DEFAULT_255_2_778
10
44.1294954
20
8.0975502
40
0.9019629
50
312.3248431
51
319.1674553
0
ARC
8
DEFAULT_255_2_778
10
41.4930823
20
10.9446369
40
4.7822181
50
300.208571
51
312.7102242
0
ARC
8
DEFAULT_255_2_778
10
41.573614
20
10.847299
40
4.6576249
50
280.7646619
51
299.954913
0
ARC
8
DEFAULT_255_2_778
10
41.3661886
20
11.8602914
40
5.6915518
50
272.4042505
51
280.9113676
0
ARC
8
DEFAULT_255_2_778
10
41.3130089
20
12.7707203
40
6.6034269
50
269.9827157
51
272.533885
0
ARC
8
DEFAULT_255_2_778
10
41.3398598
20
10.8336939
40
4.6664893
50
256.4194561
51
269.6458607
0
ARC
8
DEFAULT_255_2_778
10
41.3260963
20
10.7588953
40
4.590552
50
236.0603101
51
256.3672224
0
ARC
8
DEFAULT_255_2_778
10
41.4482085
20
10.9217182
40
4.793823
50
202.1483775
51
235.9360083
0
ARC
8
DEFAULT_255_2_778
10
41.5611625
20
10.9767446
40
4.9191948
50
185.9047244
51
202.2460018
0
ARC
8
DEFAULT_255_2_778
10
41.6512847
20
10.9880388
40
5.0100011
50
180.4179432
51
185.9271734
0
ARC
8
DEFAULT_255_2_778
10
42.6284287
20
11.506403
40
1.5628888
50
14.1471628
51
20.1902104
0
ARC
8
DEFAULT_255_2_778
10
42.3052856
20
11.3887834
40
1.9067706
50
20.1560497
51
25.2069864
0
ARC
8
DEFAULT_255_2_778
10
42.0058385
20
11.2480188
40
2.2376531
50
25.2026035
51
30.2842846
0
ARC
8
DEFAULT_255_2_778
10
41.7420286
20
11.0946805
40
2.542789
50
30.2702253
51
35.0427621
0
ARC
8
DEFAULT_255_2_778
10
41.4703625
20
10.9009005
40
2.8764757
50
35.0958437
51
43.4175234
0
ARC
8
DEFAULT_255_2_778
10
41.2660006
20
10.7096617
40
3.1563576
50
43.389372
51
52.0703559
0
ARC
8
DEFAULT_255_2_778
10
41.1695706
20
10.5872965
40
3.3121502
50
52.0557626
51
61.0869991
0
ARC
8
DEFAULT_255_2_778
10
41.1118901
20
10.4827952
40
3.4315132
50
61.0875571
51
70.0735046
0
ARC
8
DEFAULT_255_2_778
10
41.0555681
20
10.3260775
40
3.5980438
50
70.0808553
51
78.4739822
0
ARC
8
DEFAULT_255_2_778
10
41.0061745
20
10.0846734
40
3.8444494
50
78.4715704
51
85.4475199
0
ARC
8
DEFAULT_255_2_778
10
41.4617995
20
10.6189081
40
3.3015169
50
92.6124377
51
100.134622
0
ARC
8
DEFAULT_255_2_778
10
41.399949
20
10.963868
40
2.9510562
50
100.1310147
51
109.2346995
0
ARC
8
DEFAULT_255_2_778
10
41.3297719
20
11.1674958
40
2.7356765
50
109.2519411
51
119.6754912
0
ARC
8
DEFAULT_255_2_778
10
41.2934574
20
11.2339146
40
2.6599905
50
119.7041709
51
130.9773783
0
ARC
8
DEFAULT_255_2_778
10
41.3003765
20
11.2265174
40
2.6701124
50
130.9853813
51
141.8696557
0
ARC
8
DEFAULT_255_2_778
10
41.2748003
20
11.245345
40
2.638369
50
141.8483282
51
150.3201792
0
ARC
8
DEFAULT_255_2_778
10
41.1602706
20
11.3108014
40
2.5064539
50
150.3238163
51
155.6941553
0
ARC
8
DEFAULT_255_2_778
10
40.9817728
20
11.3909993
40
2.3107677
50
155.6846916
51
160.7641936
0
ARC
8
DEFAULT_255_2_778
10
40.7298864
20
11.4783678
40
2.0441599
50
160.7503204
51
165.8906802
0
ARC
8
DEFAULT_255_2_778
10
40.4939365
20
11.5390706
40
1.8005308
50
165.9337481
51
168.8130348
0
ARC
8
DEFAULT_255_2_778
10
54.6363501
20
7.2068461
40
1.0383914
50
318.6611899
51
359.6053451
0
ARC
8
DEFAULT_255_2_778
10
54.6333536
20
7.2062252
40
1.0402339
50
272.4083389
51
318.7958821
0
ARC
8
DEFAULT_255_2_778
10
54.6321009
20
7.2261973
40
1.0602411
50
270.4818277
51
272.4306231
0
ARC
8
DEFAULT_255_2_778
10
54.6348278
20
7.2182642
40
1.0522887
50
270.0019536
51
270.3369897
0
ARC
8
DEFAULT_255_2_778
10
54.6349028
20
7.1951391
40
1.0291636
50
191.5604102
51
269.9978234
0
ARC
8
DEFAULT_255_2_778
10
50.9350231
20
10.9230281
40
4.7667694
50
290.3919753
51
304.3785358
0
ARC
8
DEFAULT_255_2_778
10
51.0017915
20
10.7014196
40
4.5358077
50
271.2480585
51
290.5768228
0
ARC
8
DEFAULT_255_2_778
10
51.0238682
20
10.404264
40
4.2382703
50
270.0006588
51
271.037179
0
ARC
8
DEFAULT_255_2_778
10
51.0209774
20
10.6730942
40
4.5071015
50
255.1198111
51
270.0373683
0
ARC
8
DEFAULT_255_2_778
10
51.1096439
20
10.8633655
40
4.7139054
50
206.7813735
51
254.6721303
0
ARC
8
DEFAULT_255_2_778
10
51.1877146
20
10.9319364
40
4.8145692
50
187.7879837
51
207.0912379
0
ARC
8
DEFAULT_255_2_778
10
51.1902029
20
10.9308394
40
4.816886
50
179.9934064
51
187.7710451
0
ARC
8
DEFAULT_255_2_778
10
51.2932783
20
10.9339581
40
4.9199621
50
165.3881863
51
180.029864
0
ARC
8
DEFAULT_255_2_778
10
51.2506314
20
10.9441603
40
4.8761208
50
144.8997098
51
165.3777725
0
ARC
8
DEFAULT_255_2_778
10
51.0815317
20
11.0934065
40
4.6520209
50
103.432645
51
145.2060352
0
ARC
8
DEFAULT_255_2_778
10
51.0211927
20
11.2287139
40
4.5064807
50
89.9653639
51
103.0861056
0
ARC
8
DEFAULT_255_2_778
10
51.0112188
20
11.1934307
40
4.5417808
50
69.1329871
51
89.8398095
0
ARC
8
DEFAULT_255_2_778
10
51.0851923
20
11.3480006
40
4.3710225
50
55.0654372
51
69.3173364
0
ARC
8
DEFAULT_255_2_778
10
54.6317168
20
18.5187401
40
1.0435553
50
99.2228765
51
179.4095693
0
ARC
8
DEFAULT_255_2_778
10
54.6401146
20
18.4838477
40
1.0793461
50
89.9680295
51
99.3660349
0
ARC
8
DEFAULT_255_2_778
10
54.633429
20
18.5243964
40
1.0388229
50
48.6667099
51
89.5980384
0
ARC
8
DEFAULT_255_2_778
10
54.634565
20
18.5220299
40
1.0398525
50
2.3982166
51
48.7998239
0
ARC
8
DEFAULT_255_2_778
10
54.6134929
20
18.5207417
40
1.0609601
50
0.4726471
51
2.420106
0
ARC
8
DEFAULT_255_2_778
10
51.0335033
20
11.1746097
40
2.4749019
50
90.217302
51
136.1820686
0
ARC
8
DEFAULT_255_2_778
10
51.2307409
20
10.9360645
40
2.7826059
50
135.4498535
51
136.1152761
0
ARC
8
DEFAULT_255_2_778
10
51.0520673
20
11.0548496
40
2.5717707
50
135.2631824
51
159.7647122
0
ARC
8
DEFAULT_255_2_778
10
51.3235841
20
10.9481742
40
2.8634326
50
159.6410484
51
176.8157951
0
ARC
8
DEFAULT_255_2_778
10
51.4890937
20
10.9322815
40
3.0295768
50
176.6895621
51
180.0054422
0
ARC
8
DEFAULT_255_2_778
10
51.2179006
20
10.9317409
40
2.7583837
50
179.9947479
51
205.1944535
0
ARC
8
DEFAULT_255_2_778
10
51.047516
20
10.8466688
40
2.5679976
50
205.0952183
51
224.7961028
0
ARC
8
DEFAULT_255_2_778
10
51.0652817
20
10.7770955
40
2.5323405
50
223.3957087
51
255.2525896
0
ARC
8
DEFAULT_255_2_778
10
51.0221149
20
10.6738503
40
2.4215574
50
255.6184555
51
270.0473699
0
ARC
8
DEFAULT_255_2_778
10
51.0328262
20
10.6823145
40
2.4300364
50
269.7946496
51
288.595501
0
ARC
8
DEFAULT_255_2_778
10
50.9793939
20
10.7683314
40
2.528708
50
289.1214792
51
316.3574666
0
ARC
8
DEFAULT_255_2_778
10
50.70757
20
11.0690645
40
2.9331226
50
315.7709015
51
316.1558682
0
ARC
8
DEFAULT_255_2_778
10
50.9569935
20
10.879771
40
2.6223588
50
315.3637789
51
343.5485388
0
ARC
8
DEFAULT_255_2_778
10
50.822703
20
10.9321559
40
2.7660139
50
343.2956432
51
359.9966414
0
ARC
8
DEFAULT_255_2_778
10
50.6656257
20
10.9384205
40
2.9230983
50
359.8740281
51
16.1580452
0
ARC
8
DEFAULT_255_2_778
10
50.9342797
20
11.0203231
40
2.6422671
50
16.0733883
51
38.0550949
0
ARC
8
DEFAULT_255_2_778
10
51.085584
20
11.1282601
40
2.4566068
50
38.2481001
51
44.9884685
0
ARC
8
DEFAULT_255_2_778
10
51.0209032
20
11.1908015
40
2.4597832
50
42.8925735
51
83.0846566
0
ARC
8
DEFAULT_255_2_778
10
51.0257405
20
11.1158035
40
2.5336909
50
83.3974512
51
90.0367151
0
ARC
8
DEFAULT_255_2_778
10
58.2460225
20
18.1228614
40
1.0715058
50
322.5780607
51
0.2637424
0
ARC
8
DEFAULT_255_2_778
10
58.2950037
20
18.0869287
40
1.0107709
50
278.1787676
51
322.508463
0
ARC
8
DEFAULT_255_2_778
10
58.2845575
20
18.1481624
40
1.0728691
50
269.960451
51
278.2657476
0
ARC
8
DEFAULT_255_2_778
10
58.2842661
20
18.0930841
40
1.0177905
50
225.7400479
51
269.9747148
0
ARC
8
DEFAULT_255_2_778
10
58.3115981
20
18.1271469
40
1.0612692
50
181.4706892
51
225.9667079
0
ARC
8
DEFAULT_255_2_778
10
58.3239692
20
18.1277794
40
1.0736524
50
179.9992372
51
181.4874867
0
ARC
8
DEFAULT_255_2_778
10
58.267756
20
18.5337789
40
1.0174473
50
179.9972507
51
180.2300478
0
ARC
8
DEFAULT_255_2_778
10
58.2792907
20
18.5339669
40
1.0289821
50
134.9900387
51
180.0077529
0
ARC
8
DEFAULT_255_2_778
10
58.2795437
20
18.5342199
40
1.0289822
50
89.9922471
51
135.0099613
0
ARC
8
DEFAULT_255_2_778
10
58.2797318
20
18.5457547
40
1.0174473
50
89.7699522
51
90.0027493
0
ARC
8
DEFAULT_255_2_778
10
58.2903983
20
18.5087251
40
1.0544891
50
62.7829471
51
90.3576045
0
ARC
8
DEFAULT_255_2_778
10
58.3015039
20
18.5476862
40
1.0147937
50
4.7339493
51
62.3344549
0
ARC
8
DEFAULT_255_2_778
10
58.21074
20
18.5297513
40
1.106777
50
359.9866657
51
5.2714699
0
ARC
8
DEFAULT_255_2_778
10
58.2692949
20
7.1918742
40
1.0482411
50
326.8563549
51
0.3454195
0
ARC
8
DEFAULT_255_2_778
10
58.3074833
20
7.1726261
40
1.0057534
50
280.4438994
51
326.5850344
0
ARC
8
DEFAULT_255_2_778
10
58.2852249
20
7.2671081
40
1.1027152
50
269.9268427
51
280.6913635
0
ARC
8
DEFAULT_255_2_778
10
58.2797318
20
7.1818328
40
1.0174473
50
269.9972507
51
270.2300478
0
ARC
8
DEFAULT_255_2_778
10
58.2795437
20
7.1933675
40
1.0289821
50
224.9900387
51
270.0077529
0
ARC
8
DEFAULT_255_2_778
10
58.2794642
20
7.1936923
40
1.0291557
50
179.9961622
51
225.0059561
0
ARC
8
DEFAULT_255_2_778
10
58.2669954
20
7.1938101
40
1.0166868
50
179.7698632
51
180.0027504
0
ARC
8
DEFAULT_255_2_778
10
58.3582535
20
14.6696433
40
1.107961
50
156.1462589
51
180.3800705
0
ARC
8
DEFAULT_255_2_778
10
58.2675409
20
14.7034541
40
1.0113402
50
90.7393073
51
155.8198312
0
ARC
8
DEFAULT_255_2_778
10
58.2838052
20
14.5954544
40
1.1196394
50
89.9993991
51
91.5002475
0
ARC
8
DEFAULT_255_2_778
10
58.2923651
20
14.6417621
40
1.0733656
50
64.2402762
51
90.4563044
0
ARC
8
DEFAULT_255_2_778
10
58.3214726
20
14.7225953
40
0.9879555
50
13.3898079
51
63.7232515
0
ARC
8
DEFAULT_255_2_778
10
58.1347507
20
14.6659784
40
1.182772
50
359.8215072
51
13.9632613
0
ARC
8
DEFAULT_255_2_778
10
61.4034776
20
8.3232506
40
0.9642346
50
117.2186876
51
143.1670539
0
ARC
8
DEFAULT_255_2_778
10
61.4204625
20
8.2867937
40
1.0044244
50
89.9232296
51
117.1290862
0
ARC
8
DEFAULT_255_2_778
10
61.4218083
20
8.2649401
40
1.0262771
50
89.7627287
51
89.9999995
0
ARC
8
DEFAULT_255_2_778
10
61.4254143
20
8.303001
40
0.9882075
50
53.4074325
51
89.9626632
0
ARC
8
DEFAULT_255_2_778
10
61.4381388
20
8.3260374
40
0.9621328
50
49.1842042
51
53.1980507
0
ARC
8
DEFAULT_255_2_778
10
64.0082177
20
11.3486355
40
3.005449
50
229.767279
51
231.0516848
0
ARC
8
DEFAULT_255_2_778
10
64.0830908
20
11.4405458
40
3.1239954
50
231.0433733
51
231.2227602
0
ARC
8
DEFAULT_255_2_778
10
64.3903739
20
11.8357954
40
3.6245852
50
231.3490413
51
237.0722914
0
ARC
8
DEFAULT_255_2_778
10
64.6765259
20
12.2692139
40
4.1439273
50
237.0088836
51
244.5536386
0
ARC
8
DEFAULT_255_2_778
10
64.4150814
20
11.674777
40
3.4948774
50
244.2367692
51
256.877812
0
ARC
8
DEFAULT_255_2_778
10
64.1721875
20
10.6902012
40
2.4809012
50
257.1786172
51
264.9665392
0
ARC
8
DEFAULT_255_2_778
10
64.128094
20
10.2369821
40
2.0255656
50
265.0841842
51
269.9409489
0
ARC
8
DEFAULT_255_2_778
10
64.1261532
20
10.0603039
40
1.8488864
50
269.9954515
51
271.4307318
0
ARC
8
DEFAULT_255_2_778
10
64.1650635
20
10.7299428
40
2.5179595
50
270.1650514
51
284.0148984
0
ARC
8
DEFAULT_255_2_778
10
64.1503502
20
10.8182193
40
2.6071811
50
283.8588017
51
293.6792622
0
ARC
8
DEFAULT_255_2_778
10
64.3243889
20
10.4298686
40
2.1816324
50
293.589493
51
301.7939472
0
ARC
8
DEFAULT_255_2_778
10
64.4727676
20
9.7509575
40
1.5438846
50
310.420809
51
318.6372877
0
ARC
8
DEFAULT_255_2_778
10
64.9403798
20
9.3435389
40
0.9236962
50
318.4372657
51
331.0728119
0
ARC
8
DEFAULT_255_2_778
10
65.2573257
20
9.1706727
40
0.5626826
50
330.8683953
51
350.9571277
0
ARC
8
DEFAULT_255_2_778
10
65.3578126
20
9.149903
40
0.4602043
50
351.544495
51
359.9739418
0
ARC
8
DEFAULT_255_2_778
10
65.4415559
20
9.1583146
40
0.3765597
50
358.6881721
51
13.0579702
0
ARC
8
DEFAULT_255_2_778
10
65.5746079
20
9.183329
40
0.2413636
50
14.4096988
51
28.9144036
0
ARC
8
DEFAULT_255_2_778
10
65.3020906
20
9.032166
40
0.5529977
50
28.9720814
51
33.9869303
0
ARC
8
DEFAULT_255_2_778
10
65.5436889
20
9.2542123
40
0.233754
50
21.8720029
51
46.4801052
0
ARC
8
DEFAULT_255_2_778
10
65.153336
20
8.8758591
40
0.7772372
50
44.8195952
51
54.8244411
0
ARC
8
DEFAULT_255_2_778
10
64.6735054
20
8.2227301
40
1.5876015
50
54.2487275
51
58.1228696
0
ARC
8
DEFAULT_255_2_778
10
64.8214967
20
8.606161
40
1.1863344
50
54.4102345
51
58.4905511
0
ARC
8
DEFAULT_255_2_778
10
64.5627872
20
8.1858338
40
1.6798981
50
58.4603872
51
61.6984294
0
ARC
8
DEFAULT_255_2_778
10
64.3627108
20
7.8195772
40
2.0972341
50
61.6297662
51
62.8969248
0
ARC
8
DEFAULT_255_2_778
10
63.993581
20
7.0751225
40
2.9281311
50
63.1038118
51
67.9329612
0
ARC
8
DEFAULT_255_2_778
10
63.3942488
20
5.607868
40
4.5130674
50
67.8797225
51
71.8502709
0
ARC
8
DEFAULT_255_2_778
10
62.8920287
20
4.0863727
40
6.1153049
50
71.8194953
51
75.4781058
0
ARC
8
DEFAULT_255_2_778
10
62.5921188
20
2.9426983
40
7.2976443
50
75.4502177
51
79.0300561
0
ARC
8
DEFAULT_255_2_778
10
65.6442271
20
19.1336487
40
9.1821574
50
252.6829793
51
259.4403723
0
ARC
8
DEFAULT_255_2_778
10
64.5030042
20
15.4119986
40
5.2895376
50
245.3445386
51
252.4848988
0
ARC
8
DEFAULT_255_2_778
10
63.6651618
20
13.5903026
40
3.284406
50
220.4905672
51
245.3710298
0
ARC
8
DEFAULT_255_2_778
10
63.4346768
20
13.3465855
40
2.951084
50
213.5740556
51
219.7976084
0
ARC
8
DEFAULT_255_2_778
10
62.8947681
20
12.8684651
40
2.2390643
50
189.0836212
51
211.0199436
0
ARC
8
DEFAULT_255_2_778
10
63.1329403
20
12.918787
40
2.4822236
50
179.9721458
51
189.3626707
0
ARC
8
DEFAULT_255_2_778
10
63.0091316
20
12.9170124
40
2.3584166
50
158.6637326
51
179.92757
0
ARC
8
DEFAULT_255_2_778
10
63.4981023
20
12.6933746
40
2.8954019
50
128.5621157
51
158.0621031
0
ARC
8
DEFAULT_255_2_778
10
63.7102434
20
12.4772104
40
3.1968203
50
127.1489772
51
129.1200848
0
ARC
8
DEFAULT_255_2_778
10
64.0418518
20
11.7161652
40
4.0084394
50
101.0348159
51
124.3566842
0
ARC
8
DEFAULT_255_2_778
10
64.1262298
20
11.3127827
40
4.4205178
50
89.8990691
51
101.1075076
0
ARC
8
DEFAULT_255_2_778
10
64.1355414
20
11.6712565
40
4.0620375
50
82.5359643
51
90.0215034
0
ARC
8
DEFAULT_255_2_778
10
64.1316825
20
11.6580143
40
4.0756694
50
74.8934525
51
82.5063587
0
ARC
8
DEFAULT_255_2_778
10
64.0518145
20
11.37167
40
4.3729338
50
67.735634
51
74.860926
0
ARC
8
DEFAULT_255_2_778
10
63.7953157
20
10.7493109
40
5.0460761
50
61.9706232
51
67.7177411
0
ARC
8
DEFAULT_255_2_778
10
63.2568534
20
9.731608
40
6.1974464
50
58.6250795
51
61.9977938
0
ARC
8
DEFAULT_255_2_778
10
62.4205603
20
8.3502464
40
7.8122297
50
57.1365044
51
58.6630501
0
ARC
8
DEFAULT_255_2_778
10
60.954805
20
6.0835834
40
10.5115257
50
56.0263993
51
57.1299437
0
ARC
8
DEFAULT_255_2_778
10
56.5668079
20
-0.4314479
40
18.3664699
50
55.5281129
51
56.0317825
0
ARC
8
DEFAULT_255_2_778
10
41.6242934
20
-22.2379664
40
44.8013476
50
55.492767
51
55.5586271
0
ARC
8
DEFAULT_255_2_778
10
66.4353621
20
13.8316723
40
1.0223366
50
18.3520918
51
56.157267
0
ARC
8
DEFAULT_255_2_778
10
66.386665
20
13.8111671
40
1.075021
50
359.9934992
51
18.5721973
0
ARC
8
DEFAULT_255_2_778
10
66.3878534
20
13.8110305
40
1.0738325
50
357.0699855
51
0.0007768
0
ARC
8
DEFAULT_255_2_778
10
66.4023904
20
13.8094126
40
1.0592322
50
333.7807177
51
357.1171924
0
ARC
8
DEFAULT_255_2_778
10
66.4049855
20
13.808807
40
1.0566367
50
329.0123225
51
333.7480077
0
ARC
8
DEFAULT_255_2_778
10
66.4788166
20
13.81868
40
0.9995071
50
292.4363626
51
326.3471673
0
ARC
8
DEFAULT_255_2_778
10
66.4727075
20
13.8314852
40
1.013675
50
270.0045711
51
292.4792857
0
ARC
8
DEFAULT_255_2_778
10
66.4727748
20
13.8285981
40
1.0107879
50
265.0562173
51
270.000771
0
ARC
8
DEFAULT_255_2_778
10
66.4734011
20
13.8318817
40
1.0141134
50
245.3278724
51
265.0369505
0
ARC
8
DEFAULT_255_2_778
10
66.4886344
20
13.8656129
40
1.0511241
50
235.602174
51
245.3408225
0
ARC
8
DEFAULT_255_2_778
10
59.341752
20
3.0687391
40
11.8970044
50
56.5769622
51
58.4838717
0
ARC
8
DEFAULT_255_2_778
10
62.6384223
20
8.4563713
40
5.5807921
50
58.4229437
51
62.6018175
0
ARC
8
DEFAULT_255_2_778
10
63.5282555
20
10.1512402
40
3.6665746
50
62.7594897
51
65.9396497
0
ARC
8
DEFAULT_255_2_778
10
64.0017583
20
11.2589591
40
2.4621271
50
65.4916285
51
78.1958806
0
ARC
8
DEFAULT_255_2_778
10
64.1303488
20
11.815816
40
1.8907787
50
78.5582097
51
89.9373304
0
ARC
8
DEFAULT_255_2_778
10
64.1313194
20
11.4835473
40
2.2230467
50
89.9717124
51
103.1640527
0
ARC
8
DEFAULT_255_2_778
10
64.0694269
20
11.7318019
40
1.9672239
50
103.0554592
51
114.4735464
0
ARC
8
DEFAULT_255_2_778
10
63.8463057
20
12.2136017
40
1.4362838
50
114.3348136
51
126.1801688
0
ARC
8
DEFAULT_255_2_778
10
63.6623709
20
12.4802272
40
1.1125273
50
126.6400972
51
127.5643129
0
ARC
8
DEFAULT_255_2_778
10
63.5522813
20
12.5286942
40
1.0086454
50
124.2839406
51
135.621377
0
ARC
8
DEFAULT_255_2_778
10
63.2900296
20
12.7829214
40
0.6434019
50
135.4688068
51
150.8357065
0
ARC
8
DEFAULT_255_2_778
10
63.0854269
20
12.8956332
40
0.4098133
50
150.6563168
51
170.1813988
0
ARC
8
DEFAULT_255_2_778
10
62.9571567
20
12.9208232
40
0.2791419
50
170.7863258
51
179.7802606
0
ARC
8
DEFAULT_255_2_778
10
63.3288695
20
12.9075829
40
0.6510099
50
178.7403974
51
184.5360473
0
ARC
8
DEFAULT_255_2_778
10
62.8271668
20
12.870625
40
0.1479829
50
185.6339893
51
197.8826605
0
ARC
8
DEFAULT_255_2_778
10
62.8839676
20
12.8955118
40
0.2097743
50
199.587999
51
214.3177571
0
ARC
8
DEFAULT_255_2_778
10
63.1820399
20
13.0802056
40
0.5603008
50
212.7320461
51
213.7408246
0
ARC
8
DEFAULT_255_2_778
10
62.9825065
20
12.9114217
40
0.3020748
50
208.1316476
51
222.638469
0
ARC
8
DEFAULT_255_2_778
10
63.1822426
20
13.0903548
40
0.5702248
50
222.2702736
51
234.8769622
0
ARC
8
DEFAULT_255_2_778
10
63.3295588
20
13.2895663
40
0.8179407
50
234.4651068
51
240.164378
0
ARC
8
DEFAULT_255_2_778
10
63.3884743
20
13.3887442
40
0.933286
50
240.0560613
51
240.3457313
0
ARC
8
DEFAULT_255_2_778
10
63.7244373
20
13.7537025
40
1.4210399
50
235.8498325
51
244.3042668
0
ARC
8
DEFAULT_255_2_778
10
64.276032
20
14.8814051
40
2.6764025
50
244.1312
51
249.9368325
0
ARC
8
DEFAULT_255_2_778
10
64.8398389
20
16.4071839
40
4.3030112
50
249.8547465
51
254.3071038
0
ARC
8
DEFAULT_255_2_778
10
65.3263674
20
18.1225724
40
6.0860575
50
254.2655571
51
258.0386276
0
ARC
8
DEFAULT_255_2_778
10
65.6137623
20
19.4393599
40
7.4338222
50
257.975058
51
260.0080158
0
ARC
8
DEFAULT_255_2_778
10
63.0651481
20
4.6757529
40
7.5357766
50
70.3110339
51
80.0857249
0
ARC
8
DEFAULT_255_2_778
10
63.6056304
20
6.2739577
40
5.848989
50
64.2965293
51
70.0213282
0
ARC
8
DEFAULT_255_2_778
10
64.7774391
20
8.4119431
40
3.4167468
50
50.5438834
51
66.453304
0
ARC
8
DEFAULT_255_2_778
10
65.3173744
20
9.0722073
40
2.5638287
50
31.5888845
51
50.4835658
0
ARC
8
DEFAULT_255_2_778
10
65.3875715
20
9.1228474
40
2.4775147
50
0.6694373
51
31.4416623
0
ARC
8
DEFAULT_255_2_778
10
65.3597823
20
9.150811
40
2.5051348
50
341.141861
51
0.0224764
0
ARC
8
DEFAULT_255_2_778
10
64.9647305
20
9.3299237
40
2.9371724
50
305.7689493
51
340.3262952
0
ARC
8
DEFAULT_255_2_778
10
64.7375671
20
9.5775922
40
3.2711462
50
305.9765848
51
306.4616928
0
ARC
8
DEFAULT_255_2_778
10
64.2395092
20
10.4245651
40
4.2502022
50
288.2023547
51
304.702535
0
ARC
8
DEFAULT_255_2_778
10
64.1849089
20
10.58515
40
4.4198073
50
274.5443829
51
288.2244646
0
ARC
8
DEFAULT_255_2_778
10
64.1715879
20
10.7147798
40
4.550086
50
269.9928092
51
274.5822641
0
ARC
8
DEFAULT_255_2_778
10
64.2334271
20
11.0723879
40
4.908091
50
261.113839
51
269.2714195
0
ARC
8
DEFAULT_255_2_778
10
64.2501963
20
11.1614209
40
4.9986465
50
252.5180801
51
261.0815755
0
ARC
8
DEFAULT_255_2_778
10
64.3668773
20
11.5251903
40
5.3806659
50
244.7894485
51
252.4966376
0
ARC
8
DEFAULT_255_2_778
10
64.6298387
20
12.0843897
40
5.9986082
50
238.614349
51
244.7920726
0
ARC
8
DEFAULT_255_2_778
10
65.0361292
20
12.7526268
40
6.780664
50
233.8771797
51
238.6242567
0
ARC
8
DEFAULT_255_2_778
10
65.3267156
20
13.1614962
40
7.2822392
50
233.6459029
51
233.9268515
0
ARC
8
DEFAULT_255_2_778
10
65.4389394
20
13.3130035
40
7.4707818
50
232.4350332
51
233.6415161
0
ARC
8
DEFAULT_255_2_778
10
65.6480262
20
13.5848298
40
7.8137202
50
231.3184305
51
232.434934
0
ARC
8
DEFAULT_255_2_778
10
61.3910421
20
8.2422972
40
0.9827204
50
190.2370508
51
230.3912544
0
ARC
8
DEFAULT_255_2_778
10
61.4554682
20
8.2613734
40
1.0495367
50
179.9957324
51
190.6368077
0
ARC
8
DEFAULT_255_2_778
10
61.4588129
20
8.2614365
40
1.0528812
50
179.207953
51
179.9991769
0
ARC
8
DEFAULT_255_2_778
10
61.4175158
20
8.2665382
40
1.0115277
50
143.5743665
51
179.4645672
0
ARC
8
DEFAULT_255_2_778
10
61.3839316
20
8.2855483
40
0.9732282
50
140.7364103
51
143.3008765
0
LINE
8
DEFAULT_255_2_778
10
33.3764169
20
10.8168937
11
33.3764169
21
7.1803937
0
LINE
8
DEFAULT_255_2_778
10
31.3095169
20
7.1803937
11
31.3095169
21
14.7207937
0
LINE
8
DEFAULT_255_2_778
10
33.3764169
20
14.7207937
11
33.3764169
21
14.5868937
0
LINE
8
DEFAULT_255_2_778
10
37.2041169
20
14.7207937
11
37.2039169
21
14.7210937
0
LINE
8
DEFAULT_255_2_778
10
45.9238169
20
11.2951937
11
45.9238169
21
11.1993937
0
LINE
8
DEFAULT_255_2_778
10
44.9091169
20
10.2614937
11
38.8231169
21
10.2614937
0
LINE
8
DEFAULT_255_2_778
10
36.6414169
20
10.9514937
11
36.6419169
21
10.9506937
0
LINE
8
DEFAULT_255_2_778
10
38.7279169
20
11.8883937
11
44.1439169
21
11.8883937
0
LINE
8
DEFAULT_255_2_778
10
38.7276169
20
11.8883937
11
38.7279169
21
11.8883937
0
LINE
8
DEFAULT_255_2_778
10
53.5882169
20
14.9313937
11
53.5882169
21
18.5294937
0
LINE
8
DEFAULT_255_2_778
10
55.6744169
20
18.5294937
11
55.6744169
21
7.1994937
0
LINE
8
DEFAULT_255_2_778
10
55.6744169
20
7.1994937
11
55.6747169
21
7.1996937
0
LINE
8
DEFAULT_255_2_778
10
51.0241169
20
13.6494937
11
51.0241169
21
13.6494937
0
LINE
8
DEFAULT_255_2_778
10
57.2503169
20
18.1277937
11
57.2503169
21
18.5296937
0
LINE
8
DEFAULT_255_2_778
10
59.3175169
20
18.5294937
11
59.3175169
21
18.1275937
0
LINE
8
DEFAULT_255_2_778
10
59.3175169
20
18.1275937
11
59.3175169
21
18.1277937
0
LINE
8
DEFAULT_255_2_778
10
59.3175169
20
14.6622937
11
59.3175169
21
7.1981937
0
LINE
8
DEFAULT_255_2_778
10
57.2503169
20
7.1978937
11
57.2503169
21
14.6622937
0
LINE
8
DEFAULT_255_2_778
10
59.3175169
20
14.6622937
11
59.3175169
21
14.6622937
0
LINE
8
DEFAULT_255_2_778
10
63.9808169
20
10.1069937
11
63.9615169
21
10.1069937
0
LINE
8
DEFAULT_255_2_778
10
64.3239169
20
12.1182937
11
64.3433169
21
12.0989937
0
LINE
8
DEFAULT_255_2_778
10
64.3433169
20
12.0989937
11
64.3626169
21
12.0989937
0
LINE
8
DEFAULT_255_2_778
10
60.6304169
20
8.9014937
11
60.6317169
21
8.9012937
0
ARC
8
DEFAULT_255_2_778
10
21.0851084
20
11.0178019
40
7.0543304
50
296.3393088
51
297.4717868
0
ARC
8
DEFAULT_255_2_778
10
18.6364904
20
15.9540815
40
12.564555
50
295.5935722
51
296.3586856
0
ARC
8
DEFAULT_255_2_778
10
15.2479286
20
23.0205713
40
20.4014945
50
295.0589167
51
295.6033031
0
ARC
8
DEFAULT_255_2_778
10
10.9312876
20
32.2440861
40
30.5851386
50
294.6848084
51
295.0658627
0
ARC
8
DEFAULT_255_2_778
10
5.8372307
20
43.3207792
40
42.7770432
50
294.4089778
51
294.6883438
0
ARC
8
DEFAULT_255_2_778
10
0.0159155
20
56.1435332
40
56.8593275
50
294.1991386
51
294.4110269
0
ARC
8
DEFAULT_255_2_778
10
-8.2287027
20
74.4977932
40
76.9802761
50
293.9598207
51
294.1965713
0
ARC
8
DEFAULT_255_2_778
10
-20.6554763
20
102.4575887
40
107.5772507
50
293.7677159
51
293.9606759
0
ARC
8
DEFAULT_255_2_778
10
-37.231057
20
140.0909554
40
148.6992661
50
293.6171193
51
293.768637
0
ARC
8
DEFAULT_255_2_778
10
-57.6949171
20
186.8801972
40
199.7678739
50
293.5147602
51
293.6185626
0
ARC
8
DEFAULT_255_2_778
10
-87.1494497
20
254.5855175
40
273.6026885
50
293.4097285
51
293.5137386
0
ARC
8
DEFAULT_255_2_778
10
-139.5690532
20
375.6619734
40
405.539503
50
293.3305907
51
293.4098235
0
ARC
8
DEFAULT_255_2_778
10
-263.7627169
20
663.6524679
40
719.1676124
50
293.2686229
51
293.32935
0
ARC
8
DEFAULT_255_2_778
10
-1353.7454655
20
3198.6556453
40
3478.5703557
50
293.2503255
51
293.2668563
0
LINE
8
DEFAULT_255_2_778
10
19.4169687
20
2.5835798
11
19.3890759
21
2.5715926
0
ARC
8
DEFAULT_255_2_778
10
519.2493522
20
-1160.7494325
40
1266.1659066
50
113.2524164
51
113.2903169
0
ARC
8
DEFAULT_255_2_778
10
240.9572732
20
-514.2476781
40
562.3115184
50
113.2908829
51
113.364189
0
ARC
8
DEFAULT_255_2_778
10
156.2550574
20
-318.1713317
40
348.7221953
50
113.3645109
51
113.4647511
0
ARC
8
DEFAULT_255_2_778
10
113.6334329
20
-219.9804881
40
241.6799389
50
113.4650033
51
113.5865862
0
ARC
8
DEFAULT_255_2_778
10
87.5681974
20
-160.2797393
40
176.537204
50
113.5868055
51
113.7259021
0
ARC
8
DEFAULT_255_2_778
10
70.1854561
20
-120.7277493
40
133.3339679
50
113.7261769
51
113.8795087
0
ARC
8
DEFAULT_255_2_778
10
57.8518788
20
-92.8672091
40
102.8655116
50
113.8798122
51
114.0449381
0
ARC
8
DEFAULT_255_2_778
10
48.9285314
20
-72.8662476
40
80.9642654
50
114.0452339
51
114.2193927
0
ARC
8
DEFAULT_255_2_778
10
40.7876387
20
-54.7786503
40
61.1290621
50
114.2154226
51
114.4988876
0
ARC
8
DEFAULT_255_2_778
10
33.4880198
20
-38.7628629
40
43.5282132
50
114.4974747
51
114.8439633
0
ARC
8
DEFAULT_255_2_778
10
28.0720927
20
-27.0660247
40
30.638361
50
114.8433966
51
115.2438772
0
ARC
8
DEFAULT_255_2_778
10
24.4466136
20
-19.3739333
40
22.1346933
50
115.247019
51
115.6271086
0
ARC
8
DEFAULT_255_2_778
10
21.4214409
20
-13.0776129
40
15.1493306
50
115.6106801
51
116.3115198
0
ARC
8
DEFAULT_255_2_778
10
18.8831379
20
-7.9448565
40
9.4232348
50
116.3101429
51
117.1430425
0
ARC
8
DEFAULT_255_2_778
10
17.661393
20
-5.5540753
40
6.738374
50
117.1729062
51
117.5240058
0
ARC
8
DEFAULT_255_2_778
10
10.1656347
20
8.8127534
40
9.4663231
50
295.6074438
51
297.5734318
0
ARC
8
DEFAULT_255_2_778
10
11.1365493
20
6.7828093
40
7.2161356
50
293.0130776
51
295.621735
0
ARC
8
DEFAULT_255_2_778
10
11.815494
20
5.179899
40
5.4753646
50
289.5585085
51
293.0312053
0
ARC
8
DEFAULT_255_2_778
10
12.2477603
20
3.958774
40
4.1799892
50
284.9628019
51
289.5786659
0
ARC
8
DEFAULT_255_2_778
10
12.4803156
20
3.085369
40
3.2761542
50
278.8947744
51
284.9774209
0
ARC
8
DEFAULT_255_2_778
10
12.5663166
20
2.5336986
40
2.7178206
50
270.0829674
51
278.9017869
0
ARC
8
DEFAULT_255_2_778
10
12.5710366
20
2.4206909
40
2.6048103
50
261.8161559
51
269.9827451
0
ARC
8
DEFAULT_255_2_778
10
12.6285276
20
2.788385
40
2.9769473
50
253.9795598
51
261.728309
0
ARC
8
DEFAULT_255_2_778
10
12.8642928
20
3.6211049
40
3.8423951
50
249.2696549
51
254.0273574
0
ARC
8
DEFAULT_255_2_778
10
13.3077341
20
4.7998953
40
5.1018321
50
246.0412876
51
249.2980142
0
ARC
8
DEFAULT_255_2_778
10
13.8910108
20
6.1270722
40
6.551516
50
244.4926713
51
246.093035
0
ARC
8
DEFAULT_255_2_778
10
7.8564653
20
-6.5424689
40
7.4817692
50
64.5652783
51
65.3585089
0
ARC
8
DEFAULT_255_2_778
10
5.0057229
20
-12.7506681
40
14.3132013
50
65.3477135
51
65.9099963
0
ARC
8
DEFAULT_255_2_778
10
0.5354983
20
-22.7400396
40
25.2571697
50
65.9020146
51
66.2967486
0
ARC
8
DEFAULT_255_2_778
10
-5.6893491
20
-36.9084034
40
40.7326746
50
66.2910667
51
66.5633427
0
ARC
8
DEFAULT_255_2_778
10
-13.487264
20
-54.8880199
40
60.3304826
50
66.5600499
51
66.7521723
0
ARC
8
DEFAULT_255_2_778
10
-22.7545297
20
-76.454159
40
83.8034577
50
66.7504827
51
66.8918843
0
ARC
8
DEFAULT_255_2_778
10
-33.3065498
20
-101.1786429
40
110.6855191
50
66.8909347
51
66.9986258
0
ARC
8
DEFAULT_255_2_778
10
-48.3024794
20
-136.5129792
40
149.0703235
50
66.9999017
51
67.1206072
0
ARC
8
DEFAULT_255_2_778
10
-71.0903847
20
-190.5094807
40
207.6784354
50
67.1201567
51
67.2186419
0
ARC
8
DEFAULT_255_2_778
10
-101.702383
20
-263.3919156
40
286.7286965
50
67.2180997
51
67.2953976
0
ARC
8
DEFAULT_255_2_778
10
-139.9925475
20
-354.8933946
40
385.9187028
50
67.2946265
51
67.3474194
0
ARC
8
DEFAULT_255_2_778
10
-196.1034899
20
-489.3571284
40
531.6202248
50
67.3479905
51
67.4005299
0
ARC
8
DEFAULT_255_2_778
10
-298.1312581
20
-734.4679766
40
797.1178584
50
67.4004881
51
67.4400162
0
ARC
8
DEFAULT_255_2_778
10
-574.7844478
20
-1400.4612196
40
1518.2863456
50
67.4409733
51
67.4712015
0
ARC
8
DEFAULT_255_2_778
10
-5799.9634098
20
-13997.5052391
40
15156.0285785
50
67.4715753
51
67.4750864
0
ARC
8
DEFAULT_255_2_778
10
211.628365
20
497.8938861
40
536.5120529
50
247.4710622
51
247.4735914
0
ARC
8
DEFAULT_255_2_778
10
746.7963174
20
1788.360051
40
1933.5473625
50
247.4489349
51
247.4744667
0
ARC
8
DEFAULT_255_2_778
10
354.9553106
20
844.738725
40
911.8034703
50
247.4021784
51
247.4486211
0
ARC
8
DEFAULT_255_2_778
10
224.3705571
20
530.9897953
40
571.9641426
50
247.3393371
51
247.4019634
0
ARC
8
DEFAULT_255_2_778
10
156.1138838
20
367.4992708
40
394.7972014
50
247.263189
51
247.3391972
0
ARC
8
DEFAULT_255_2_778
10
114.1792187
20
267.4303754
40
286.2969711
50
247.1758453
51
247.2630742
0
ARC
8
DEFAULT_255_2_778
10
85.9703368
20
200.4018747
40
213.5744784
50
247.0788133
51
247.1757062
0
ARC
8
DEFAULT_255_2_778
10
66.1443623
20
153.5142629
40
162.66753
50
246.973488
51
247.0786306
0
ARC
8
DEFAULT_255_2_778
10
51.7448397
20
119.6336874
40
125.8539503
50
246.8611268
51
246.9733062
0
ARC
8
DEFAULT_255_2_778
10
41.0487985
20
94.6037916
40
98.634454
50
246.7428894
51
246.8610246
0
ARC
8
DEFAULT_255_2_778
10
31.44973
20
72.278372
40
74.3328808
50
246.5543658
51
246.7457426
0
ARC
8
DEFAULT_255_2_778
10
22.3319061
20
51.2602155
40
51.4222369
50
246.2939098
51
246.5569964
0
ARC
8
DEFAULT_255_2_778
10
15.7499423
20
36.2678479
40
35.048681
50
246.0208366
51
246.292224
0
ARC
8
DEFAULT_255_2_778
10
10.9429416
20
25.4670845
40
23.2265097
50
245.6181469
51
246.0273658
0
ARC
8
DEFAULT_255_2_778
10
7.3787842
20
17.603346
40
14.5927618
50
245.1452898
51
245.618183
0
ARC
8
DEFAULT_255_2_778
10
4.9594213
20
12.3839328
40
8.8398854
50
244.4842123
51
245.1547277
0
ARC
8
DEFAULT_255_2_778
10
4.1915168
20
10.7924351
40
7.0728335
50
241.9178241
51
244.5446038
0
ARC
8
DEFAULT_255_2_778
10
2.8024658
20
8.2015366
40
4.1330787
50
237.7794077
51
241.9994724
0
ARC
8
DEFAULT_255_2_778
10
1.7834554
20
6.5918981
40
2.2280089
50
231.5060487
51
237.8785888
0
ARC
8
DEFAULT_255_2_778
10
1.0747214
20
5.7098566
40
1.0965341
50
220.5978198
51
231.8037135
0
ARC
8
DEFAULT_255_2_778
10
0.5998578
20
5.3120314
40
0.4771398
50
197.6735614
51
221.4321877
0
ARC
8
DEFAULT_255_2_778
10
0.4277329
20
5.2496236
40
0.2942806
50
180.1932113
51
196.2703855
0
ARC
8
DEFAULT_255_2_778
10
-8.7718034
20
48.6677384
40
41.8313932
50
282.2914484
51
282.30305
0
ARC
8
DEFAULT_255_2_778
10
-25.6159365
20
125.9195941
40
120.898289
50
282.3012889
51
282.3126754
0
ARC
8
DEFAULT_255_2_778
10
-39.9059051
20
191.4045346
40
187.9242588
50
282.3117121
51
282.3231943
0
ARC
8
DEFAULT_255_2_778
10
-59.0757111
20
279.1593568
40
277.7484775
50
282.3229814
51
282.339287
0
ARC
8
DEFAULT_255_2_778
10
-77.1447429
20
361.7625943
40
362.3048772
50
282.3391745
51
282.3551541
0
ARC
8
DEFAULT_255_2_778
10
-90.2818217
20
421.7393493
40
423.7035253
50
282.3550932
51
282.3740753
0
ARC
8
DEFAULT_255_2_778
10
-104.2625983
20
485.4733368
40
488.9529182
50
282.3738669
51
282.3938635
0
ARC
8
DEFAULT_255_2_778
10
-114.8818527
20
533.7963991
40
538.4290427
50
282.3938807
51
282.4150052
0
ARC
8
DEFAULT_255_2_778
10
-122.4586476
20
568.2127969
40
573.6695911
50
282.4150451
51
282.4359507
0
ARC
8
DEFAULT_255_2_778
10
-128.4226478
20
595.256377
40
601.3629933
50
282.4359779
51
282.4564968
0
ARC
8
DEFAULT_255_2_778
10
-131.6938122
20
610.0599465
40
616.5236723
50
282.456595
51
282.4768235
0
ARC
8
DEFAULT_255_2_778
10
-133.742724
20
619.3173771
40
626.0051311
50
282.4768698
51
282.5070779
0
ARC
8
DEFAULT_255_2_778
10
-134.152633
20
621.1635802
40
627.8962924
50
282.5071114
51
282.5414913
0
ARC
8
DEFAULT_255_2_778
10
-132.4929447
20
613.7068105
40
620.2570532
50
282.5414105
51
282.5792546
0
ARC
8
DEFAULT_255_2_778
10
-129.257491
20
599.2076719
40
605.4013075
50
282.5792524
51
282.6149868
0
ARC
8
DEFAULT_255_2_778
10
-124.2432662
20
576.8075303
40
582.4468135
50
282.6148862
51
282.6659196
0
ARC
8
DEFAULT_255_2_778
10
-116.0941599
20
540.5517539
40
545.2864952
50
282.6657995
51
282.7274182
0
ARC
8
DEFAULT_255_2_778
10
-104.7270207
20
490.2455521
40
493.7120271
50
282.7268694
51
282.8194615
0
ARC
8
DEFAULT_255_2_778
10
-87.8549763
20
416.1439056
40
417.7138707
50
282.8181117
51
282.9623338
0
ARC
8
DEFAULT_255_2_778
10
-73.0694198
20
351.858877
40
351.7504155
50
282.9641283
51
283.0501613
0
ARC
8
DEFAULT_255_2_778
10
-59.9636377
20
295.3663927
40
293.7576385
50
283.0480028
51
283.2127673
0
ARC
8
DEFAULT_255_2_778
10
-45.9074046
20
235.4906762
40
232.2541497
50
283.2131435
51
283.379557
0
ARC
8
DEFAULT_255_2_778
10
-35.1389165
20
190.2120732
40
185.712639
50
283.379955
51
283.5455056
0
ARC
8
DEFAULT_255_2_778
10
-26.653665
20
154.991382
40
149.4842441
50
283.5455351
51
283.7214502
0
ARC
8
DEFAULT_255_2_778
10
-19.5255811
20
125.8022171
40
119.437332
50
283.7210055
51
283.9215077
0
ARC
8
DEFAULT_255_2_778
10
-13.4254913
20
101.1960278
40
94.0862839
50
283.9209932
51
284.1481105
0
ARC
8
DEFAULT_255_2_778
10
-8.4901399
20
81.6164488
40
73.8942654
50
284.1482463
51
284.3869692
0
ARC
8
DEFAULT_255_2_778
10
-4.6442279
20
66.6225482
40
58.4149859
50
284.3871903
51
284.6361904
0
ARC
8
DEFAULT_255_2_778
10
-1.6514044
20
55.1613107
40
46.5694398
50
284.6365917
51
284.8941011
0
ARC
8
DEFAULT_255_2_778
10
0.6953001
20
46.3370246
40
37.4384461
50
284.8945207
51
285.1588017
0
ARC
8
DEFAULT_255_2_778
10
2.9322502
20
38.0907822
40
28.894182
50
285.1533247
51
285.5716496
0
ARC
8
DEFAULT_255_2_778
10
5.189006
20
30.0004425
40
20.4949834
50
285.5657063
51
286.1407161
0
ARC
8
DEFAULT_255_2_778
10
6.8975815
20
24.0926508
40
14.3450864
50
286.1452047
51
286.7063534
0
ARC
8
DEFAULT_255_2_778
10
8.190886
20
19.7904436
40
9.8526909
50
286.694877
51
287.5168986
0
ARC
8
DEFAULT_255_2_778
10
9.3120347
20
16.2446598
40
6.1338803
50
287.4989275
51
288.6903739
0
ARC
8
DEFAULT_255_2_778
10
10.0284134
20
14.1211856
40
3.8928235
50
288.7179801
51
289.6966926
0
ARC
8
DEFAULT_255_2_778
10
17.9745587
20
-8.0070406
40
19.61887
50
108.8525488
51
109.7641515
0
ARC
8
DEFAULT_255_2_778
10
15.8545311
20
-1.8009634
40
13.0606757
50
107.744096
51
108.848592
0
ARC
8
DEFAULT_255_2_778
10
14.5929853
20
2.1564755
40
8.9070281
50
105.8635096
51
107.7734474
0
ARC
8
DEFAULT_255_2_778
10
13.8091613
20
4.9228017
40
6.0318004
50
103.0763977
51
105.8843455
0
ARC
8
DEFAULT_255_2_778
10
13.403055
20
6.6805588
40
4.2277421
50
98.9067087
51
103.105088
0
ARC
8
DEFAULT_255_2_778
10
13.235585
20
7.7647228
40
3.1307234
50
91.877965
51
98.9507457
0
ARC
8
DEFAULT_255_2_778
10
13.2194067
20
8.0737256
40
2.8213629
50
90.0021854
51
91.7552395
0
ARC
8
DEFAULT_255_2_778
10
13.2193342
20
8.1013165
40
2.793772
50
87.7272851
51
90.0007189
0
ARC
8
DEFAULT_255_2_778
10
13.2035699
20
7.8714912
40
3.024049
50
79.4543231
51
87.601518
0
ARC
8
DEFAULT_255_2_778
10
13.0178378
20
6.8461698
40
4.0660476
50
75.370604
51
79.5256058
0
ARC
8
DEFAULT_255_2_778
10
12.6063857
20
5.2563963
40
5.7081999
50
72.7638865
51
75.4048291
0
ARC
8
DEFAULT_255_2_778
10
11.8927008
20
2.9431031
40
8.12908
50
71.1212608
51
72.7907939
0
ARC
8
DEFAULT_255_2_778
10
10.6781297
20
-0.6119062
40
11.8858438
50
69.8931267
51
71.1263102
0
ARC
8
DEFAULT_255_2_778
10
15.7907515
20
13.3784996
40
3.0094791
50
250.0547963
51
252.1405779
0
ARC
8
DEFAULT_255_2_778
10
16.5408656
20
15.6996758
40
5.4488495
50
252.1184638
51
253.652715
0
ARC
8
DEFAULT_255_2_778
10
17.6207436
20
19.3714219
40
9.2761006
50
253.6355609
51
254.7572827
0
ARC
8
DEFAULT_255_2_778
10
19.0206739
20
24.4933466
40
14.5858939
50
254.7412405
51
255.5153531
0
ARC
8
DEFAULT_255_2_778
10
20.6678286
20
30.8566962
40
21.1589699
50
255.5067022
51
256.0609524
0
ARC
8
DEFAULT_255_2_778
10
22.5300054
20
38.3496106
40
28.879816
50
256.056239
51
256.4695525
0
ARC
8
DEFAULT_255_2_778
10
24.5911692
20
46.9073229
40
37.6822493
50
256.4668496
51
256.7844321
0
ARC
8
DEFAULT_255_2_778
10
27.4121681
20
58.9342987
40
50.0356363
50
256.7881672
51
257.148106
0
ARC
8
DEFAULT_255_2_778
10
31.5280419
20
76.9687216
40
68.5337666
50
257.1469873
51
257.4448335
0
ARC
8
DEFAULT_255_2_778
10
36.829744
20
100.7648113
40
92.9133058
50
257.4435135
51
257.6810283
0
ARC
8
DEFAULT_255_2_778
10
43.1209802
20
129.5519837
40
122.379913
50
257.6789097
51
257.8443911
0
ARC
8
DEFAULT_255_2_778
10
51.8820716
20
170.2462548
40
164.0065921
50
257.8458679
51
258.0149102
0
ARC
8
DEFAULT_255_2_778
10
66.5323261
20
239.2567094
40
234.5549642
50
258.0148149
51
258.1479866
0
ARC
8
DEFAULT_255_2_778
10
100.0627814
20
399.1416572
40
397.9180189
50
258.1511937
51
258.2692812
0
ARC
8
DEFAULT_255_2_778
10
263.7817463
20
1187.5807712
40
1203.1758261
50
258.2692728
51
258.3117712
0
LINE
8
DEFAULT_255_2_778
10
20.0350325
20
9.3534554
11
20.0430655
21
9.3517926
0
ARC
8
DEFAULT_255_2_778
10
-252.589312
20
-1308.489881
40
1345.7470379
50
78.2740672
51
78.3116531
0
ARC
8
DEFAULT_255_2_778
10
-66.2630714
20
-410.7658957
40
428.8905488
50
78.1719846
51
78.2731195
0
ARC
8
DEFAULT_255_2_778
10
-28.4910071
20
-230.3916865
40
244.6038587
50
78.0216317
51
78.1714972
0
ARC
8
DEFAULT_255_2_778
10
-11.3331489
20
-149.515769
40
161.9279484
50
77.8319163
51
78.0213072
0
ARC
8
DEFAULT_255_2_778
10
-1.2931679
20
-102.9510838
40
114.2931804
50
77.6087449
51
77.8316652
0
ARC
8
DEFAULT_255_2_778
10
5.2796138
20
-73.032662
40
83.6612784
50
77.3566227
51
77.608462
0
ARC
8
DEFAULT_255_2_778
10
9.8646187
20
-52.5918357
40
62.7125398
50
77.0793077
51
77.3563443
0
ARC
8
DEFAULT_255_2_778
10
13.1735846
20
-38.1668888
40
47.9129336
50
76.7804151
51
77.0789915
0
ARC
8
DEFAULT_255_2_778
10
15.6276221
20
-27.7185974
40
37.1803153
50
76.4631671
51
76.7798821
0
ARC
8
DEFAULT_255_2_778
10
17.8823782
20
-18.3697938
40
27.5634535
50
75.9514094
51
76.4711491
0
ARC
8
DEFAULT_255_2_778
10
20.0045685
20
-9.8976952
40
18.8296033
50
75.2600837
51
75.9579792
0
ARC
8
DEFAULT_255_2_778
10
21.5731032
20
-3.9339132
40
12.6629999
50
74.4994257
51
75.2580022
0
ARC
8
DEFAULT_255_2_778
10
22.7770343
20
0.3964162
40
8.1684265
50
73.3539944
51
74.5195521
0
ARC
8
DEFAULT_255_2_778
10
23.6957942
20
3.4688745
40
4.9615403
50
71.9770155
51
73.35547
0
ARC
8
DEFAULT_255_2_778
10
24.3401565
20
5.444087
40
2.8838824
50
69.9989061
51
72.0091481
0
LINE
8
DEFAULT_255_2_778
10
25.3260541
20
5.6436312
11
25.3260542
21
5.6433818
0
ARC
8
DEFAULT_255_2_778
10
24.9351896
20
5.6535143
40
0.390996
50
326.3202173
51
358.5150311
0
ARC
8
DEFAULT_255_2_778
10
24.5440172
20
5.8961395
40
0.8511907
50
313.580992
51
327.3316011
0
ARC
8
DEFAULT_255_2_778
10
23.9256365
20
6.5300259
40
1.7367118
50
306.2260486
51
313.9428121
0
ARC
8
DEFAULT_255_2_778
10
23.0344912
20
7.7323973
40
3.2333078
50
301.4856293
51
306.373327
0
ARC
8
DEFAULT_255_2_778
10
21.8014181
20
9.7314172
40
5.5820346
50
298.3041962
51
301.5623217
0
ARC
8
DEFAULT_255_2_778
10
20.7292384
20
11.6880711
40
7.8131499
50
297.5223627
51
298.423288
0
LINE
8
DEFAULT_255_2_778
10
0.1334541
20
5.2486312
11
0.1334541
21
7.7952312
0
LINE
8
DEFAULT_255_2_778
10
25.3265541
20
8.1540312
11
25.3260541
21
5.6436312
0
LINE
8
DEFAULT_255_2_778
10
24.3396541
20
4.7591312
11
24.3393541
21
4.7589312
0
ARC
8
DEFAULT_255_2_778
10
21.0784809
20
13.5802461
40
7.0709871
50
296.3320372
51
297.461761
0
ARC
8
DEFAULT_255_2_778
10
18.6256981
20
18.526573
40
12.5920633
50
295.587859
51
296.3512588
0
ARC
8
DEFAULT_255_2_778
10
15.2297362
20
25.6102101
40
20.4476641
50
295.054573
51
295.5977079
0
ARC
8
DEFAULT_255_2_778
10
10.906971
20
34.8485466
40
30.6473285
50
294.6813166
51
295.0615857
0
ARC
8
DEFAULT_255_2_778
10
5.7988099
20
45.9575664
40
42.874496
50
294.4062002
51
294.6849244
0
ARC
8
DEFAULT_255_2_778
10
-0.0430195
20
58.8271311
40
57.0078843
50
294.1969334
51
294.4082654
0
ARC
8
DEFAULT_255_2_778
10
-8.298344
20
77.2071514
40
77.1567184
50
293.9581526
51
294.1943583
0
ARC
8
DEFAULT_255_2_778
10
-20.7522327
20
105.229743
40
107.8220895
50
293.7665765
51
293.9590963
0
ARC
8
DEFAULT_255_2_778
10
-37.4171148
20
143.067608
40
149.1672503
50
293.6165035
51
293.7675449
0
ARC
8
DEFAULT_255_2_778
10
-57.8890444
20
189.8769395
40
200.2574978
50
293.5143649
51
293.6179131
0
ARC
8
DEFAULT_255_2_778
10
-87.5124455
20
257.9710474
40
274.5161903
50
293.4097323
51
293.5133962
0
ARC
8
DEFAULT_255_2_778
10
-140.1707006
20
379.5987286
40
407.0536742
50
293.3308881
51
293.4098262
0
ARC
8
DEFAULT_255_2_778
10
-265.264584
20
669.6729659
40
722.9516683
50
293.2692235
51
293.329633
0
ARC
8
DEFAULT_255_2_778
10
-1377.7317121
20
3256.8926865
40
3539.2060944
50
293.2512118
51
293.2674595
0
ARC
8
DEFAULT_255_2_778
10
1206.4822592
20
-2756.9813729
40
3006.3911389
50
113.256449
51
113.2570363
0
ARC
8
DEFAULT_255_2_778
10
516.7912671
20
-1152.4310774
40
1259.8931286
50
113.253345
51
113.2914316
0
ARC
8
DEFAULT_255_2_778
10
240.5379425
20
-510.7003389
40
561.2270854
50
113.2919786
51
113.365421
0
ARC
8
DEFAULT_255_2_778
10
156.1357252
20
-315.3301597
40
348.4049973
50
113.3657314
51
113.4660551
0
ARC
8
DEFAULT_255_2_778
10
113.6052863
20
-217.3554213
40
241.5972841
50
113.4663136
51
113.5879283
0
ARC
8
DEFAULT_255_2_778
10
87.5986582
20
-157.7923921
40
176.6042141
50
113.5881888
51
113.7272211
0
ARC
8
DEFAULT_255_2_778
10
70.1728906
20
-118.1448199
40
133.2961621
50
113.7275243
51
113.8808867
0
ARC
8
DEFAULT_255_2_778
10
57.8451754
20
-90.2996379
40
102.8441225
50
113.8811209
51
114.0462671
0
ARC
8
DEFAULT_255_2_778
10
48.8934737
20
-70.2367351
40
80.8747569
50
114.0464597
51
114.2207963
0
ARC
8
DEFAULT_255_2_778
10
40.8044502
20
-52.2657608
40
61.16719
50
114.2167763
51
114.5000405
0
ARC
8
DEFAULT_255_2_778
10
33.4916497
20
-36.2218365
40
43.5352712
50
114.4986641
51
114.8450673
0
ARC
8
DEFAULT_255_2_778
10
28.0730647
20
-24.5199191
40
30.6396931
50
114.8444457
51
115.2448757
0
ARC
8
DEFAULT_255_2_778
10
24.4572586
20
-16.8485851
40
22.1589257
50
115.2481293
51
115.6277725
0
ARC
8
DEFAULT_255_2_778
10
21.4257899
20
-10.5391415
40
15.1590075
50
115.6116586
51
116.3119963
0
ARC
8
DEFAULT_255_2_778
10
18.8845271
20
-5.4004654
40
9.4262936
50
116.3107318
51
117.1433002
0
ARC
8
DEFAULT_255_2_778
10
17.6609161
20
-3.0061286
40
6.7374175
50
117.1729445
51
117.5240696
0
ARC
8
DEFAULT_255_2_778
10
10.1655932
20
11.3598484
40
9.4663231
50
295.6074438
51
297.5734318
0
ARC
8
DEFAULT_255_2_778
10
11.1365078
20
9.3299043
40
7.2161356
50
293.0130776
51
295.621735
0
ARC
8
DEFAULT_255_2_778
10
11.8154526
20
7.726994
40
5.4753646
50
289.5585085
51
293.0312053
0
ARC
8
DEFAULT_255_2_778
10
12.2477188
20
6.505869
40
4.1799892
50
284.9628019
51
289.5786659
0
ARC
8
DEFAULT_255_2_778
10
12.4802741
20
5.6324641
40
3.2761542
50
278.8947744
51
284.9774209
0
ARC
8
DEFAULT_255_2_778
10
12.5662751
20
5.0807936
40
2.7178206
50
270.0829674
51
278.9017869
0
ARC
8
DEFAULT_255_2_778
10
12.5709951
20
4.9677859
40
2.6048103
50
261.8161559
51
269.9827451
0
ARC
8
DEFAULT_255_2_778
10
12.6284861
20
5.33548
40
2.9769473
50
253.9795598
51
261.728309
0
ARC
8
DEFAULT_255_2_778
10
12.8642513
20
6.1682
40
3.8423951
50
249.2696549
51
254.0273574
0
ARC
8
DEFAULT_255_2_778
10
13.3076926
20
7.3469903
40
5.1018321
50
246.0412876
51
249.2980142
0
ARC
8
DEFAULT_255_2_778
10
13.8909693
20
8.6741673
40
6.551516
50
244.4926713
51
246.093035
0
ARC
8
DEFAULT_255_2_778
10
7.8533473
20
-4.001898
40
7.4889824
50
64.5654589
51
65.3579271
0
ARC
8
DEFAULT_255_2_778
10
5.000384
20
-10.2149052
40
14.3257107
50
65.3473631
51
65.9091576
0
ARC
8
DEFAULT_255_2_778
10
0.5323117
20
-20.1990554
40
25.2640342
50
65.9011638
51
66.2957932
0
ARC
8
DEFAULT_255_2_778
10
-5.6957692
20
-34.3740872
40
40.7469444
50
66.2900823
51
66.5622652
0
ARC
8
DEFAULT_255_2_778
10
-13.501561
20
-52.3710414
40
60.3637926
50
66.5590099
51
66.7510279
0
ARC
8
DEFAULT_255_2_778
10
-22.7830542
20
-73.9692153
40
83.8718174
50
66.7493682
51
66.8906559
0
ARC
8
DEFAULT_255_2_778
10
-33.2783895
20
-98.55927
40
110.6079886
50
66.8896802
51
66.9974477
0
ARC
8
DEFAULT_255_2_778
10
-48.3889402
20
-134.1615096
40
149.2841854
50
66.9987107
51
67.1192444
0
ARC
8
DEFAULT_255_2_778
10
-71.1191835
20
-188.018219
40
207.7410849
50
67.1188397
51
67.2172962
0
ARC
8
DEFAULT_255_2_778
10
-101.7614149
20
-260.9688702
40
286.8659473
50
67.2168337
51
67.2940955
0
ARC
8
DEFAULT_255_2_778
10
-139.8558339
20
-351.997191
40
385.543908
50
67.2933518
51
67.3461965
0
ARC
8
DEFAULT_255_2_778
10
-195.9001763
20
-486.2917395
40
531.0636458
50
67.3467043
51
67.3992992
0
ARC
8
DEFAULT_255_2_778
10
-297.8165728
20
-731.120795
40
796.2583259
50
67.3992737
51
67.4388448
0
ARC
8
DEFAULT_255_2_778
10
-572.120896
20
-1391.4229289
40
1511.2700527
50
67.4398196
51
67.4701884
0
ARC
8
DEFAULT_255_2_778
10
-5496.1683022
20
-13261.8847066
40
14362.4997867
50
67.4705437
51
67.4742488
0
ARC
8
DEFAULT_255_2_778
10
680.1440434
20
1629.9462534
40
1759.3321059
50
247.4713516
51
247.4721078
0
ARC
8
DEFAULT_255_2_778
10
754.1272936
20
1808.5107874
40
1952.6163744
50
247.4483772
51
247.4736615
0
ARC
8
DEFAULT_255_2_778
10
356.9589551
20
852.0876894
40
917.0064906
50
247.4019038
51
247.4480868
0
ARC
8
DEFAULT_255_2_778
10
225.3521211
20
535.8884145
40
574.5121984
50
247.3393754
51
247.4017294
0
ARC
8
DEFAULT_255_2_778
10
156.8115811
20
371.7179644
40
396.6084539
50
247.263585
51
247.3392528
0
ARC
8
DEFAULT_255_2_778
10
114.5537961
20
270.8764528
40
287.270762
50
247.1765596
51
247.2635006
0
ARC
8
DEFAULT_255_2_778
10
86.3887379
20
203.9498555
40
214.6591932
50
247.0800207
51
247.1764324
0
ARC
8
DEFAULT_255_2_778
10
66.3844976
20
156.6376822
40
163.2917778
50
246.9750613
51
247.079811
0
ARC
8
DEFAULT_255_2_778
10
51.9582002
20
122.6913887
40
126.4072432
50
246.8631592
51
246.9748568
0
ARC
8
DEFAULT_255_2_778
10
41.2715605
20
97.6806333
40
99.2090419
50
246.7455054
51
246.8629657
0
ARC
8
DEFAULT_255_2_778
10
31.5451146
20
75.0556528
40
74.5819534
50
246.5574954
51
246.7482473
0
ARC
8
DEFAULT_255_2_778
10
22.3804579
20
53.9267587
40
51.5510808
50
246.2978553
51
246.5603017
0
ARC
8
DEFAULT_255_2_778
10
15.7940745
20
38.9218053
40
35.1642241
50
246.0258518
51
246.2963625
0
ARC
8
DEFAULT_255_2_778
10
10.9755739
20
28.0926522
40
23.31144
50
245.6246298
51
246.0323747
0
ARC
8
DEFAULT_255_2_778
10
7.3977617
20
20.1964874
40
14.6425208
50
245.1534934
51
245.6247902
0
ARC
8
DEFAULT_255_2_778
10
4.9715328
20
14.9602695
40
8.8715103
50
244.4947299
51
245.1628529
0
ARC
8
DEFAULT_255_2_778
10
4.2326638
20
13.4186893
40
7.1620117
50
242.5140762
51
244.5192711
0
ARC
8
DEFAULT_255_2_778
10
3.2391606
20
11.5104989
40
5.0106775
50
240.0989901
51
242.5217644
0
ARC
8
DEFAULT_255_2_778
10
2.4308879
20
10.1098328
40
3.3935314
50
236.6703547
51
240.1402802
0
ARC
8
DEFAULT_255_2_778
10
1.7629454
20
9.0973803
40
2.1806001
50
231.9585695
51
236.7172346
0
ARC
8
DEFAULT_255_2_778
10
1.2463118
20
8.4399798
40
1.3444897
50
225.3148262
51
232.0340844
0
ARC
8
DEFAULT_255_2_778
10
0.8514485
20
8.0442931
40
0.7854957
50
214.8803335
51
225.496406
0
ARC
8
DEFAULT_255_2_778
10
0.5642406
20
7.8475688
40
0.437395
50
196.26379
51
215.2551769
0
ARC
8
DEFAULT_255_2_778
10
0.4402053
20
7.8077577
40
0.3071934
50
180.1665309
51
195.6146023
0
ARC
8
DEFAULT_255_2_778
10
0.442829
20
7.8047911
40
0.3098227
50
154.2499047
51
179.6164993
0
ARC
8
DEFAULT_255_2_778
10
0.5655342
20
7.7481247
40
0.4449671
50
142.3743856
51
154.542147
0
ARC
8
DEFAULT_255_2_778
10
0.7308735
20
7.6223821
40
0.6526858
50
134.3357475
51
142.492827
0
ARC
8
DEFAULT_255_2_778
10
0.905893
20
7.4466064
40
0.9007279
50
129.9947127
51
134.4846606
0
ARC
8
DEFAULT_255_2_778
10
1.1239143
20
7.184191
40
1.2418923
50
124.6519942
51
129.9194268
0
ARC
8
DEFAULT_255_2_778
10
1.4359582
20
6.7347738
40
1.7890178
50
120.6648955
51
124.6891269
0
ARC
8
DEFAULT_255_2_778
10
1.8061189
20
6.1126975
40
2.5128942
50
117.5596863
51
120.6906688
0
ARC
8
DEFAULT_255_2_778
10
2.226858
20
5.3095148
40
3.4196038
50
115.2061215
51
117.5829276
0
ARC
8
DEFAULT_255_2_778
10
2.7100812
20
4.2841438
40
4.5531336
50
113.2003163
51
115.2127976
0
ARC
8
DEFAULT_255_2_778
10
3.2773467
20
2.9628686
40
5.9910342
50
111.558732
51
113.2087346
0
ARC
8
DEFAULT_255_2_778
10
3.6493174
20
2.0328325
40
6.9926899
50
111.3818241
51
111.5931611
0
ARC
8
DEFAULT_255_2_778
10
17.97205
20
-5.9475706
40
19.6131729
50
108.8517199
51
109.7634041
0
ARC
8
DEFAULT_255_2_778
10
15.8525865
20
0.2570622
40
13.0565279
50
107.7429613
51
108.84764
0
ARC
8
DEFAULT_255_2_778
10
14.5915202
20
4.2132976
40
8.9041726
50
105.8620044
51
107.772372
0
ARC
8
DEFAULT_255_2_778
10
13.8084522
20
6.9772332
40
6.0314511
50
103.0747806
51
105.8828244
0
ARC
8
DEFAULT_255_2_778
10
13.4026132
20
8.7340099
40
4.2284084
50
98.9053272
51
103.1032994
0
ARC
8
DEFAULT_255_2_778
10
13.2352123
20
9.8178308
40
3.1317394
50
91.8775156
51
98.9491433
0
ARC
8
DEFAULT_255_2_778
10
13.2190442
20
10.1266217
40
2.8225911
50
90.0021762
51
91.754858
0
ARC
8
DEFAULT_255_2_778
10
13.218961
20
10.1537201
40
2.7954927
50
87.7364806
51
90.0004936
0
ARC
8
DEFAULT_255_2_778
10
13.2032792
20
9.9249861
40
3.0246749
50
79.4626328
51
87.6107835
0
ARC
8
DEFAULT_255_2_778
10
13.01794
20
8.9010042
40
4.0652856
50
75.3768303
51
79.5337913
0
ARC
8
DEFAULT_255_2_778
10
12.6072973
20
7.3136601
40
5.7048832
50
72.7678441
51
75.4109884
0
ARC
8
DEFAULT_255_2_778
10
11.8953955
20
5.0054739
40
8.1203579
50
71.1232367
51
72.7949423
0
ARC
8
DEFAULT_255_2_778
10
10.6836991
20
1.4584496
40
11.868636
50
69.8931023
51
71.1283274
0
ARC
8
DEFAULT_255_2_778
10
7.9837758
20
-5.9390634
40
19.7434533
50
69.5414613
51
69.9154264
0
ARC
8
DEFAULT_255_2_778
10
2.2555082
20
-21.3065141
40
36.1438063
50
69.3003086
51
69.5484646
0
ARC
8
DEFAULT_255_2_778
10
-6.0922986
20
-43.4087238
40
59.7699263
50
69.1292234
51
69.3037037
0
ARC
8
DEFAULT_255_2_778
10
-16.9892375
20
-71.9992155
40
90.3666496
50
69.0099565
51
69.1315948
0
ARC
8
DEFAULT_255_2_778
10
-30.2209739
20
-106.4953095
40
127.3133591
50
68.9224922
51
69.0112994
0
ARC
8
DEFAULT_255_2_778
10
-45.6164156
20
-146.4466771
40
170.1284428
50
68.8561216
51
68.9232754
0
ARC
8
DEFAULT_255_2_778
10
-67.4995487
20
-203.0195914
40
230.7862215
50
68.780226
51
68.8552714
0
ARC
8
DEFAULT_255_2_778
10
-100.5913906
20
-288.2529325
40
322.2181219
50
68.7191875
51
68.7805307
0
ARC
8
DEFAULT_255_2_778
10
-144.590172
20
-401.2218071
40
443.4528503
50
68.6710169
51
68.7194723
0
ARC
8
DEFAULT_255_2_778
10
-197.4906979
20
-536.7154691
40
588.9073038
50
68.637869
51
68.6714899
0
ARC
8
DEFAULT_255_2_778
10
-272.3317726
20
-728.0503925
40
794.3586104
50
68.6033893
51
68.6376283
0
ARC
8
DEFAULT_255_2_778
10
-398.065837
20
-1048.9454246
40
1139.0072381
50
68.5764712
51
68.6034561
0
ARC
8
DEFAULT_255_2_778
10
-673.3432801
20
-1750.4731612
40
1892.6111365
50
68.5522365
51
68.575926
0
ARC
8
DEFAULT_255_2_778
10
-1873.7898645
20
-4806.1124149
40
5175.598077
50
68.5420266
51
68.5520798
0
LINE
8
DEFAULT_255_2_778
10
19.5405127
20
10.7450189
11
19.5435425
21
10.743828
0
ARC
8
DEFAULT_255_2_778
10
3362.501602
20
8515.7199527
40
9138.3799148
50
248.5422413
51
248.5474321
0
ARC
8
DEFAULT_255_2_778
10
933.3961856
20
2334.0925781
40
2496.6128215
50
248.5475857
51
248.5638887
0
ARC
8
DEFAULT_255_2_778
10
529.4992401
20
1305.3847313
40
1391.455558
50
248.5639897
51
248.5887383
0
ARC
8
DEFAULT_255_2_778
10
355.6172946
20
861.9482195
40
915.1459204
50
248.5887688
51
248.6202974
0
ARC
8
DEFAULT_255_2_778
10
257.6160656
20
611.6186772
40
646.316754
50
248.6203337
51
248.6574902
0
ARC
8
DEFAULT_255_2_778
10
195.3410862
20
452.2423627
40
475.2057295
50
248.6575452
51
248.6994234
0
ARC
8
DEFAULT_255_2_778
10
152.8137423
20
343.1704786
40
358.1363019
50
248.699532
51
248.7454594
0
ARC
8
DEFAULT_255_2_778
10
122.9879336
20
266.4941508
40
275.863353
50
248.7456569
51
248.7948752
0
ARC
8
DEFAULT_255_2_778
10
96.4194019
20
198.0033778
40
202.3999415
50
248.7937308
51
248.8755432
0
ARC
8
DEFAULT_255_2_778
10
73.4765708
20
138.6182615
40
138.737036
50
248.8751172
51
248.9778866
0
ARC
8
DEFAULT_255_2_778
10
57.2561053
20
96.4097733
40
93.5191195
50
248.9775729
51
249.0999941
0
ARC
8
DEFAULT_255_2_778
10
46.9703661
20
69.4778062
40
64.6898411
50
249.1011672
51
249.2208165
0
ARC
8
DEFAULT_255_2_778
10
39.0932997
20
48.7083688
40
42.4768342
50
249.2159369
51
249.4276322
0
ARC
8
DEFAULT_255_2_778
10
32.7331772
20
31.7576801
40
24.3722216
50
249.4234626
51
249.7249314
0
ARC
8
DEFAULT_255_2_778
10
29.8061134
20
23.8454525
40
15.9359296
50
249.7389456
51
249.8737184
0
ARC
8
DEFAULT_255_2_778
10
21.7244291
20
1.7859702
40
7.5573544
50
69.0533253
51
69.8909139
0
ARC
8
DEFAULT_255_2_778
10
22.2246158
20
3.0890557
40
6.1615691
50
67.7913917
51
69.0652228
0
ARC
8
DEFAULT_255_2_778
10
22.7393447
20
4.3476934
40
4.8017478
50
66.1517656
51
67.8009775
0
ARC
8
DEFAULT_255_2_778
10
23.2054938
20
5.4006019
40
3.6502659
50
64.0967539
51
66.1618425
0
ARC
8
DEFAULT_255_2_778
10
23.6006368
20
6.2137198
40
2.7462202
50
61.6946472
51
64.1015819
0
ARC
8
DEFAULT_255_2_778
10
23.9297257
20
6.8238548
40
2.052993
50
58.7592846
51
61.7067248
0
ARC
8
DEFAULT_255_2_778
10
24.2451748
20
7.3399924
40
1.4480961
50
54.0087915
51
58.8392416
0
ARC
8
DEFAULT_255_2_778
10
24.5372986
20
7.7403302
40
0.9525106
50
47.3437856
51
54.0747459
0
ARC
8
DEFAULT_255_2_778
10
24.7721244
20
7.9934125
40
0.6072694
50
37.5569784
51
47.4580016
0
ARC
8
DEFAULT_255_2_778
10
24.9509098
20
8.1291467
40
0.3828033
50
21.6008254
51
37.7628945
0
ARC
8
DEFAULT_255_2_778
10
25.0442291
20
8.1673899
40
0.2819614
50
0.1433643
51
21.3563483
0
ARC
8
DEFAULT_255_2_778
10
24.9978251
20
8.1734614
40
0.3284083
50
332.4457774
51
359.063779
0
ARC
8
DEFAULT_255_2_778
10
24.7670239
20
8.2873565
40
0.5857456
50
320.2512419
51
333.0120907
0
ARC
8
DEFAULT_255_2_778
10
24.4288906
20
8.5635164
40
1.0223116
50
312.5472521
51
320.4688612
0
ARC
8
DEFAULT_255_2_778
10
23.9714303
20
9.0570766
40
1.695264
50
307.3263057
51
312.6579627
0
ARC
8
DEFAULT_255_2_778
10
23.3641105
20
9.849684
40
2.6937933
50
303.4699985
51
307.3760232
0
ARC
8
DEFAULT_255_2_778
10
22.5800572
20
11.0301588
40
4.1109224
50
300.7122152
51
303.5118833
0
ARC
8
DEFAULT_255_2_778
10
21.6821766
20
12.533587
40
5.8620574
50
298.928341
51
300.752354
0
ARC
8
DEFAULT_255_2_778
10
20.6694158
20
14.3636624
40
7.9536737
50
297.4634518
51
298.9366856
0
LINE
8
DEFAULT_255_2_778
10
1.0999127
20
8.5442263
11
11.3401127
21
12.5103263
0
LINE
8
DEFAULT_255_2_778
10
24.3375127
20
7.3063263
11
24.3393127
21
7.3060263
0
ARC
8
DEFAULT_255_2_778
10
21.085108
20
15.1704817
40
7.0543313
50
296.3393088
51
297.4717867
0
ARC
8
DEFAULT_255_2_778
10
18.6347703
20
20.1102599
40
12.5684544
50
295.5937521
51
296.3586286
0
ARC
8
DEFAULT_255_2_778
10
15.2449217
20
27.1793793
40
20.4083213
50
295.0592744
51
295.6034797
0
ARC
8
DEFAULT_255_2_778
10
10.9253368
20
36.4091433
40
30.5988731
50
294.6852511
51
295.0661355
0
ARC
8
DEFAULT_255_2_778
10
5.8267846
20
47.4953366
40
42.8012873
50
294.409606
51
294.688815
0
ARC
8
DEFAULT_255_2_778
10
-0.0238936
20
60.3826734
40
56.954516
50
294.2000104
51
294.4115458
0
ARC
8
DEFAULT_255_2_778
10
-8.2555542
20
78.7075152
40
77.0433201
50
293.9608377
51
294.1973962
0
ARC
8
DEFAULT_255_2_778
10
-20.7438322
20
106.8043245
40
107.7904789
50
293.7691207
51
293.9617008
0
ARC
8
DEFAULT_255_2_778
10
-37.4106983
20
144.6427811
40
149.1369807
50
293.6189151
51
293.7699899
0
ARC
8
DEFAULT_255_2_778
10
-57.9986155
20
191.7123128
40
200.5121025
50
293.5168675
51
293.6202861
0
ARC
8
DEFAULT_255_2_778
10
-87.6747158
20
259.920068
40
274.8960307
50
293.4123215
51
293.515844
0
ARC
8
DEFAULT_255_2_778
10
-140.9086314
20
382.8619328
40
408.8682366
50
293.3338384
51
293.4124279
0
ARC
8
DEFAULT_255_2_778
10
-268.2605039
20
678.1304512
40
730.430046
50
293.2727767
51
293.3325692
0
ARC
8
DEFAULT_255_2_778
10
-1485.2948754
20
3508.051316
40
3810.9535015
50
293.2559132
51
293.2710028
0
LINE
8
DEFAULT_255_2_778
10
19.4169687
20
6.7360123
11
19.3862203
21
6.7227943
0
ARC
8
DEFAULT_255_2_778
10
498.0333636
20
-1106.9232319
40
1212.1512115
50
113.2581235
51
113.297695
0
ARC
8
DEFAULT_255_2_778
10
235.5348372
20
-497.3281298
40
548.4406834
50
113.2982255
51
113.3733487
0
ARC
8
DEFAULT_255_2_778
10
153.743125
20
-308.0728854
40
342.2673785
50
113.3736328
51
113.4757108
0
ARC
8
DEFAULT_255_2_778
10
112.06791
20
-212.1130364
40
237.6484692
50
113.4759215
51
113.599502
0
ARC
8
DEFAULT_255_2_778
10
86.5531736
20
-153.7092267
40
173.9145947
50
113.5997
51
113.7408198
0
ARC
8
DEFAULT_255_2_778
10
69.4501899
20
-114.8215462
40
131.4320838
50
113.7410468
51
113.8965164
0
ARC
8
DEFAULT_255_2_778
10
57.3511099
20
-87.5126471
40
101.5629743
50
113.8968114
51
114.06397
0
ARC
8
DEFAULT_255_2_778
10
48.4994562
20
-67.6900173
40
79.853796
50
114.0642857
51
114.2407796
0
ARC
8
DEFAULT_255_2_778
10
40.5079985
20
-49.9522602
40
60.3989405
50
114.2367883
51
114.5235466
0
ARC
8
DEFAULT_255_2_778
10
33.2843091
20
-34.1212092
40
42.9976801
50
114.5220857
51
114.8727012
0
ARC
8
DEFAULT_255_2_778
10
27.9381396
20
-22.5901475
40
30.2875694
50
114.8721773
51
115.2771472
0
ARC
8
DEFAULT_255_2_778
10
24.3570771
20
-15.0034546
40
21.8981764
50
115.2805764
51
115.6646536
0
ARC
8
DEFAULT_255_2_778
10
21.3587925
20
-8.7735464
40
14.9843179
50
115.6482335
51
116.3566361
0
ARC
8
DEFAULT_255_2_778
10
18.845361
20
-3.7011636
40
9.3233636
50
116.3551932
51
117.1969439
0
ARC
8
DEFAULT_255_2_778
10
17.6458463
20
-1.3590736
40
6.6919755
50
117.2273904
51
117.5809347
0
ARC
8
DEFAULT_255_2_778
10
10.1803679
20
12.9158814
40
9.4172689
50
295.6543413
51
297.6281717
0
ARC
8
DEFAULT_255_2_778
10
11.1458314
20
10.9015464
40
7.1835139
50
293.0513886
51
295.6686788
0
ARC
8
DEFAULT_255_2_778
10
11.8213821
20
9.3095955
40
5.4541577
50
289.5876912
51
293.0695428
0
ARC
8
DEFAULT_255_2_778
10
12.2518418
20
8.0955376
40
4.1660471
50
284.9824308
51
289.6078138
0
ARC
8
DEFAULT_255_2_778
10
12.4835422
20
7.2265364
40
3.2666878
50
278.9048982
51
284.9970397
0
ARC
8
DEFAULT_255_2_778
10
12.5692633
20
6.6772935
40
2.710796
50
270.0828914
51
278.9119171
0
ARC
8
DEFAULT_255_2_778
10
12.5740025
20
6.5655923
40
2.599092
50
261.7319636
51
269.9819802
0
ARC
8
DEFAULT_255_2_778
10
12.6326533
20
6.937552
40
2.9756232
50
253.8895676
51
261.6443174
0
ARC
8
DEFAULT_255_2_778
10
12.8712574
20
7.7753648
40
3.8467455
50
249.1832391
51
253.9379838
0
ARC
8
DEFAULT_255_2_778
10
13.3193155
20
8.9610146
40
5.1142298
50
245.9609995
51
249.2117742
0
ARC
8
DEFAULT_255_2_778
10
13.908679
20
10.2969034
40
6.5743397
50
244.4169455
51
246.0127537
0
ARC
8
DEFAULT_255_2_778
10
7.922154
20
-2.2304416
40
7.30993
50
64.4948404
51
65.3071225
0
ARC
8
DEFAULT_255_2_778
10
5.1315684
20
-8.2932606
40
13.9841445
50
65.2962767
51
65.8719943
0
ARC
8
DEFAULT_255_2_778
10
0.7684478
20
-18.0259442
40
24.6500691
50
65.8639961
51
66.2685556
0
ARC
8
DEFAULT_255_2_778
10
-5.3057119
20
-31.832692
40
39.7338913
50
66.2627717
51
66.5419448
0
ARC
8
DEFAULT_255_2_778
10
-12.9110516
20
-49.3502432
40
58.8311629
50
66.5386074
51
66.7356543
0
ARC
8
DEFAULT_255_2_778
10
-21.8748277
20
-70.1930188
40
81.5197188
50
66.7338267
51
66.8792056
0
ARC
8
DEFAULT_255_2_778
10
-32.1752285
20
-94.3122127
40
107.7463039
50
66.8780587
51
66.9886969
0
ARC
8
DEFAULT_255_2_778
10
-46.8312919
20
-128.8293167
40
145.2460459
50
66.9900095
51
67.1139006
0
ARC
8
DEFAULT_255_2_778
10
-68.9434532
20
-181.2082199
40
202.1010999
50
67.1135297
51
67.2147368
0
ARC
8
DEFAULT_255_2_778
10
-98.6076368
20
-251.8216233
40
278.69233
50
67.2142797
51
67.2938083
0
ARC
8
DEFAULT_255_2_778
10
-135.3691345
20
-339.6635846
40
373.9163703
50
67.2930654
51
67.3475532
0
ARC
8
DEFAULT_255_2_778
10
-189.0871724
20
-468.3933835
40
513.4046806
50
67.3481002
51
67.4025032
0
ARC
8
DEFAULT_255_2_778
10
-286.2404379
20
-701.8177888
40
766.2400222
50
67.4025012
51
67.4436214
0
ARC
8
DEFAULT_255_2_778
10
-541.7790573
20
-1317.0934762
40
1432.4713314
50
67.4446005
51
67.4766385
0
ARC
8
DEFAULT_255_2_778
10
-4045.7491315
20
-9766.8559582
40
10579.945971
50
67.4770047
51
67.4820342
0
LINE
8
DEFAULT_255_2_778
10
6.0856489
20
6.4695589
11
6.0660801
21
6.4776728
0
ARC
8
DEFAULT_255_2_778
10
779.6413414
20
1872.3451219
40
2019.8712885
50
247.4570057
51
247.4814545
0
ARC
8
DEFAULT_255_2_778
10
359.8317638
20
860.970149
40
924.8281766
50
247.4109099
51
247.4567157
0
ARC
8
DEFAULT_255_2_778
10
225.3912842
20
537.8202872
40
574.8280683
50
247.3484199
51
247.4107593
0
ARC
8
DEFAULT_255_2_778
10
156.5351261
20
372.8211731
40
396.0380289
50
247.2725262
51
247.3483283
0
ARC
8
DEFAULT_255_2_778
10
114.2513062
20
271.8728964
40
286.5918046
50
247.1852299
51
247.2724071
0
ARC
8
DEFAULT_255_2_778
10
85.8805681
20
204.4289895
40
213.4236464
50
247.088094
51
247.1850986
0
ARC
8
DEFAULT_255_2_778
10
65.9679657
20
157.3158218
40
162.2752124
50
246.9825467
51
247.087991
0
ARC
8
DEFAULT_255_2_778
10
51.6403778
20
123.5901534
40
125.6323349
50
246.8700196
51
246.982448
0
ARC
8
DEFAULT_255_2_778
10
41.0336696
20
98.7580697
40
98.6298418
50
246.7515934
51
246.8697878
0
ARC
8
DEFAULT_255_2_778
10
31.3593697
20
76.2479966
40
74.1289143
50
246.5624085
51
246.7543991
0
ARC
8
DEFAULT_255_2_778
10
22.2536246
20
55.2499398
40
51.2415165
50
246.3010589
51
246.565192
0
ARC
8
DEFAULT_255_2_778
10
15.7116585
20
40.3435448
40
34.9627593
50
246.0271511
51
246.2993253
0
ARC
8
DEFAULT_255_2_778
10
10.9134443
20
29.5591544
40
23.159119
50
245.6229329
51
246.0335179
0
ARC
8
DEFAULT_255_2_778
10
7.3568764
20
21.7104303
40
14.5421796
50
245.1482589
51
245.6229903
0
ARC
8
DEFAULT_255_2_778
10
4.9465156
20
16.509677
40
8.8100184
50
244.4845021
51
245.157546
0
ARC
8
DEFAULT_255_2_778
10
4.1921302
20
14.9463815
40
7.0742414
50
241.918277
51
244.5445297
0
ARC
8
DEFAULT_255_2_778
10
2.8034631
20
12.3561449
40
4.1352514
50
237.7820479
51
241.9998289
0
ARC
8
DEFAULT_255_2_778
10
1.7841349
20
10.7458429
40
2.2294512
50
231.5132142
51
237.8812409
0
ARC
8
DEFAULT_255_2_778
10
1.0749212
20
9.8629802
40
1.0970359
50
220.6123511
51
231.8110504
0
ARC
8
DEFAULT_255_2_778
10
0.5997078
20
9.4646452
40
0.4770459
50
197.7113398
51
221.4466245
0
ARC
8
DEFAULT_255_2_778
10
0.4272179
20
9.4020124
40
0.2937656
50
180.1954738
51
196.3090827
0
ARC
8
DEFAULT_255_2_778
10
-22.2748433
20
114.7424462
40
105.2085948
50
282.2975864
51
282.3021993
0
ARC
8
DEFAULT_255_2_778
10
-28.7119933
20
144.2430979
40
135.4033848
50
282.3037627
51
282.3139295
0
ARC
8
DEFAULT_255_2_778
10
-42.3789798
20
206.8540721
40
199.4886454
50
282.3138285
51
282.3246451
0
ARC
8
DEFAULT_255_2_778
10
-59.0499152
20
283.1586933
40
277.5931605
50
282.3245347
51
282.3408495
0
ARC
8
DEFAULT_255_2_778
10
-76.9595606
20
365.0202868
40
361.3909879
50
282.340816
51
282.3568361
0
ARC
8
DEFAULT_255_2_778
10
-91.887252
20
433.1594908
40
431.146182
50
282.3568518
51
282.3755063
0
ARC
8
DEFAULT_255_2_778
10
-104.3039103
20
489.7489155
40
489.0818049
50
282.3755092
51
282.3955007
0
ARC
8
DEFAULT_255_2_778
10
-114.7693997
20
537.3713021
40
537.8405804
50
282.3953913
51
282.416539
0
ARC
8
DEFAULT_255_2_778
10
-122.0971848
20
570.6579885
40
571.9242996
50
282.4164567
51
282.4374262
0
ARC
8
DEFAULT_255_2_778
10
-126.6029869
20
591.0946768
40
592.8518049
50
282.4372854
51
282.4580989
0
ARC
8
DEFAULT_255_2_778
10
-130.980014
20
610.9152457
40
613.149916
50
282.4579272
51
282.4782672
0
ARC
8
DEFAULT_255_2_778
10
-133.6596476
20
623.0249664
40
625.5525678
50
282.4782485
51
282.5084787
0
ARC
8
DEFAULT_255_2_778
10
-134.5410458
20
626.9986158
40
629.6227954
50
282.5084648
51
282.5427507
0
ARC
8
DEFAULT_255_2_778
10
-132.7791188
20
619.081352
40
621.511849
50
282.5427045
51
282.5804724
0
ARC
8
DEFAULT_255_2_778
10
-129.4640298
20
604.2271563
40
606.2922251
50
282.5804633
51
282.6161454
0
ARC
8
DEFAULT_255_2_778
10
-124.1738534
20
580.5977464
40
582.0778701
50
282.6160122
51
282.6670782
0
ARC
8
DEFAULT_255_2_778
10
-116.3315004
20
545.7124899
40
546.3219809
50
282.6669062
51
282.7284084
0
ARC
8
DEFAULT_255_2_778
10
-104.9034324
20
495.1404119
40
494.4747458
50
282.7278651
51
282.8203147
0
ARC
8
DEFAULT_255_2_778
10
-88.005412
20
420.9300577
40
418.3648276
50
282.8189568
51
282.9629548
0
ARC
8
DEFAULT_255_2_778
10
-73.1540183
20
356.3624131
40
352.11119
50
282.9647398
51
283.0505276
0
ARC
8
DEFAULT_255_2_778
10
-60.0822911
20
300.0192702
40
294.2715872
50
283.0483385
51
283.2128423
0
ARC
8
DEFAULT_255_2_778
10
-46.0117763
20
240.0835365
40
232.706406
50
283.2131919
51
283.3793116
0
ARC
8
DEFAULT_255_2_778
10
-35.2284535
20
194.7408725
40
186.0991401
50
283.3797679
51
283.5450056
0
ARC
8
DEFAULT_255_2_778
10
-26.7254154
20
159.4447602
40
149.7932564
50
283.5450566
51
283.7206426
0
ARC
8
DEFAULT_255_2_778
10
-19.572909
20
130.1539852
40
119.6418411
50
283.7201755
51
283.9203742
0
ARC
8
DEFAULT_255_2_778
10
-13.4763872
20
105.5596955
40
94.3032013
50
283.9199211
51
284.1465608
0
ARC
8
DEFAULT_255_2_778
10
-8.5222665
20
85.9031445
40
74.0319579
50
284.1467473
51
284.3850733
0
ARC
8
DEFAULT_255_2_778
10
-4.668071
20
70.8748244
40
58.5172801
50
284.3853088
51
284.6339225
0
ARC
8
DEFAULT_255_2_778
10
-1.6729264
20
59.4028311
40
46.6607408
50
284.6343263
51
284.8913818
0
ARC
8
DEFAULT_255_2_778
10
0.6757026
20
50.5695129
40
37.5205238
50
284.8918432
51
285.1555964
0
ARC
8
DEFAULT_255_2_778
10
2.9202783
20
42.2931156
40
28.94516
50
285.1502191
51
285.567885
0
ARC
8
DEFAULT_255_2_778
10
5.1811613
20
34.185958
40
20.528653
50
285.561912
51
286.1360804
0
ARC
8
DEFAULT_255_2_778
10
6.8919762
20
28.2686074
40
14.3689513
50
286.1405928
51
286.700902
0
ARC
8
DEFAULT_255_2_778
10
8.1869467
20
23.9594002
40
9.8693726
50
286.6893779
51
287.5101327
0
ARC
8
DEFAULT_255_2_778
10
9.3099742
20
20.4061921
40
6.1429166
50
287.4922154
51
288.6820576
0
ARC
8
DEFAULT_255_2_778
10
10.0274197
20
18.2785703
40
3.8975888
50
288.7095216
51
289.6871304
0
ARC
8
DEFAULT_255_2_778
10
17.9814928
20
-3.8803669
40
19.6456882
50
108.8471246
51
109.7575369
0
ARC
8
DEFAULT_255_2_778
10
15.8572185
20
2.3399968
40
13.0726018
50
107.7395091
51
108.8430632
0
ARC
8
DEFAULT_255_2_778
10
14.5939531
20
6.3039546
40
8.9122209
50
105.8600044
51
107.7689455
0
ARC
8
DEFAULT_255_2_778
10
13.8097298
20
9.0723352
40
6.0349079
50
103.0741633
51
105.8808439
0
ARC
8
DEFAULT_255_2_778
10
13.4033572
20
10.8315135
40
4.2294052
50
98.9057131
51
103.1027303
0
ARC
8
DEFAULT_255_2_778
10
13.2357544
20
11.9166107
40
3.131444
50
91.8779192
51
98.9496344
0
ARC
8
DEFAULT_255_2_778
10
13.2195627
20
12.2258375
40
2.8218592
50
90.0021814
51
91.7550857
0
ARC
8
DEFAULT_255_2_778
10
13.219485
20
12.25314
40
2.7945567
50
87.7310178
51
90.0006084
0
ARC
8
DEFAULT_255_2_778
10
13.2037624
20
12.0240966
40
3.0240502
50
79.4580385
51
87.60517
0
ARC
8
DEFAULT_255_2_778
10
13.0182317
20
10.9995379
40
4.0652626
50
75.3734536
51
79.5292062
0
ARC
8
DEFAULT_255_2_778
10
12.6072473
20
9.4112465
40
5.7058629
50
72.7656648
51
75.4076587
0
ARC
8
DEFAULT_255_2_778
10
11.8944805
20
7.1005869
40
8.1239558
50
71.1221669
51
72.7927399
0
ARC
8
DEFAULT_255_2_778
10
10.6815996
20
3.5503131
40
11.875692
50
69.8930237
51
71.1272578
0
ARC
8
DEFAULT_255_2_778
10
15.7905973
20
17.5307446
40
3.0090185
50
250.0547376
51
252.1411947
0
ARC
8
DEFAULT_255_2_778
10
16.5404106
20
19.851086
40
5.4475019
50
252.1191172
51
253.6540412
0
ARC
8
DEFAULT_255_2_778
10
17.6201263
20
23.5224511
40
9.2743417
50
253.6366365
51
254.7588012
0
ARC
8
DEFAULT_255_2_778
10
19.020813
20
28.6475908
40
14.5874359
50
254.7426614
51
255.5168578
0
ARC
8
DEFAULT_255_2_778
10
20.6679328
20
35.0115268
40
21.1610709
50
255.5082289
51
256.0625455
0
ARC
8
DEFAULT_255_2_778
10
22.530102
20
42.5053214
40
28.8827692
50
256.057842
51
256.4712049
0
ARC
8
DEFAULT_255_2_778
10
24.591463
20
51.0649972
40
37.6871577
50
256.468523
51
256.7861351
0
ARC
8
DEFAULT_255_2_778
10
27.4137779
20
63.099135
40
50.0478182
50
256.7898566
51
257.1497881
0
ARC
8
DEFAULT_255_2_778
10
31.5363713
20
81.1655725
40
68.5786557
50
257.1486915
51
257.4464088
0
ARC
8
DEFAULT_255_2_778
10
36.837429
20
104.9623165
40
92.9586933
50
257.4451517
51
257.6826024
0
ARC
8
DEFAULT_255_2_778
10
43.1549392
20
133.8745602
40
122.5530974
50
257.6805814
51
257.8458644
0
ARC
8
DEFAULT_255_2_778
10
51.8832071
20
174.4219917
40
164.0293177
50
257.8473765
51
258.0164306
0
ARC
8
DEFAULT_255_2_778
10
66.5777651
20
243.6495556
40
234.7992663
50
258.0163034
51
258.1493632
0
ARC
8
DEFAULT_255_2_778
10
100.1785352
20
403.888422
40
398.5231367
50
258.1525568
51
258.270487
0
ARC
8
DEFAULT_255_2_778
10
265.4204192
20
1199.7452656
40
1211.3533746
50
258.2704739
51
258.3126924
0
LINE
8
DEFAULT_255_2_778
10
20.0361196
20
13.5060216
11
20.0430655
21
13.504584
0
ARC
8
DEFAULT_255_2_778
10
-250.7973461
20
-1295.7785999
40
1337.0029858
50
78.2747197
51
78.3125513
0
ARC
8
DEFAULT_255_2_778
10
-65.9646463
20
-405.2002092
40
427.4465023
50
78.1723176
51
78.2737941
0
ARC
8
DEFAULT_255_2_778
10
-28.3983584
20
-225.8029772
40
244.1582242
50
78.0216702
51
78.1718091
0
ARC
8
DEFAULT_255_2_778
10
-11.2575913
20
-145.0077366
40
161.5647814
50
77.8315568
51
78.0213735
0
ARC
8
DEFAULT_255_2_778
10
-1.2582486
20
-98.6328967
40
114.1241593
50
77.6080509
51
77.8313017
0
ARC
8
DEFAULT_255_2_778
10
5.2995088
20
-68.7841059
40
83.5634903
50
77.3555623
51
77.6076972
0
ARC
8
DEFAULT_255_2_778
10
9.8818043
20
-48.3567325
40
62.6284714
50
77.0777943
51
77.3552042
0
ARC
8
DEFAULT_255_2_778
10
13.1888918
20
-33.9415639
40
47.8388156
50
76.7783945
51
77.0774357
0
ARC
8
DEFAULT_255_2_778
10
15.6415554
20
-23.5008551
40
37.1138932
50
76.460604
51
76.7778888
0
ARC
8
DEFAULT_255_2_778
10
17.8887135
20
-14.1854661
40
27.531296
50
75.948254
51
76.4686072
0
ARC
8
DEFAULT_255_2_778
10
20.0086393
20
-5.7240884
40
18.8083955
50
75.2559096
51
75.9546038
0
ARC
8
DEFAULT_255_2_778
10
21.5765209
20
0.2356066
40
12.6459107
50
74.4940218
51
75.2536407
0
ARC
8
DEFAULT_255_2_778
10
22.7793302
20
4.5602167
40
8.1571483
50
73.3471402
51
74.5143456
0
ARC
8
DEFAULT_255_2_778
10
23.6970637
20
7.6279361
40
4.9550961
50
71.9682087
51
73.3485153
0
ARC
8
DEFAULT_255_2_778
10
24.3406303
20
9.5997231
40
2.8809416
50
69.9876454
51
72.000062
0
LINE
8
DEFAULT_255_2_778
10
25.3260541
20
9.7961102
11
25.3260542
21
9.7958604
0
ARC
8
DEFAULT_255_2_778
10
24.9348869
20
9.8059375
40
0.3912971
50
326.3339755
51
358.5242958
0
ARC
8
DEFAULT_255_2_778
10
24.5444773
20
10.0480509
40
0.8505749
50
313.5776764
51
327.3388605
0
ARC
8
DEFAULT_255_2_778
10
23.9266285
20
10.6814741
40
1.7353931
50
306.2173433
51
313.9392863
0
ARC
8
DEFAULT_255_2_778
10
23.0354149
20
11.8843081
40
3.2324015
50
301.4762683
51
306.3648247
0
ARC
8
DEFAULT_255_2_778
10
21.8010761
20
13.8861015
40
5.5841534
50
298.2964726
51
301.5530848
0
ARC
8
DEFAULT_255_2_778
10
20.72633
20
15.8480796
40
7.8211712
50
297.5157693
51
298.4157116
0
LINE
8
DEFAULT_255_2_778
10
0.1334541
20
9.4010102
11
0.1334541
21
11.9479102
0
LINE
8
DEFAULT_255_2_778
10
25.3265541
20
12.3067102
11
25.3260541
21
9.7961102
0
LINE
8
DEFAULT_255_2_778
10
24.3396541
20
8.9116102
11
24.3393541
21
8.9116102
0
ARC
8
DEFAULT_255_2_778
10
21.0850666
20
17.717639
40
7.0543313
50
296.3393088
51
297.4717867
0
ARC
8
DEFAULT_255_2_778
10
18.6347288
20
22.6574172
40
12.5684544
50
295.5937521
51
296.3586286
0
ARC
8
DEFAULT_255_2_778
10
15.2448802
20
29.7265366
40
20.4083213
50
295.0592744
51
295.6034797
0
ARC
8
DEFAULT_255_2_778
10
10.9252953
20
38.9563006
40
30.5988731
50
294.6852511
51
295.0661355
0
ARC
8
DEFAULT_255_2_778
10
5.8267431
20
50.0424939
40
42.8012873
50
294.409606
51
294.688815
0
ARC
8
DEFAULT_255_2_778
10
-0.0239351
20
62.9298307
40
56.954516
50
294.2000104
51
294.4115458
0
ARC
8
DEFAULT_255_2_778
10
-8.2555957
20
81.2546725
40
77.0433201
50
293.9608377
51
294.1973962
0
ARC
8
DEFAULT_255_2_778
10
-20.7438737
20
109.3514818
40
107.7904789
50
293.7691207
51
293.9617008
0
ARC
8
DEFAULT_255_2_778
10
-37.4107398
20
147.1899384
40
149.1369807
50
293.6189151
51
293.7699899
0
ARC
8
DEFAULT_255_2_778
10
-57.998657
20
194.2594701
40
200.5121025
50
293.5168675
51
293.6202861
0
ARC
8
DEFAULT_255_2_778
10
-87.6747573
20
262.4672253
40
274.8960307
50
293.4123215
51
293.515844
0
ARC
8
DEFAULT_255_2_778
10
-140.9086729
20
385.4090901
40
408.8682366
50
293.3338384
51
293.4124279
0
ARC
8
DEFAULT_255_2_778
10
-268.2605454
20
680.6776085
40
730.430046
50
293.2727767
51
293.3325692
0
ARC
8
DEFAULT_255_2_778
10
-1485.2949168
20
3510.5984733
40
3810.9535015
50
293.2559132
51
293.2710028
0
LINE
8
DEFAULT_255_2_778
10
19.4169272
20
9.2831696
11
19.3861788
21
9.2699516
0
ARC
8
DEFAULT_255_2_778
10
498.0333221
20
-1104.3760746
40
1212.1512115
50
113.2581235
51
113.297695
0
ARC
8
DEFAULT_255_2_778
10
235.5347957
20
-494.7809725
40
548.4406834
50
113.2982255
51
113.3733487
0
ARC
8
DEFAULT_255_2_778
10
153.7430835
20
-305.5257281
40
342.2673785
50
113.3736328
51
113.4757108
0
ARC
8
DEFAULT_255_2_778
10
112.0678685
20
-209.5658791
40
237.6484692
50
113.4759215
51
113.599502
0
ARC
8
DEFAULT_255_2_778
10
86.5531321
20
-151.1620694
40
173.9145947
50
113.5997
51
113.7408198
0
ARC
8
DEFAULT_255_2_778
10
69.4501485
20
-112.2743889
40
131.4320838
50
113.7410468
51
113.8965164
0
ARC
8
DEFAULT_255_2_778
10
57.3510684
20
-84.9654898
40
101.5629743
50
113.8968114
51
114.06397
0
ARC
8
DEFAULT_255_2_778
10
48.4994148
20
-65.14286
40
79.853796
50
114.0642857
51
114.2407796
0
ARC
8
DEFAULT_255_2_778
10
40.507957
20
-47.405103
40
60.3989405
50
114.2367883
51
114.5235466
0
ARC
8
DEFAULT_255_2_778
10
33.2842677
20
-31.5740519
40
42.9976801
50
114.5220857
51
114.8727012
0
ARC
8
DEFAULT_255_2_778
10
27.9380981
20
-20.0429902
40
30.2875694
50
114.8721773
51
115.2771472
0
ARC
8
DEFAULT_255_2_778
10
24.3570357
20
-12.4562973
40
21.8981764
50
115.2805764
51
115.6646536
0
ARC
8
DEFAULT_255_2_778
10
21.3587511
20
-6.2263891
40
14.9843179
50
115.6482335
51
116.3566361
0
ARC
8
DEFAULT_255_2_778
10
18.8453196
20
-1.1540063
40
9.3233636
50
116.3551932
51
117.1969439
0
ARC
8
DEFAULT_255_2_778
10
17.6458048
20
1.1880837
40
6.6919755
50
117.2273904
51
117.5809347
0
ARC
8
DEFAULT_255_2_778
10
10.1803264
20
15.4630387
40
9.4172689
50
295.6543413
51
297.6281717
0
ARC
8
DEFAULT_255_2_778
10
11.14579
20
13.4487037
40
7.1835139
50
293.0513886
51
295.6686788
0
ARC
8
DEFAULT_255_2_778
10
11.8213407
20
11.8567528
40
5.4541577
50
289.5876912
51
293.0695428
0
ARC
8
DEFAULT_255_2_778
10
12.2518004
20
10.6426949
40
4.1660471
50
284.9824308
51
289.6078138
0
ARC
8
DEFAULT_255_2_778
10
12.4835007
20
9.7736937
40
3.2666878
50
278.9048982
51
284.9970397
0
ARC
8
DEFAULT_255_2_778
10
12.5692218
20
9.2244508
40
2.710796
50
270.0828914
51
278.9119171
0
ARC
8
DEFAULT_255_2_778
10
12.573961
20
9.1127496
40
2.599092
50
261.7319636
51
269.9819802
0
ARC
8
DEFAULT_255_2_778
10
12.6326118
20
9.4847093
40
2.9756232
50
253.8895676
51
261.6443174
0
ARC
8
DEFAULT_255_2_778
10
12.8712159
20
10.3225221
40
3.8467455
50
249.1832391
51
253.9379838
0
ARC
8
DEFAULT_255_2_778
10
13.319274
20
11.5081719
40
5.1142298
50
245.9609995
51
249.2117742
0
ARC
8
DEFAULT_255_2_778
10
13.9086375
20
12.8440607
40
6.5743397
50
244.4169455
51
246.0127537
0
ARC
8
DEFAULT_255_2_778
10
7.9221126
20
0.3167157
40
7.30993
50
64.4948404
51
65.3071225
0
ARC
8
DEFAULT_255_2_778
10
5.1315269
20
-5.7461033
40
13.9841445
50
65.2962767
51
65.8719943
0
ARC
8
DEFAULT_255_2_778
10
0.7684063
20
-15.4787869
40
24.6500691
50
65.8639961
51
66.2685556
0
ARC
8
DEFAULT_255_2_778
10
-5.3057533
20
-29.2855347
40
39.7338913
50
66.2627717
51
66.5419448
0
ARC
8
DEFAULT_255_2_778
10
-12.9110931
20
-46.8030859
40
58.8311629
50
66.5386074
51
66.7356543
0
ARC
8
DEFAULT_255_2_778
10
-21.8748691
20
-67.6458615
40
81.5197188
50
66.7338267
51
66.8792056
0
ARC
8
DEFAULT_255_2_778
10
-32.17527
20
-91.7650554
40
107.7463039
50
66.8780587
51
66.9886969
0
ARC
8
DEFAULT_255_2_778
10
-46.8313334
20
-126.2821594
40
145.2460459
50
66.9900095
51
67.1139006
0
ARC
8
DEFAULT_255_2_778
10
-68.9434946
20
-178.6610626
40
202.1010999
50
67.1135297
51
67.2147368
0
ARC
8
DEFAULT_255_2_778
10
-98.6076783
20
-249.274466
40
278.69233
50
67.2142797
51
67.2938083
0
ARC
8
DEFAULT_255_2_778
10
-135.3691759
20
-337.1164273
40
373.9163703
50
67.2930654
51
67.3475532
0
ARC
8
DEFAULT_255_2_778
10
-189.0872139
20
-465.8462262
40
513.4046806
50
67.3481002
51
67.4025032
0
ARC
8
DEFAULT_255_2_778
10
-286.2404793
20
-699.2706315
40
766.2400222
50
67.4025012
51
67.4436214
0
ARC
8
DEFAULT_255_2_778
10
-541.7790988
20
-1314.5463189
40
1432.4713314
50
67.4446005
51
67.4766385
0
ARC
8
DEFAULT_255_2_778
10
-4045.749173
20
-9764.3088009
40
10579.945971
50
67.4770047
51
67.4820342
0
LINE
8
DEFAULT_255_2_778
10
6.0856075
20
9.0167162
11
6.0660386
21
9.0248301
0
ARC
8
DEFAULT_255_2_778
10
779.6412999
20
1874.8922792
40
2019.8712885
50
247.4570057
51
247.4814545
0
ARC
8
DEFAULT_255_2_778
10
359.8317224
20
863.5173063
40
924.8281766
50
247.4109099
51
247.4567157
0
ARC
8
DEFAULT_255_2_778
10
225.3912427
20
540.3674445
40
574.8280683
50
247.3484199
51
247.4107593
0
ARC
8
DEFAULT_255_2_778
10
156.5350846
20
375.3683304
40
396.0380289
50
247.2725262
51
247.3483283
0
ARC
8
DEFAULT_255_2_778
10
114.2512647
20
274.4200537
40
286.5918046
50
247.1852299
51
247.2724071
0
ARC
8
DEFAULT_255_2_778
10
85.8805266
20
206.9761468
40
213.4236464
50
247.088094
51
247.1850986
0
ARC
8
DEFAULT_255_2_778
10
65.9679242
20
159.8629791
40
162.2752124
50
246.9825467
51
247.087991
0
ARC
8
DEFAULT_255_2_778
10
51.6403363
20
126.1373107
40
125.6323349
50
246.8700196
51
246.982448
0
ARC
8
DEFAULT_255_2_778
10
41.0336281
20
101.305227
40
98.6298418
50
246.7515934
51
246.8697878
0
ARC
8
DEFAULT_255_2_778
10
31.3593282
20
78.7951539
40
74.1289143
50
246.5624085
51
246.7543991
0
ARC
8
DEFAULT_255_2_778
10
22.2535831
20
57.7970971
40
51.2415165
50
246.3010589
51
246.565192
0
ARC
8
DEFAULT_255_2_778
10
15.711617
20
42.8907021
40
34.9627593
50
246.0271511
51
246.2993253
0
ARC
8
DEFAULT_255_2_778
10
10.9134028
20
32.1063117
40
23.159119
50
245.6229329
51
246.0335179
0
ARC
8
DEFAULT_255_2_778
10
7.3568349
20
24.2575876
40
14.5421796
50
245.1482589
51
245.6229903
0
ARC
8
DEFAULT_255_2_778
10
4.9464741
20
19.0568343
40
8.8100184
50
244.4845021
51
245.157546
0
ARC
8
DEFAULT_255_2_778
10
4.2352602
20
17.5748447
40
7.1662108
50
242.5081421
51
244.5122745
0
ARC
8
DEFAULT_255_2_778
10
3.2407435
20
15.66519
40
5.0131098
50
240.0941072
51
242.51583
0
ARC
8
DEFAULT_255_2_778
10
2.4319511
20
14.263893
40
3.3951576
50
236.6669275
51
240.1353466
0
ARC
8
DEFAULT_255_2_778
10
1.7635075
20
13.2507977
40
2.1814137
50
231.956543
51
236.7136031
0
ARC
8
DEFAULT_255_2_778
10
1.2465762
20
12.5930569
40
1.3448517
50
225.3142362
51
232.031832
0
ARC
8
DEFAULT_255_2_778
10
0.8515276
20
12.1971902
40
0.7855993
50
214.8810924
51
225.4957494
0
ARC
8
DEFAULT_255_2_778
10
0.5642304
20
12.0003995
40
0.4373874
50
196.265209
51
215.2561043
0
ARC
8
DEFAULT_255_2_778
10
0.4401534
20
11.9605731
40
0.3071415
50
180.1666202
51
195.6159481
0
ARC
8
DEFAULT_255_2_778
10
0.4427281
20
11.9576112
40
0.3097217
50
154.2616773
51
179.6172931
0
ARC
8
DEFAULT_255_2_778
10
0.5652741
20
11.9010467
40
0.4446791
50
142.3884323
51
154.5534502
0
ARC
8
DEFAULT_255_2_778
10
0.7303821
20
11.7755402
40
0.6520706
50
134.3495824
51
142.5065449
0
ARC
8
DEFAULT_255_2_778
10
0.9051657
20
11.6000921
40
0.8997142
50
130.0082263
51
134.4986926
0
ARC
8
DEFAULT_255_2_778
10
1.1231369
20
11.3378598
40
1.2407059
50
124.6596587
51
129.9328142
0
ARC
8
DEFAULT_255_2_778
10
1.4352926
20
10.888405
40
1.7879259
50
120.6691667
51
124.6967294
0
ARC
8
DEFAULT_255_2_778
10
1.805468
20
10.2664124
40
2.5117378
50
117.5616343
51
120.6949833
0
ARC
8
DEFAULT_255_2_778
10
2.2266809
20
9.4623858
40
3.4194149
50
115.2070585
51
117.5848562
0
ARC
8
DEFAULT_255_2_778
10
2.7102872
20
8.4362328
40
4.5538156
50
113.2006479
51
115.2136717
0
ARC
8
DEFAULT_255_2_778
10
3.2782789
20
7.1132397
40
5.993581
50
111.5588159
51
113.2088927
0
ARC
8
DEFAULT_255_2_778
10
3.6439675
20
6.1992529
40
6.978002
50
111.3818692
51
111.5937562
0
ARC
8
DEFAULT_255_2_778
10
17.9617394
20
-1.759631
40
19.5763733
50
108.8567736
51
109.7700369
0
ARC
8
DEFAULT_255_2_778
10
15.8483346
20
4.4256146
40
13.0400332
50
107.7469718
51
108.85289
0
ARC
8
DEFAULT_255_2_778
10
14.5897986
20
8.3729411
40
8.896934
50
105.8646531
51
107.7763091
0
ARC
8
DEFAULT_255_2_778
10
13.807546
20
11.1335127
40
6.0276714
50
103.0760438
51
105.8854632
0
ARC
8
DEFAULT_255_2_778
10
13.4021483
20
12.8882208
40
4.2267434
50
98.9055567
51
103.1045963
0
ARC
8
DEFAULT_255_2_778
10
13.2349048
20
13.9709968
40
3.1311311
50
91.877432
51
98.9493466
0
ARC
8
DEFAULT_255_2_778
10
13.218753
20
14.2792891
40
2.8224817
50
90.0023133
51
91.7547605
0
ARC
8
DEFAULT_255_2_778
10
13.2186637
20
14.3065746
40
2.7951962
50
87.7301403
51
90.0005048
0
ARC
8
DEFAULT_255_2_778
10
13.202918
20
14.0772694
40
3.0249523
50
79.4566508
51
87.6041548
0
ARC
8
DEFAULT_255_2_778
10
13.0172424
20
13.0520262
40
4.0668641
50
75.3724749
51
79.5279049
0
ARC
8
DEFAULT_255_2_778
10
12.6059331
20
11.4626455
40
5.7086002
50
72.7650795
51
75.40655
0
ARC
8
DEFAULT_255_2_778
10
11.8925957
20
9.150296
40
8.1284763
50
71.1219458
51
72.7920019
0
ARC
8
DEFAULT_255_2_778
10
10.6795461
20
5.5996039
40
11.8806627
50
69.8930072
51
71.1269873
0
ARC
8
DEFAULT_255_2_778
10
7.9837758
20
-1.7866221
40
19.7434533
50
69.5414613
51
69.9154264
0
ARC
8
DEFAULT_255_2_778
10
2.2555082
20
-17.1540728
40
36.1438063
50
69.3003086
51
69.5484646
0
ARC
8
DEFAULT_255_2_778
10
-6.0922986
20
-39.2562825
40
59.7699263
50
69.1292234
51
69.3037037
0
ARC
8
DEFAULT_255_2_778
10
-16.9892375
20
-67.8467743
40
90.3666496
50
69.0099565
51
69.1315948
0
ARC
8
DEFAULT_255_2_778
10
-30.2209739
20
-102.3428682
40
127.3133591
50
68.9224922
51
69.0112994
0
ARC
8
DEFAULT_255_2_778
10
-45.6164156
20
-142.2942359
40
170.1284428
50
68.8561216
51
68.9232754
0
ARC
8
DEFAULT_255_2_778
10
-67.4995487
20
-198.8671502
40
230.7862215
50
68.780226
51
68.8552714
0
ARC
8
DEFAULT_255_2_778
10
-100.5913906
20
-284.1004913
40
322.2181219
50
68.7191875
51
68.7805307
0
ARC
8
DEFAULT_255_2_778
10
-144.590172
20
-397.0693658
40
443.4528503
50
68.6710169
51
68.7194723
0
ARC
8
DEFAULT_255_2_778
10
-197.4906979
20
-532.5630279
40
588.9073038
50
68.637869
51
68.6714899
0
ARC
8
DEFAULT_255_2_778
10
-272.3317726
20
-723.8979513
40
794.3586104
50
68.6033893
51
68.6376283
0
ARC
8
DEFAULT_255_2_778
10
-398.065837
20
-1044.7929834
40
1139.0072381
50
68.5764712
51
68.6034561
0
ARC
8
DEFAULT_255_2_778
10
-673.3432801
20
-1746.32072
40
1892.6111365
50
68.5522365
51
68.575926
0
ARC
8
DEFAULT_255_2_778
10
-1873.7898645
20
-4801.9599736
40
5175.598077
50
68.5420266
51
68.5520798
0
LINE
8
DEFAULT_255_2_778
10
19.5405127
20
14.8974601
11
19.5435425
21
14.8962693
0
ARC
8
DEFAULT_255_2_778
10
3362.501602
20
8519.8723939
40
9138.3799148
50
248.5422413
51
248.5474321
0
ARC
8
DEFAULT_255_2_778
10
933.3961856
20
2338.2450193
40
2496.6128215
50
248.5475857
51
248.5638887
0
ARC
8
DEFAULT_255_2_778
10
529.4992401
20
1309.5371725
40
1391.455558
50
248.5639897
51
248.5887383
0
ARC
8
DEFAULT_255_2_778
10
355.6172946
20
866.1006608
40
915.1459204
50
248.5887688
51
248.6202974
0
ARC
8
DEFAULT_255_2_778
10
257.6160656
20
615.7711184
40
646.316754
50
248.6203337
51
248.6574902
0
ARC
8
DEFAULT_255_2_778
10
195.3410862
20
456.394804
40
475.2057295
50
248.6575452
51
248.6994234
0
ARC
8
DEFAULT_255_2_778
10
152.8137423
20
347.3229199
40
358.1363019
50
248.699532
51
248.7454594
0
ARC
8
DEFAULT_255_2_778
10
122.9879336
20
270.646592
40
275.863353
50
248.7456569
51
248.7948752
0
ARC
8
DEFAULT_255_2_778
10
96.4194019
20
202.155819
40
202.3999415
50
248.7937308
51
248.8755432
0
ARC
8
DEFAULT_255_2_778
10
73.4765708
20
142.7707028
40
138.737036
50
248.8751172
51
248.9778866
0
ARC
8
DEFAULT_255_2_778
10
57.2561053
20
100.5622145
40
93.5191195
50
248.9775729
51
249.0999941
0
ARC
8
DEFAULT_255_2_778
10
46.9703661
20
73.6302474
40
64.6898411
50
249.1011672
51
249.2208165
0
ARC
8
DEFAULT_255_2_778
10
39.0932997
20
52.86081
40
42.4768342
50
249.2159369
51
249.4276322
0
ARC
8
DEFAULT_255_2_778
10
32.7331772
20
35.9101214
40
24.3722216
50
249.4234626
51
249.7249314
0
ARC
8
DEFAULT_255_2_778
10
29.8061134
20
27.9978937
40
15.9359296
50
249.7389456
51
249.8737184
0
ARC
8
DEFAULT_255_2_778
10
21.7244291
20
5.9384114
40
7.5573544
50
69.0533253
51
69.8909139
0
ARC
8
DEFAULT_255_2_778
10
22.2246158
20
7.2414969
40
6.1615691
50
67.7913917
51
69.0652228
0
ARC
8
DEFAULT_255_2_778
10
22.7393447
20
8.5001347
40
4.8017478
50
66.1517656
51
67.8009775
0
ARC
8
DEFAULT_255_2_778
10
23.2054938
20
9.5530432
40
3.6502659
50
64.0967539
51
66.1618425
0
ARC
8
DEFAULT_255_2_778
10
23.6006368
20
10.3661611
40
2.7462202
50
61.6946472
51
64.1015819
0
ARC
8
DEFAULT_255_2_778
10
23.9297257
20
10.976296
40
2.052993
50
58.7592846
51
61.7067248
0
ARC
8
DEFAULT_255_2_778
10
24.2451748
20
11.4924336
40
1.4480961
50
54.0087915
51
58.8392416
0
ARC
8
DEFAULT_255_2_778
10
24.5372986
20
11.8927715
40
0.9525106
50
47.3437856
51
54.0747459
0
ARC
8
DEFAULT_255_2_778
10
24.7721244
20
12.1458538
40
0.6072694
50
37.5569784
51
47.4580016
0
ARC
8
DEFAULT_255_2_778
10
24.9509098
20
12.2815879
40
0.3828033
50
21.6008254
51
37.7628945
0
ARC
8
DEFAULT_255_2_778
10
25.0442291
20
12.3198312
40
0.2819614
50
0.1433643
51
21.3563483
0
ARC
8
DEFAULT_255_2_778
10
24.9978251
20
12.3259027
40
0.3284083
50
332.4457774
51
359.063779
0
ARC
8
DEFAULT_255_2_778
10
24.7670239
20
12.4397978
40
0.5857456
50
320.2512419
51
333.0120907
0
ARC
8
DEFAULT_255_2_778
10
24.4288906
20
12.7159577
40
1.0223116
50
312.5472521
51
320.4688612
0
ARC
8
DEFAULT_255_2_778
10
23.9714303
20
13.2095178
40
1.695264
50
307.3263057
51
312.6579627
0
ARC
8
DEFAULT_255_2_778
10
23.3641105
20
14.0021252
40
2.6937933
50
303.4699985
51
307.3760232
0
ARC
8
DEFAULT_255_2_778
10
22.5800572
20
15.1826001
40
4.1109224
50
300.7122152
51
303.5118833
0
ARC
8
DEFAULT_255_2_778
10
21.6821766
20
16.6860283
40
5.8620574
50
298.928341
51
300.752354
0
ARC
8
DEFAULT_255_2_778
10
20.6694158
20
18.5161036
40
7.9536737
50
297.4634518
51
298.9366856
0
LINE
8
DEFAULT_255_2_778
10
1.0999127
20
12.6969675
11
11.3401127
21
16.6628675
0
LINE
8
DEFAULT_255_2_778
10
24.3375127
20
11.4587675
11
24.3393127
21
11.4587675
0
ARC
8
DEFAULT_255_2_778
10
21.0835058
20
19.47959
40
7.0578361
50
296.3397359
51
297.4716531
0
ARC
8
DEFAULT_255_2_778
10
18.6350726
20
24.4154452
40
12.5675985
50
295.594093
51
296.3590243
0
ARC
8
DEFAULT_255_2_778
10
15.2424158
20
31.4901721
40
20.4137359
50
295.0599331
51
295.6039965
0
ARC
8
DEFAULT_255_2_778
10
10.9272609
20
40.7100715
40
30.5934753
50
294.685932
51
295.0668856
0
ARC
8
DEFAULT_255_2_778
10
5.829682
20
51.7937188
40
42.7931695
50
294.4102783
51
294.6895419
0
ARC
8
DEFAULT_255_2_778
10
-0.0191275
20
64.6761819
40
56.9411881
50
294.2007796
51
294.4123659
0
ARC
8
DEFAULT_255_2_778
10
-8.2658088
20
83.0337273
40
77.0659791
50
293.9616939
51
294.1981845
0
ARC
8
DEFAULT_255_2_778
10
-20.7321817
20
111.0799274
40
107.7579942
50
293.7699588
51
293.9625982
0
ARC
8
DEFAULT_255_2_778
10
-37.3935735
20
148.9041948
40
149.0893039
50
293.6197443
51
293.7708685
0
ARC
8
DEFAULT_255_2_778
10
-57.9735294
20
195.9531477
40
200.4423813
50
293.5177198
51
293.6211751
0
ARC
8
DEFAULT_255_2_778
10
-87.7277055
20
264.3376361
40
275.0195174
50
293.4132121
51
293.5166888
0
ARC
8
DEFAULT_255_2_778
10
-140.8527662
20
387.0237734
40
408.7137967
50
293.3346485
51
293.4132682
0
ARC
8
DEFAULT_255_2_778
10
-267.8903944
20
681.55267
40
729.4720075
50
293.2734967
51
293.333368
0
ARC
8
DEFAULT_255_2_778
10
-1471.9958087
20
3481.3160606
40
3777.1834258
50
293.2564856
51
293.2717101
0
ARC
8
DEFAULT_255_2_778
10
1391.3888587
20
-3180.446289
40
3473.8888732
50
113.2621283
51
113.2626747
0
ARC
8
DEFAULT_255_2_778
10
500.4933651
20
-1108.3095579
40
1218.3522648
50
113.2586893
51
113.2980617
0
ARC
8
DEFAULT_255_2_778
10
236.2748635
20
-494.7308252
40
550.3026574
50
113.2986012
51
113.3734749
0
ARC
8
DEFAULT_255_2_778
10
154.0755422
20
-304.5329955
40
343.1024092
50
113.3737982
51
113.4756344
0
ARC
8
DEFAULT_255_2_778
10
112.2746835
20
-208.283008
40
238.167325
50
113.4758917
51
113.5992111
0
ARC
8
DEFAULT_255_2_778
10
86.647726
20
-149.6219668
40
174.1528056
50
113.5993496
51
113.7402856
0
ARC
8
DEFAULT_255_2_778
10
69.5301604
20
-110.7002659
40
131.6332824
50
113.7404914
51
113.8957335
0
ARC
8
DEFAULT_255_2_778
10
57.386723
20
-83.290724
40
101.6541888
50
113.895918
51
114.0629372
0
ARC
8
DEFAULT_255_2_778
10
48.5311698
20
-63.4587132
40
79.9348546
50
114.0631615
51
114.2394873
0
ARC
8
DEFAULT_255_2_778
10
40.5400686
20
-45.720888
40
60.4800836
50
114.2354201
51
114.5218103
0
ARC
8
DEFAULT_255_2_778
10
33.3074488
20
-29.8691007
40
43.0562509
50
114.5202903
51
114.8704475
0
ARC
8
DEFAULT_255_2_778
10
27.9587473
20
-18.3314199
40
30.3390702
50
114.8698994
51
115.2742006
0
ARC
8
DEFAULT_255_2_778
10
24.3668619
20
-10.7208305
40
21.9234473
50
115.2775847
51
115.6612343
0
ARC
8
DEFAULT_255_2_778
10
21.3654172
20
-4.4834952
40
15.001526
50
115.6446622
51
116.3522726
0
ARC
8
DEFAULT_255_2_778
10
18.8490395
20
0.5957125
40
9.333148
50
116.3505756
51
117.1914545
0
ARC
8
DEFAULT_255_2_778
10
17.6434302
20
2.9501615
40
6.6879814
50
117.221701
51
117.5754562
0
ARC
8
DEFAULT_255_2_778
10
10.1786663
20
17.2283381
40
9.4237864
50
295.6465588
51
297.6191084
0
ARC
8
DEFAULT_255_2_778
10
11.1445394
20
15.2124469
40
7.1884511
50
293.045258
51
295.6608941
0
ARC
8
DEFAULT_255_2_778
10
11.8206601
20
13.6186914
40
5.4572111
50
289.5832309
51
293.0633687
0
ARC
8
DEFAULT_255_2_778
10
12.2514326
20
12.4034485
40
4.1678789
50
284.9796574
51
289.6033748
0
ARC
8
DEFAULT_255_2_778
10
12.4832616
20
11.5337926
40
3.2678538
50
278.9037688
51
284.9942859
0
ARC
8
DEFAULT_255_2_778
10
12.5690543
20
10.984018
40
2.7114256
50
270.0829407
51
278.9108003
0
ARC
8
DEFAULT_255_2_778
10
12.5737899
20
10.8719059
40
2.5993109
50
261.7374014
51
269.9821325
0
ARC
8
DEFAULT_255_2_778
10
12.6323143
20
11.2432496
40
2.9752141
50
253.8940885
51
261.6497591
0
ARC
8
DEFAULT_255_2_778
10
12.8705689
20
12.0800946
40
3.8453099
50
249.1860806
51
253.9425004
0
ARC
8
DEFAULT_255_2_778
10
13.3180576
20
13.2644331
40
5.1113662
50
245.9621202
51
249.2146701
0
ARC
8
DEFAULT_255_2_778
10
13.9066055
20
14.5985449
40
6.5695209
50
244.4168752
51
246.0138468
0
ARC
8
DEFAULT_255_2_778
10
7.922154
20
2.0755496
40
7.30993
50
64.4948404
51
65.3071225
0
ARC
8
DEFAULT_255_2_778
10
5.1315684
20
-3.9872694
40
13.9841445
50
65.2962767
51
65.8719943
0
ARC
8
DEFAULT_255_2_778
10
0.7684478
20
-13.7199531
40
24.6500691
50
65.8639961
51
66.2685556
0
ARC
8
DEFAULT_255_2_778
10
-5.3057119
20
-27.5267008
40
39.7338913
50
66.2627717
51
66.5419448
0
ARC
8
DEFAULT_255_2_778
10
-12.9110516
20
-45.044252
40
58.8311629
50
66.5386074
51
66.7356543
0
ARC
8
DEFAULT_255_2_778
10
-21.8748277
20
-65.8870277
40
81.5197188
50
66.7338267
51
66.8792056
0
ARC
8
DEFAULT_255_2_778
10
-32.1752285
20
-90.0062215
40
107.7463039
50
66.8780587
51
66.9886969
0
ARC
8
DEFAULT_255_2_778
10
-46.8312919
20
-124.5233256
40
145.2460459
50
66.9900095
51
67.1139006
0
ARC
8
DEFAULT_255_2_778
10
-68.9434532
20
-176.9022287
40
202.1010999
50
67.1135297
51
67.2147368
0
ARC
8
DEFAULT_255_2_778
10
-98.6076368
20
-247.5156321
40
278.69233
50
67.2142797
51
67.2938083
0
ARC
8
DEFAULT_255_2_778
10
-135.3691345
20
-335.3575934
40
373.9163703
50
67.2930654
51
67.3475532
0
ARC
8
DEFAULT_255_2_778
10
-189.0871724
20
-464.0873923
40
513.4046806
50
67.3481002
51
67.4025032
0
ARC
8
DEFAULT_255_2_778
10
-286.2404379
20
-697.5117977
40
766.2400222
50
67.4025012
51
67.4436214
0
ARC
8
DEFAULT_255_2_778
10
-541.7790573
20
-1312.787485
40
1432.4713314
50
67.4446005
51
67.4766385
0
ARC
8
DEFAULT_255_2_778
10
-4045.7491315
20
-9762.549967
40
10579.945971
50
67.4770047
51
67.4820342
0
LINE
8
DEFAULT_255_2_778
10
6.0856489
20
10.77555
11
6.0660801
21
10.783664
0
ARC
8
DEFAULT_255_2_778
10
779.6413414
20
1876.651113
40
2019.8712885
50
247.4570057
51
247.4814545
0
ARC
8
DEFAULT_255_2_778
10
359.8317638
20
865.2761402
40
924.8281766
50
247.4109099
51
247.4567157
0
ARC
8
DEFAULT_255_2_778
10
225.3912842
20
542.1262783
40
574.8280683
50
247.3484199
51
247.4107593
0
ARC
8
DEFAULT_255_2_778
10
156.5351261
20
377.1271643
40
396.0380289
50
247.2725262
51
247.3483283
0
ARC
8
DEFAULT_255_2_778
10
114.2513062
20
276.1788876
40
286.5918046
50
247.1852299
51
247.2724071
0
ARC
8
DEFAULT_255_2_778
10
85.8805681
20
208.7349806
40
213.4236464
50
247.088094
51
247.1850986
0
ARC
8
DEFAULT_255_2_778
10
65.9679657
20
161.621813
40
162.2752124
50
246.9825467
51
247.087991
0
ARC
8
DEFAULT_255_2_778
10
51.6403778
20
127.8961446
40
125.6323349
50
246.8700196
51
246.982448
0
ARC
8
DEFAULT_255_2_778
10
41.0336696
20
103.0640609
40
98.6298418
50
246.7515934
51
246.8697878
0
ARC
8
DEFAULT_255_2_778
10
31.3593697
20
80.5539878
40
74.1289143
50
246.5624085
51
246.7543991
0
ARC
8
DEFAULT_255_2_778
10
22.2536246
20
59.5559309
40
51.2415165
50
246.3010589
51
246.565192
0
ARC
8
DEFAULT_255_2_778
10
15.7116585
20
44.6495359
40
34.9627593
50
246.0271511
51
246.2993253
0
ARC
8
DEFAULT_255_2_778
10
10.9134443
20
33.8651455
40
23.159119
50
245.6229329
51
246.0335179
0
ARC
8
DEFAULT_255_2_778
10
7.3568764
20
26.0164215
40
14.5421796
50
245.1482589
51
245.6229903
0
ARC
8
DEFAULT_255_2_778
10
4.9465156
20
20.8156682
40
8.8100184
50
244.4845021
51
245.157546
0
ARC
8
DEFAULT_255_2_778
10
4.1778037
20
19.2282638
40
7.0463159
50
241.9291626
51
244.5654559
0
ARC
8
DEFAULT_255_2_778
10
2.7986087
20
16.6545696
40
4.1263807
50
237.7840995
51
242.0106767
0
ARC
8
DEFAULT_255_2_778
10
1.7831992
20
15.0503407
40
2.2278077
50
231.5103532
51
237.8831199
0
ARC
8
DEFAULT_255_2_778
10
1.0750899
20
14.1689507
40
1.0972322
50
220.6107779
51
231.8079097
0
ARC
8
DEFAULT_255_2_778
10
0.599917
20
13.7706624
40
0.4773031
50
197.7392715
51
221.4436514
0
ARC
8
DEFAULT_255_2_778
10
0.4269745
20
13.7078139
40
0.293522
50
180.1976469
51
196.3401036
0
ARC
8
DEFAULT_255_2_778
10
-22.2748433
20
119.0479374
40
105.2085948
50
282.2975864
51
282.3021993
0
ARC
8
DEFAULT_255_2_778
10
-28.7119933
20
148.5485891
40
135.4033848
50
282.3037627
51
282.3139295
0
ARC
8
DEFAULT_255_2_778
10
-42.3789798
20
211.1595633
40
199.4886454
50
282.3138285
51
282.3246451
0
ARC
8
DEFAULT_255_2_778
10
-59.0499152
20
287.4641844
40
277.5931605
50
282.3245347
51
282.3408495
0
ARC
8
DEFAULT_255_2_778
10
-76.9595606
20
369.325778
40
361.3909879
50
282.340816
51
282.3568361
0
ARC
8
DEFAULT_255_2_778
10
-91.887252
20
437.4649819
40
431.146182
50
282.3568518
51
282.3755063
0
ARC
8
DEFAULT_255_2_778
10
-104.3039103
20
494.0544066
40
489.0818049
50
282.3755092
51
282.3955007
0
ARC
8
DEFAULT_255_2_778
10
-114.7693997
20
541.6767933
40
537.8405804
50
282.3953913
51
282.416539
0
ARC
8
DEFAULT_255_2_778
10
-122.0971848
20
574.9634797
40
571.9242996
50
282.4164567
51
282.4374262
0
ARC
8
DEFAULT_255_2_778
10
-126.6029869
20
595.400168
40
592.8518049
50
282.4372854
51
282.4580989
0
ARC
8
DEFAULT_255_2_778
10
-130.980014
20
615.2207369
40
613.149916
50
282.4579272
51
282.4782672
0
ARC
8
DEFAULT_255_2_778
10
-133.6596476
20
627.3304576
40
625.5525678
50
282.4782485
51
282.5084787
0
ARC
8
DEFAULT_255_2_778
10
-134.5410458
20
631.304107
40
629.6227954
50
282.5084648
51
282.5427507
0
ARC
8
DEFAULT_255_2_778
10
-132.7791188
20
623.3868432
40
621.511849
50
282.5427045
51
282.5804724
0
ARC
8
DEFAULT_255_2_778
10
-129.4640298
20
608.5326474
40
606.2922251
50
282.5804633
51
282.6161454
0
ARC
8
DEFAULT_255_2_778
10
-124.1738534
20
584.9032375
40
582.0778701
50
282.6160122
51
282.6670782
0
ARC
8
DEFAULT_255_2_778
10
-116.3315004
20
550.0179811
40
546.3219809
50
282.6669062
51
282.7284084
0
ARC
8
DEFAULT_255_2_778
10
-104.9034324
20
499.4459031
40
494.4747458
50
282.7278651
51
282.8203147
0
ARC
8
DEFAULT_255_2_778
10
-88.005412
20
425.2355488
40
418.3648276
50
282.8189568
51
282.9629548
0
ARC
8
DEFAULT_255_2_778
10
-73.1540183
20
360.6679042
40
352.11119
50
282.9647398
51
283.0505276
0
ARC
8
DEFAULT_255_2_778
10
-60.0822911
20
304.3247614
40
294.2715872
50
283.0483385
51
283.2128423
0
ARC
8
DEFAULT_255_2_778
10
-46.0117763
20
244.3890277
40
232.706406
50
283.2131919
51
283.3793116
0
ARC
8
DEFAULT_255_2_778
10
-35.2284535
20
199.0463637
40
186.0991401
50
283.3797679
51
283.5450056
0
ARC
8
DEFAULT_255_2_778
10
-26.7254154
20
163.7502514
40
149.7932564
50
283.5450566
51
283.7206426
0
ARC
8
DEFAULT_255_2_778
10
-19.572909
20
134.4594763
40
119.6418411
50
283.7201755
51
283.9203742
0
ARC
8
DEFAULT_255_2_778
10
-13.4763872
20
109.8651867
40
94.3032013
50
283.9199211
51
284.1465608
0
ARC
8
DEFAULT_255_2_778
10
-8.5222665
20
90.2086357
40
74.0319579
50
284.1467473
51
284.3850733
0
ARC
8
DEFAULT_255_2_778
10
-4.668071
20
75.1803156
40
58.5172801
50
284.3853088
51
284.6339225
0
ARC
8
DEFAULT_255_2_778
10
-1.6729264
20
63.7083222
40
46.6607408
50
284.6343263
51
284.8913818
0
ARC
8
DEFAULT_255_2_778
10
0.6757026
20
54.8750041
40
37.5205238
50
284.8918432
51
285.1555964
0
ARC
8
DEFAULT_255_2_778
10
2.9202783
20
46.5986068
40
28.94516
50
285.1502191
51
285.567885
0
ARC
8
DEFAULT_255_2_778
10
5.1811613
20
38.4914492
40
20.528653
50
285.561912
51
286.1360804
0
ARC
8
DEFAULT_255_2_778
10
6.8919762
20
32.5740986
40
14.3689513
50
286.1405928
51
286.700902
0
ARC
8
DEFAULT_255_2_778
10
8.1869467
20
28.2648914
40
9.8693726
50
286.6893779
51
287.5101327
0
ARC
8
DEFAULT_255_2_778
10
9.3099742
20
24.7116832
40
6.1429166
50
287.4922154
51
288.6820576
0
ARC
8
DEFAULT_255_2_778
10
10.0274197
20
22.5840615
40
3.8975888
50
288.7095216
51
289.6871304
0
ARC
8
DEFAULT_255_2_778
10
17.9814928
20
0.4251243
40
19.6456882
50
108.8471246
51
109.7575369
0
ARC
8
DEFAULT_255_2_778
10
15.8572185
20
6.645488
40
13.0726018
50
107.7395091
51
108.8430632
0
ARC
8
DEFAULT_255_2_778
10
14.5939531
20
10.6094458
40
8.9122209
50
105.8600044
51
107.7689455
0
ARC
8
DEFAULT_255_2_778
10
13.8097298
20
13.3778264
40
6.0349079
50
103.0741633
51
105.8808439
0
ARC
8
DEFAULT_255_2_778
10
13.4033572
20
15.1370047
40
4.2294052
50
98.9057131
51
103.1027303
0
ARC
8
DEFAULT_255_2_778
10
13.2357544
20
16.2221018
40
3.131444
50
91.8779192
51
98.9496344
0
ARC
8
DEFAULT_255_2_778
10
13.2195627
20
16.5313287
40
2.8218592
50
90.0021814
51
91.7550857
0
ARC
8
DEFAULT_255_2_778
10
13.219485
20
16.5586312
40
2.7945567
50
87.7310178
51
90.0006084
0
ARC
8
DEFAULT_255_2_778
10
13.2037624
20
16.3295877
40
3.0240502
50
79.4580385
51
87.60517
0
ARC
8
DEFAULT_255_2_778
10
13.0182317
20
15.3050291
40
4.0652626
50
75.3734536
51
79.5292062
0
ARC
8
DEFAULT_255_2_778
10
12.6072473
20
13.7167377
40
5.7058629
50
72.7656648
51
75.4076587
0
ARC
8
DEFAULT_255_2_778
10
11.8944805
20
11.4060781
40
8.1239558
50
71.1221669
51
72.7927399
0
ARC
8
DEFAULT_255_2_778
10
10.6815996
20
7.8558042
40
11.875692
50
69.8930237
51
71.1272578
0
ARC
8
DEFAULT_255_2_778
10
15.7905973
20
21.8362358
40
3.0090185
50
250.0547376
51
252.1411947
0
ARC
8
DEFAULT_255_2_778
10
16.5404106
20
24.1565772
40
5.4475019
50
252.1191172
51
253.6540412
0
ARC
8
DEFAULT_255_2_778
10
17.6201263
20
27.8279422
40
9.2743417
50
253.6366365
51
254.7588012
0
ARC
8
DEFAULT_255_2_778
10
19.020813
20
32.953082
40
14.5874359
50
254.7426614
51
255.5168578
0
ARC
8
DEFAULT_255_2_778
10
20.6679328
20
39.317018
40
21.1610709
50
255.5082289
51
256.0625455
0
ARC
8
DEFAULT_255_2_778
10
22.530102
20
46.8108125
40
28.8827692
50
256.057842
51
256.4712049
0
ARC
8
DEFAULT_255_2_778
10
24.591463
20
55.3704884
40
37.6871577
50
256.468523
51
256.7861351
0
ARC
8
DEFAULT_255_2_778
10
27.4137779
20
67.4046262
40
50.0478182
50
256.7898566
51
257.1497881
0
ARC
8
DEFAULT_255_2_778
10
31.5363713
20
85.4710636
40
68.5786557
50
257.1486915
51
257.4464088
0
ARC
8
DEFAULT_255_2_778
10
36.837429
20
109.2678076
40
92.9586933
50
257.4451517
51
257.6826024
0
ARC
8
DEFAULT_255_2_778
10
43.1549392
20
138.1800514
40
122.5530974
50
257.6805814
51
257.8458644
0
ARC
8
DEFAULT_255_2_778
10
51.8832071
20
178.7274829
40
164.0293177
50
257.8473765
51
258.0164306
0
ARC
8
DEFAULT_255_2_778
10
66.5777651
20
247.9550467
40
234.7992663
50
258.0163034
51
258.1493632
0
ARC
8
DEFAULT_255_2_778
10
100.1785352
20
408.1939132
40
398.5231367
50
258.1525568
51
258.270487
0
ARC
8
DEFAULT_255_2_778
10
265.4204192
20
1204.0507568
40
1211.3533746
50
258.2704739
51
258.3126924
0
LINE
8
DEFAULT_255_2_778
10
20.0361196
20
17.8115128
11
20.0430655
21
17.8100751
0
ARC
8
DEFAULT_255_2_778
10
-250.7973461
20
-1291.4731087
40
1337.0029858
50
78.2747197
51
78.3125513
0
ARC
8
DEFAULT_255_2_778
10
-65.9646463
20
-400.894718
40
427.4465023
50
78.1723176
51
78.2737941
0
ARC
8
DEFAULT_255_2_778
10
-28.3983584
20
-221.497486
40
244.1582242
50
78.0216702
51
78.1718091
0
ARC
8
DEFAULT_255_2_778
10
-11.2575913
20
-140.7022454
40
161.5647814
50
77.8315568
51
78.0213735
0
ARC
8
DEFAULT_255_2_778
10
-1.2582486
20
-94.3274055
40
114.1241593
50
77.6080509
51
77.8313017
0
ARC
8
DEFAULT_255_2_778
10
5.2995088
20
-64.4786148
40
83.5634903
50
77.3555623
51
77.6076972
0
ARC
8
DEFAULT_255_2_778
10
9.8818043
20
-44.0512414
40
62.6284714
50
77.0777943
51
77.3552042
0
ARC
8
DEFAULT_255_2_778
10
13.1888918
20
-29.6360727
40
47.8388156
50
76.7783945
51
77.0774357
0
ARC
8
DEFAULT_255_2_778
10
15.6415554
20
-19.195364
40
37.1138932
50
76.460604
51
76.7778888
0
ARC
8
DEFAULT_255_2_778
10
17.8887135
20
-9.879975
40
27.531296
50
75.948254
51
76.4686072
0
ARC
8
DEFAULT_255_2_778
10
20.0086393
20
-1.4185973
40
18.8083955
50
75.2559096
51
75.9546038
0
ARC
8
DEFAULT_255_2_778
10
21.5765209
20
4.5410978
40
12.6459107
50
74.4940218
51
75.2536407
0
ARC
8
DEFAULT_255_2_778
10
22.7793302
20
8.8657079
40
8.1571483
50
73.3471402
51
74.5143456
0
ARC
8
DEFAULT_255_2_778
10
23.6970637
20
11.9334273
40
4.9550961
50
71.9682087
51
73.3485153
0
ARC
8
DEFAULT_255_2_778
10
24.3406303
20
13.9052142
40
2.8809416
50
69.9876454
51
72.000062
0
LINE
8
DEFAULT_255_2_778
10
25.3260541
20
14.1016014
11
25.3260542
21
14.1013521
0
ARC
8
DEFAULT_255_2_778
10
24.9355067
20
14.1115106
40
0.3906797
50
326.3059852
51
358.5100162
0
ARC
8
DEFAULT_255_2_778
10
24.5439872
20
14.3544383
40
0.8513281
50
313.5749877
51
327.320922
0
ARC
8
DEFAULT_255_2_778
10
23.9252991
20
14.9887695
40
1.7373821
50
306.2236459
51
313.9369623
0
ARC
8
DEFAULT_255_2_778
10
23.0339569
20
16.1915054
40
3.2343883
50
301.4850058
51
306.3709843
0
ARC
8
DEFAULT_255_2_778
10
21.8009882
20
18.190394
40
5.5829485
50
298.3041546
51
301.5617371
0
ARC
8
DEFAULT_255_2_778
10
20.7292388
20
20.1462404
40
7.8131489
50
297.5223627
51
298.423288
0
LINE
8
DEFAULT_255_2_778
10
0.1334541
20
13.7068014
11
0.1334541
21
16.2534014
0
LINE
8
DEFAULT_255_2_778
10
25.3265541
20
16.6122014
11
25.3260541
21
14.1016014
0
LINE
8
DEFAULT_255_2_778
10
24.3396541
20
13.2173014
11
24.3393541
21
13.2176014
0
ARC
8
DEFAULT_255_2_778
10
21.0826626
20
22.0286905
40
7.0595898
50
296.3399495
51
297.4715863
0
ARC
8
DEFAULT_255_2_778
10
18.633412
20
26.9662162
40
12.571212
50
295.5943865
51
296.3590992
0
ARC
8
DEFAULT_255_2_778
10
15.2427061
20
34.0368326
40
20.4127995
50
295.0601337
51
295.6042233
0
ARC
8
DEFAULT_255_2_778
10
10.9280388
20
43.2554534
40
30.5911744
50
294.6862238
51
295.0672071
0
ARC
8
DEFAULT_255_2_778
10
5.8313032
20
54.3368971
40
42.7885143
50
294.4106625
51
294.6899573
0
ARC
8
DEFAULT_255_2_778
10
-0.0167868
20
67.2174837
40
56.9345266
50
294.2011642
51
294.4127759
0
ARC
8
DEFAULT_255_2_778
10
-8.279585
20
85.6105836
40
77.0983543
50
293.9621708
51
294.1985628
0
ARC
8
DEFAULT_255_2_778
10
-20.7267984
20
113.6133147
40
107.7428655
50
293.7703498
51
293.963017
0
ARC
8
DEFAULT_255_2_778
10
-37.4268507
20
151.5245133
40
149.169315
50
293.6202382
51
293.7712818
0
ARC
8
DEFAULT_255_2_778
10
-57.8712257
20
198.2622688
40
200.182943
50
293.5180878
51
293.6216776
0
ARC
8
DEFAULT_255_2_778
10
-87.7099117
20
266.8389685
40
274.9700468
50
293.4136259
51
293.5171216
0
ARC
8
DEFAULT_255_2_778
10
-140.6716402
20
389.14504
40
408.2506524
50
293.3349977
51
293.4137068
0
ARC
8
DEFAULT_255_2_778
10
-267.5738327
20
683.3531747
40
728.6606911
50
293.273836
51
293.3337742
0
ARC
8
DEFAULT_255_2_778
10
-1463.4065661
20
3463.8328036
40
3755.3887744
50
293.256756
51
293.272069
0
LINE
8
DEFAULT_255_2_778
10
19.4169272
20
13.5894303
11
19.3866451
21
13.5764122
0
ARC
8
DEFAULT_255_2_778
10
501.6429837
20
-1108.4215364
40
1221.2495948
50
113.258965
51
113.2982451
0
ARC
8
DEFAULT_255_2_778
10
236.5226423
20
-492.7537697
40
550.9246032
50
113.2987929
51
113.3735843
0
ARC
8
DEFAULT_255_2_778
10
154.175373
20
-302.2152074
40
343.3528893
50
113.3738683
51
113.4756335
0
ARC
8
DEFAULT_255_2_778
10
112.3472409
20
-205.9029998
40
238.3498705
50
113.4758349
51
113.5990639
0
ARC
8
DEFAULT_255_2_778
10
86.7814498
20
-147.3809861
40
174.4872385
50
113.5992773
51
113.7399478
0
ARC
8
DEFAULT_255_2_778
10
69.5616005
20
-108.2259524
40
131.7129486
50
113.7401784
51
113.8953316
0
ARC
8
DEFAULT_255_2_778
10
57.4489558
20
-80.8850841
40
101.8091154
50
113.8955865
51
114.0623568
0
ARC
8
DEFAULT_255_2_778
10
48.570145
20
-61.0002768
40
80.0320899
50
114.0626311
51
114.238748
0
ARC
8
DEFAULT_255_2_778
10
40.5529447
20
-43.2038461
40
60.513165
50
114.2346931
51
114.520935
0
ARC
8
DEFAULT_255_2_778
10
33.3168284
20
-27.3438517
40
43.0804143
50
114.519361
51
114.8693309
0
ARC
8
DEFAULT_255_2_778
10
27.9658826
20
-15.8008005
40
30.3574173
50
114.8687351
51
115.2728013
0
ARC
8
DEFAULT_255_2_778
10
24.3769334
20
-8.1959833
40
21.9482677
50
115.2761432
51
115.6593664
0
ARC
8
DEFAULT_255_2_778
10
21.369698
20
-1.9459641
40
15.0124059
50
115.6429858
51
116.3500933
0
ARC
8
DEFAULT_255_2_778
10
18.8526622
20
3.1351106
40
9.342063
50
116.3485411
51
117.1886227
0
ARC
8
DEFAULT_255_2_778
10
17.6400753
20
5.5033088
40
6.681478
50
117.2184269
51
117.5725262
0
ARC
8
DEFAULT_255_2_778
10
10.1781832
20
19.7767546
40
9.4247671
50
295.6464423
51
297.6190192
0
ARC
8
DEFAULT_255_2_778
10
11.1445521
20
17.7598341
40
7.1882892
50
293.0447484
51
295.6607296
0
ARC
8
DEFAULT_255_2_778
10
11.8205344
20
16.1663496
40
5.4573528
50
289.5825185
51
293.0629211
0
ARC
8
DEFAULT_255_2_778
10
12.2512459
20
14.9512273
40
4.1681547
50
284.9788138
51
289.6026745
0
ARC
8
DEFAULT_255_2_778
10
12.4830441
20
14.0816411
40
3.2682049
50
278.9029635
51
284.9934141
0
ARC
8
DEFAULT_255_2_778
10
12.5688047
20
13.5320247
40
2.7119381
50
270.0828868
51
278.9099818
0
ARC
8
DEFAULT_255_2_778
10
12.5735415
20
13.4201427
40
2.6000533
50
261.7443843
51
269.9820707
0
ARC
8
DEFAULT_255_2_778
10
12.6320173
20
13.7914593
40
2.9759221
50
253.9031453
51
261.6567329
0
ARC
8
DEFAULT_255_2_778
10
12.8701845
20
14.6285027
40
3.8461847
50
249.1965001
51
253.9515673
0
ARC
8
DEFAULT_255_2_778
10
13.3175523
20
15.8131746
40
5.1125103
50
245.9735309
51
249.2250969
0
ARC
8
DEFAULT_255_2_778
10
13.9059737
20
17.1477455
40
6.5710341
50
244.4288968
51
246.0253504
0
ARC
8
DEFAULT_255_2_778
10
7.9146021
20
4.6046961
40
7.3294949
50
64.5027565
51
65.3128254
0
ARC
8
DEFAULT_255_2_778
10
5.1177161
20
-1.4734617
40
14.0202774
50
65.3020798
51
65.8762907
0
ARC
8
DEFAULT_255_2_778
10
0.7442551
20
-11.2311265
40
24.7132273
50
65.86825
51
66.2717638
0
ARC
8
DEFAULT_255_2_778
10
-5.3356958
20
-25.0530385
40
39.8132618
50
66.2659278
51
66.5445383
0
ARC
8
DEFAULT_255_2_778
10
-12.9584608
20
-42.6125224
40
58.955937
50
66.5410534
51
66.7376798
0
ARC
8
DEFAULT_255_2_778
10
-21.991911
20
-63.6192924
40
81.8226726
50
66.7358282
51
66.8806669
0
ARC
8
DEFAULT_255_2_778
10
-32.2851681
20
-87.7241907
40
108.033305
50
66.8796758
51
66.9900189
0
ARC
8
DEFAULT_255_2_778
10
-46.9890902
20
-122.3557608
40
145.6571136
50
66.9912599
51
67.1148005
0
ARC
8
DEFAULT_255_2_778
10
-69.1647581
20
-174.8875234
40
202.6776916
50
67.1144431
51
67.2153617
0
ARC
8
DEFAULT_255_2_778
10
-98.9401976
20
-245.7678071
40
279.5580626
50
67.2148948
51
67.2941767
0
ARC
8
DEFAULT_255_2_778
10
-135.7122111
20
-333.6358493
40
374.8102217
50
67.2933981
51
67.3477558
0
ARC
8
DEFAULT_255_2_778
10
-189.7326535
20
-463.0909555
40
515.0843557
50
67.3482757
51
67.4025013
0
ARC
8
DEFAULT_255_2_778
10
-287.3081303
20
-697.5270432
40
769.0159469
50
67.4024215
51
67.4433933
0
ARC
8
DEFAULT_255_2_778
10
-545.2583379
20
-1318.6028389
40
1441.5287372
50
67.444384
51
67.4762207
0
ARC
8
DEFAULT_255_2_778
10
-4192.8948185
20
-10114.634418
40
10963.8931198
50
67.4765913
51
67.4814447
0
LINE
8
DEFAULT_255_2_778
10
6.0856075
20
13.3227168
11
6.0657799
21
13.3309383
0
ARC
8
DEFAULT_255_2_778
10
775.5265267
20
1869.2214508
40
2009.0792506
50
247.4562997
51
247.4808789
0
ARC
8
DEFAULT_255_2_778
10
359.278152
20
866.4594783
40
923.3563196
50
247.4101042
51
247.455981
0
ARC
8
DEFAULT_255_2_778
10
225.5039309
20
544.9230745
40
575.1018134
50
247.3476187
51
247.4099255
0
ARC
8
DEFAULT_255_2_778
10
156.5133806
20
379.6078244
40
395.9682656
50
247.2716818
51
247.3474935
0
ARC
8
DEFAULT_255_2_778
10
114.1858539
20
278.5593921
40
286.4127764
50
247.184336
51
247.2715633
0
ARC
8
DEFAULT_255_2_778
10
85.9752504
20
211.4987343
40
213.6599758
50
247.0872763
51
247.1841687
0
ARC
8
DEFAULT_255_2_778
10
66.0061054
20
164.2532362
40
162.3676388
50
246.981735
51
247.0871139
0
ARC
8
DEFAULT_255_2_778
10
51.6148601
20
130.3789456
40
125.5630807
50
246.8691313
51
246.9816157
0
ARC
8
DEFAULT_255_2_778
10
41.0157953
20
105.5663942
40
98.5815522
50
246.750784
51
246.8690302
0
ARC
8
DEFAULT_255_2_778
10
31.3575511
20
83.0946081
40
74.1221402
50
246.5616036
51
246.7536017
0
ARC
8
DEFAULT_255_2_778
10
22.2576366
20
62.11085
40
51.2501806
50
246.3003301
51
246.564405
0
ARC
8
DEFAULT_255_2_778
10
15.7057824
20
47.1827157
40
34.9475432
50
246.0264956
51
246.2987747
0
ARC
8
DEFAULT_255_2_778
10
10.9102967
20
36.4049434
40
23.1510585
50
245.6223074
51
246.0330155
0
ARC
8
DEFAULT_255_2_778
10
7.35981
20
28.5699672
40
14.5491513
50
245.1480455
51
245.6225275
0
ARC
8
DEFAULT_255_2_778
10
4.948148
20
23.3664239
40
8.8139115
50
244.4845247
51
245.1572426
0
ARC
8
DEFAULT_255_2_778
10
4.2365594
20
21.8826276
40
7.1683119
50
242.5051753
51
244.5087765
0
ARC
8
DEFAULT_255_2_778
10
3.2415359
20
19.9722495
40
5.0143352
50
240.0917153
51
242.5129084
0
ARC
8
DEFAULT_255_2_778
10
2.4323855
20
18.570469
40
3.3957852
50
236.6651195
51
240.1329755
0
ARC
8
DEFAULT_255_2_778
10
1.7637613
20
17.5571708
40
2.1817725
50
231.955452
51
236.7118147
0
ARC
8
DEFAULT_255_2_778
10
1.2466796
20
16.8992667
40
1.3449892
50
225.3138336
51
232.0308163
0
ARC
8
DEFAULT_255_2_778
10
0.8515611
20
16.5033382
40
0.7856436
50
214.8814475
51
225.4954986
0
ARC
8
DEFAULT_255_2_778
10
0.5642248
20
16.3065189
40
0.4373833
50
196.2659436
51
215.2566101
0
ARC
8
DEFAULT_255_2_778
10
0.44013
20
16.2666851
40
0.3071181
50
180.1667068
51
195.6165331
0
ARC
8
DEFAULT_255_2_778
10
0.4426829
20
16.2637241
40
0.3096766
50
154.2677731
51
179.6174992
0
ARC
8
DEFAULT_255_2_778
10
0.5651457
20
16.2072091
40
0.4445378
50
142.3952853
51
154.5588762
0
ARC
8
DEFAULT_255_2_778
10
0.730141
20
16.0818183
40
0.6517697
50
134.3564446
51
142.5132815
0
ARC
8
DEFAULT_255_2_778
10
0.9048082
20
15.9065334
40
0.8992156
50
130.0150164
51
134.5057115
0
ARC
8
DEFAULT_255_2_778
10
1.1228114
20
15.6443122
40
1.2402191
50
124.6636065
51
129.9391712
0
ARC
8
DEFAULT_255_2_778
10
1.4349107
20
15.1950006
40
1.7872896
50
120.6711739
51
124.7006048
0
ARC
8
DEFAULT_255_2_778
10
1.8053768
20
14.5725577
40
2.5116371
50
117.5629426
51
120.6968774
0
ARC
8
DEFAULT_255_2_778
10
2.2264058
20
13.7689073
40
3.4188955
50
115.2074173
51
117.5860044
0
ARC
8
DEFAULT_255_2_778
10
2.7103983
20
12.7419635
40
4.5541761
50
113.2008162
51
115.2141007
0
ARC
8
DEFAULT_255_2_778
10
3.2785998
20
11.418489
40
5.9944667
50
111.558831
51
113.2090499
0
ARC
8
DEFAULT_255_2_778
10
3.645234
20
10.5021279
40
6.9814432
50
111.3819738
51
111.5938085
0
ARC
8
DEFAULT_255_2_778
10
17.9617394
20
2.5467437
40
19.5763733
50
108.8567736
51
109.7700369
0
ARC
8
DEFAULT_255_2_778
10
15.8483346
20
8.7319892
40
13.0400332
50
107.7469718
51
108.85289
0
ARC
8
DEFAULT_255_2_778
10
14.5897986
20
12.6793158
40
8.896934
50
105.8646531
51
107.7763091
0
ARC
8
DEFAULT_255_2_778
10
13.807546
20
15.4398873
40
6.0276714
50
103.0760438
51
105.8854632
0
ARC
8
DEFAULT_255_2_778
10
13.4021483
20
17.1945955
40
4.2267434
50
98.9055567
51
103.1045963
0
ARC
8
DEFAULT_255_2_778
10
13.2349048
20
18.2773715
40
3.1311311
50
91.877432
51
98.9493466
0
ARC
8
DEFAULT_255_2_778
10
13.218753
20
18.5856638
40
2.8224817
50
90.0023133
51
91.7547605
0
ARC
8
DEFAULT_255_2_778
10
13.2186637
20
18.6129492
40
2.7951962
50
87.7301403
51
90.0005048
0
ARC
8
DEFAULT_255_2_778
10
13.202918
20
18.383644
40
3.0249523
50
79.4566508
51
87.6041548
0
ARC
8
DEFAULT_255_2_778
10
13.0172424
20
17.3584008
40
4.0668641
50
75.3724749
51
79.5279049
0
ARC
8
DEFAULT_255_2_778
10
12.6059331
20
15.7690201
40
5.7086002
50
72.7650795
51
75.40655
0
ARC
8
DEFAULT_255_2_778
10
11.8925957
20
13.4566707
40
8.1284763
50
71.1219458
51
72.7920019
0
ARC
8
DEFAULT_255_2_778
10
10.6795461
20
9.9059785
40
11.8806627
50
69.8930072
51
71.1269873
0
ARC
8
DEFAULT_255_2_778
10
7.9837758
20
2.5197525
40
19.7434533
50
69.5414613
51
69.9154264
0
ARC
8
DEFAULT_255_2_778
10
2.2555082
20
-12.8476982
40
36.1438063
50
69.3003086
51
69.5484646
0
ARC
8
DEFAULT_255_2_778
10
-6.0922986
20
-34.9499079
40
59.7699263
50
69.1292234
51
69.3037037
0
ARC
8
DEFAULT_255_2_778
10
-16.9892375
20
-63.5403997
40
90.3666496
50
69.0099565
51
69.1315948
0
ARC
8
DEFAULT_255_2_778
10
-30.2209739
20
-98.0364936
40
127.3133591
50
68.9224922
51
69.0112994
0
ARC
8
DEFAULT_255_2_778
10
-45.6164156
20
-137.9878613
40
170.1284428
50
68.8561216
51
68.9232754
0
ARC
8
DEFAULT_255_2_778
10
-67.4995487
20
-194.5607756
40
230.7862215
50
68.780226
51
68.8552714
0
ARC
8
DEFAULT_255_2_778
10
-100.5913906
20
-279.7941166
40
322.2181219
50
68.7191875
51
68.7805307
0
ARC
8
DEFAULT_255_2_778
10
-144.590172
20
-392.7629912
40
443.4528503
50
68.6710169
51
68.7194723
0
ARC
8
DEFAULT_255_2_778
10
-197.4906979
20
-528.2566532
40
588.9073038
50
68.637869
51
68.6714899
0
ARC
8
DEFAULT_255_2_778
10
-272.3317726
20
-719.5915767
40
794.3586104
50
68.6033893
51
68.6376283
0
ARC
8
DEFAULT_255_2_778
10
-398.065837
20
-1040.4866088
40
1139.0072381
50
68.5764712
51
68.6034561
0
ARC
8
DEFAULT_255_2_778
10
-673.3432801
20
-1742.0143454
40
1892.6111365
50
68.5522365
51
68.575926
0
ARC
8
DEFAULT_255_2_778
10
-1873.7898645
20
-4797.653599
40
5175.598077
50
68.5420266
51
68.5520798
0
LINE
8
DEFAULT_255_2_778
10
19.5405127
20
19.2038347
11
19.5435425
21
19.2026439
0
ARC
8
DEFAULT_255_2_778
10
3362.501602
20
8524.1787685
40
9138.3799148
50
248.5422413
51
248.5474321
0
ARC
8
DEFAULT_255_2_778
10
933.3961856
20
2342.551394
40
2496.6128215
50
248.5475857
51
248.5638887
0
ARC
8
DEFAULT_255_2_778
10
529.4992401
20
1313.8435472
40
1391.455558
50
248.5639897
51
248.5887383
0
ARC
8
DEFAULT_255_2_778
10
355.6172946
20
870.4070354
40
915.1459204
50
248.5887688
51
248.6202974
0
ARC
8
DEFAULT_255_2_778
10
257.6160656
20
620.077493
40
646.316754
50
248.6203337
51
248.6574902
0
ARC
8
DEFAULT_255_2_778
10
195.3410862
20
460.7011786
40
475.2057295
50
248.6575452
51
248.6994234
0
ARC
8
DEFAULT_255_2_778
10
152.8137423
20
351.6292945
40
358.1363019
50
248.699532
51
248.7454594
0
ARC
8
DEFAULT_255_2_778
10
122.9879336
20
274.9529667
40
275.863353
50
248.7456569
51
248.7948752
0
ARC
8
DEFAULT_255_2_778
10
96.4194019
20
206.4621937
40
202.3999415
50
248.7937308
51
248.8755432
0
ARC
8
DEFAULT_255_2_778
10
73.4765708
20
147.0770774
40
138.737036
50
248.8751172
51
248.9778866
0
ARC
8
DEFAULT_255_2_778
10
57.2561053
20
104.8685892
40
93.5191195
50
248.9775729
51
249.0999941
0
ARC
8
DEFAULT_255_2_778
10
46.9703661
20
77.936622
40
64.6898411
50
249.1011672
51
249.2208165
0
ARC
8
DEFAULT_255_2_778
10
39.0932997
20
57.1671847
40
42.4768342
50
249.2159369
51
249.4276322
0
ARC
8
DEFAULT_255_2_778
10
32.7331772
20
40.216496
40
24.3722216
50
249.4234626
51
249.7249314
0
ARC
8
DEFAULT_255_2_778
10
29.8061134
20
32.3042684
40
15.9359296
50
249.7389456
51
249.8737184
0
ARC
8
DEFAULT_255_2_778
10
21.7238262
20
10.243106
40
7.5591393
50
69.0525095
51
69.8910009
0
ARC
8
DEFAULT_255_2_778
10
22.22462
20
11.5476993
40
6.1617288
50
67.7891165
51
69.0644817
0
ARC
8
DEFAULT_255_2_778
10
22.7404519
20
12.8088368
40
4.7991764
50
66.1470296
51
67.7989721
0
ARC
8
DEFAULT_255_2_778
10
23.2069797
20
13.862333
40
3.6470036
50
64.0883533
51
66.1573279
0
ARC
8
DEFAULT_255_2_778
10
23.6024408
20
14.6758038
40
2.7425014
50
61.6809595
51
64.0931748
0
ARC
8
DEFAULT_255_2_778
10
23.931629
20
15.2857781
40
2.0493687
50
58.7383616
51
61.6930025
0
ARC
8
DEFAULT_255_2_778
10
24.2469087
20
15.80125
40
1.4451279
50
53.9857213
51
58.8176818
0
ARC
8
DEFAULT_255_2_778
10
24.5384442
20
16.2004491
40
0.950809
50
47.3196315
51
54.0514409
0
ARC
8
DEFAULT_255_2_778
10
24.7728225
20
16.4528371
40
0.6063813
50
37.5334549
51
47.4336493
0
ARC
8
DEFAULT_255_2_778
10
24.9512445
20
16.5881814
40
0.3824402
50
21.5838522
51
37.7389013
0
ARC
8
DEFAULT_255_2_778
10
25.0443612
20
16.6263104
40
0.2818292
50
0.1428679
51
21.3396333
0
ARC
8
DEFAULT_255_2_778
10
24.9979378
20
16.6323801
40
0.3282956
50
332.4409313
51
359.063283
0
ARC
8
DEFAULT_255_2_778
10
24.7671201
20
16.7463042
40
0.5856605
50
320.2465373
51
333.0076925
0
ARC
8
DEFAULT_255_2_778
10
24.4289287
20
17.0225586
40
1.0223312
50
312.5433445
51
320.4641708
0
ARC
8
DEFAULT_255_2_778
10
23.9713755
20
17.5162902
40
1.6954726
50
307.3232646
51
312.6539893
0
ARC
8
DEFAULT_255_2_778
10
23.3639204
20
18.30916
40
2.6942923
50
303.4678301
51
307.3730034
0
ARC
8
DEFAULT_255_2_778
10
22.5794744
20
19.4903296
40
4.1122172
50
300.7109433
51
303.5096762
0
ARC
8
DEFAULT_255_2_778
10
21.681148
20
20.9946011
40
5.8643049
50
298.9276875
51
300.7509836
0
ARC
8
DEFAULT_255_2_778
10
20.6673893
20
22.8265441
40
7.9580386
50
297.4635619
51
298.9359832
0
LINE
8
DEFAULT_255_2_778
10
1.0999127
20
17.0030421
11
11.3401127
21
20.9692421
0
LINE
8
DEFAULT_255_2_778
10
24.3375127
20
15.7653421
11
24.3393127
21
15.7651421
0
ARC
8
DEFAULT_255_2_778
10
5.0235151
20
16.3413386
40
0.5635365
50
141.3505995
51
178.6890094
0
ARC
8
DEFAULT_255_2_778
10
5.4389064
20
16.0354549
40
1.079186
50
127.0177159
51
142.4413918
0
ARC
8
DEFAULT_255_2_778
10
5.9362749
20
15.3907573
40
1.8934125
50
117.3179532
51
127.289325
0
ARC
8
DEFAULT_255_2_778
10
6.460104
20
14.3910607
40
3.0220236
50
110.1038698
51
117.4434565
0
ARC
8
DEFAULT_255_2_778
10
6.9316148
20
13.1190716
40
4.3785843
50
104.3507191
51
110.1767569
0
ARC
8
DEFAULT_255_2_778
10
7.2845119
20
11.757171
40
5.7854587
50
99.4103634
51
104.3935948
0
ARC
8
DEFAULT_255_2_778
10
7.502541
20
10.449557
40
7.1111245
50
94.251424
51
99.4207923
0
ARC
8
DEFAULT_255_2_778
10
7.5767338
20
9.5225332
40
8.0410994
50
89.9744037
51
94.2889411
0
ARC
8
DEFAULT_255_2_778
10
7.5862176
20
9.6096583
40
7.9539757
50
84.6750926
51
90.0424396
0
ARC
8
DEFAULT_255_2_778
10
7.691024
20
10.7059906
40
6.8526489
50
79.5283676
51
84.6969206
0
ARC
8
DEFAULT_255_2_778
10
7.9510084
20
12.0981468
40
5.4364278
50
74.0823933
51
79.5561048
0
ARC
8
DEFAULT_255_2_778
10
8.3496546
20
13.4882698
40
3.9902761
50
68.0359311
51
74.1127354
0
ARC
8
DEFAULT_255_2_778
10
8.839752
20
14.6923469
40
2.6902871
50
60.2206699
51
68.1247494
0
ARC
8
DEFAULT_255_2_778
10
9.3630433
20
15.5983853
40
1.644003
50
49.386327
51
60.3668406
0
ARC
8
DEFAULT_255_2_778
10
9.8418077
20
16.147879
40
0.9152373
50
31.7142788
51
49.7457796
0
ARC
8
DEFAULT_255_2_778
10
10.167713
20
16.3477044
40
0.532953
50
0.7017544
51
31.8578568
0
ARC
8
DEFAULT_255_2_778
10
10.1375227
20
16.3671409
40
0.5632513
50
321.3539021
51
358.6867323
0
ARC
8
DEFAULT_255_2_778
10
9.7219596
20
16.6731074
40
1.079088
50
307.0214732
51
322.4454829
0
ARC
8
DEFAULT_255_2_778
10
9.2243757
20
17.3179896
40
1.8935919
50
297.3226811
51
307.2932831
0
ARC
8
DEFAULT_255_2_778
10
8.7003904
20
18.3177817
40
3.02236
50
290.1089723
51
297.4482019
0
ARC
8
DEFAULT_255_2_778
10
8.2287972
20
19.5896476
40
4.3788339
50
284.3556278
51
290.1818413
0
ARC
8
DEFAULT_255_2_778
10
7.8759615
20
20.9508355
40
5.785003
50
279.4143433
51
284.3984746
0
ARC
8
DEFAULT_255_2_778
10
7.6580346
20
22.2572343
40
7.1094535
50
274.2536517
51
279.4248216
0
ARC
8
DEFAULT_255_2_778
10
7.583916
20
23.1828035
40
8.0379724
50
269.9744102
51
274.2911672
0
ARC
8
DEFAULT_255_2_778
10
7.5744371
20
23.0980403
40
7.9532106
50
264.6748365
51
270.0424246
0
ARC
8
DEFAULT_255_2_778
10
7.4696571
20
22.0020451
40
6.8522219
50
259.5279959
51
264.6966668
0
ARC
8
DEFAULT_255_2_778
10
7.2096957
20
20.6100685
40
5.4361816
50
254.0819478
51
259.5557435
0
ARC
8
DEFAULT_255_2_778
10
6.8110797
20
19.2200971
40
3.9901839
50
248.0354969
51
254.1123084
0
ARC
8
DEFAULT_255_2_778
10
6.3210055
20
18.0161002
40
2.690278
50
240.2202994
51
248.1242872
0
ARC
8
DEFAULT_255_2_778
10
5.7977137
20
17.1100726
40
1.644003
50
229.386019
51
240.3664362
0
ARC
8
DEFAULT_255_2_778
10
5.3189535
20
16.5605891
40
0.9152477
50
211.7142019
51
229.7454353
0
ARC
8
DEFAULT_255_2_778
10
4.9930413
20
16.3607596
40
0.5329552
50
180.7017861
51
211.8577465
0
LINE
8
DEFAULT_255_2_778
10
13.8480261
20
17.9915318
11
13.3591261
21
16.8149318
0
LINE
8
DEFAULT_255_2_778
10
13.3591261
20
16.8149318
11
12.5691261
21
18.1269318
0
LINE
8
DEFAULT_255_2_778
10
12.5691261
20
18.1269318
11
10.0484261
21
18.3534318
0
LINE
8
DEFAULT_255_2_778
10
10.0484261
20
18.3534318
11
11.9293261
21
19.0321318
0
LINE
8
DEFAULT_255_2_778
10
11.9293261
20
19.0321318
11
11.3665261
21
20.0732318
0
LINE
8
DEFAULT_255_2_778
10
11.3665261
20
20.0732318
11
13.1271261
21
19.3842318
0
LINE
8
DEFAULT_255_2_778
10
13.1271261
20
19.3842318
11
14.7884261
21
19.9277318
0
LINE
8
DEFAULT_255_2_778
10
14.7884261
20
19.9277318
11
14.3388261
21
18.8514318
0
LINE
8
DEFAULT_255_2_778
10
14.3388261
20
18.8514318
11
16.0316261
21
18.2177318
0
LINE
8
DEFAULT_255_2_778
10
16.0316261
20
18.2177318
11
13.8480261
21
17.9915318
0
LINE
8
DEFAULT_255_2_778
10
9.1538261
20
14.2026318
11
14.9918261
21
15.0985318
0
LINE
8
DEFAULT_255_2_778
10
14.9918261
20
15.0985318
11
13.2289261
21
12.5127318
0
LINE
8
DEFAULT_255_2_778
10
13.2289261
20
12.5127318
11
9.1538261
21
14.2026318
0
LINE
8
DEFAULT_255_2_778
10
4.4601261
20
16.3542318
11
4.4601261
21
16.3542318
0
LINE
8
DEFAULT_255_2_778
10
22.0655709
20
16.5302221
11
18.6126709
21
15.1671221
0
LINE
8
DEFAULT_255_2_778
10
18.6126709
20
15.1671221
11
18.6108709
21
17.8965221
0
LINE
8
DEFAULT_255_2_778
10
18.6108709
20
17.8965221
11
22.0655709
21
16.5302221
0
LINE
8
DEFAULT_255_2_778
10
18.6111258
20
17.8968094
11
18.6129258
21
15.1674094
0
LINE
8
DEFAULT_255_2_778
10
18.6129258
20
15.1674094
11
18.2391258
21
15.0200094
0
LINE
8
DEFAULT_255_2_778
10
18.2391258
20
15.0200094
11
14.7884258
21
16.3850094
0
LINE
8
DEFAULT_255_2_778
10
14.7884258
20
16.3850094
11
18.6111258
21
17.8968094
0
ENDSEC
0
EOF