0
SECTION
2
HEADER
9
$MEASUREMENT
70
1
0
ENDSEC
0
SECTION
2
TABLES
0
TABLE
2
LTYPE
0
LTYPE
72
65
70
64
2
CONTINUOUS
3
______
73
0
40
0
0
ENDTAB
0
TABLE
2
LAYER
0
LAYER
2
DEFAULT_255_2_778
70
0
62
255
6
CONTINUOUS
0
ENDTAB
0
ENDSEC
0
SECTION
2
ENTITIES
0
ARC
8
DEFAULT_255_2_778
10
8.8173978
20
7.6931998
40
5.3459387
50
167.0537757
51
180.0424809
0
ARC
8
DEFAULT_255_2_778
10
8.7389541
20
7.708546
40
5.2660517
50
148.2349524
51
167.0252893
0
ARC
8
DEFAULT_255_2_778
10
8.7801995
20
7.6823456
40
5.3149119
50
110.9241959
51
148.2288851
0
ARC
8
DEFAULT_255_2_778
10
8.7805312
20
7.6719247
40
5.3247653
50
95.9333249
51
110.8874836
0
ARC
8
DEFAULT_255_2_778
10
8.7950888
20
7.5489265
40
5.4486098
50
89.98873
51
95.9518869
0
ARC
8
DEFAULT_255_2_778
10
8.8002075
20
7.6031088
40
5.394429
50
77.1324977
51
90.0429833
0
ARC
8
DEFAULT_255_2_778
10
8.8189865
20
7.6950425
40
5.3006223
50
58.9965212
51
77.1090851
0
ARC
8
DEFAULT_255_2_778
10
8.8193824
20
7.6907948
40
5.30406
50
18.9763243
51
59.0238224
0
ARC
8
DEFAULT_255_2_778
10
8.8279005
20
7.7015386
40
5.2925164
50
4.4302204
51
18.8963208
0
ARC
8
DEFAULT_255_2_778
10
8.7076542
20
7.6898544
40
5.4133063
50
359.9934574
51
4.4552095
0
ARC
8
DEFAULT_255_2_778
10
8.7747404
20
7.6852691
40
5.3462216
50
347.0541091
51
0.0425159
0
ARC
8
DEFAULT_255_2_778
10
8.8533694
20
7.6698785
40
5.266144
50
328.235261
51
347.0256477
0
ARC
8
DEFAULT_255_2_778
10
8.8122208
20
7.6960258
40
5.3148939
50
290.9237505
51
328.2291277
0
ARC
8
DEFAULT_255_2_778
10
8.8118106
20
7.7066305
40
5.3249469
50
275.9330948
51
290.8871231
0
ARC
8
DEFAULT_255_2_778
10
8.7972328
20
7.8297858
40
5.4489496
50
269.988725
51
275.9517012
0
ARC
8
DEFAULT_255_2_778
10
8.7921156
20
7.774949
40
5.3941143
50
257.1321116
51
270.0429657
0
ARC
8
DEFAULT_255_2_778
10
8.7733648
20
7.683135
40
5.3004307
50
238.9957972
51
257.1086816
0
ARC
8
DEFAULT_255_2_778
10
8.7731224
20
7.6875995
40
5.304133
50
198.9974393
51
239.0228831
0
ARC
8
DEFAULT_255_2_778
10
8.764701
20
7.6769073
40
5.2926948
50
184.4352337
51
198.9176727
0
ARC
8
DEFAULT_255_2_778
10
8.8851121
20
7.688617
40
5.4136514
50
179.9934462
51
184.4602418
0
LINE
8
DEFAULT_255_2_778
10
3.4714606
20
7.6892362
11
3.4714606
21
7.6892362
0
ARC
8
DEFAULT_255_2_778
10
8.7782236
20
7.5756735
40
5.5374055
50
264.1263296
51
270.0087926
0
ARC
8
DEFAULT_255_2_778
10
8.7782495
20
7.6854563
40
5.6471883
50
270.0083592
51
274.8321427
0
ARC
8
DEFAULT_255_2_778
10
8.7654115
20
8.3134066
40
6.2741162
50
270.0559203
51
274.4659049
0
ARC
8
DEFAULT_255_2_778
10
8.7663885
20
7.5410166
40
5.5017256
50
264.2119997
51
270.0535963
0
ARC
8
DEFAULT_255_2_778
10
4.1948177
20
8.0972087
40
0.0188052
50
334.9271152
51
0.0561074
0
ARC
8
DEFAULT_255_2_778
10
4.1325696
20
8.0994084
40
0.0810825
50
358.4584613
51
0.3047345
0
ARC
8
DEFAULT_255_2_778
10
4.2277921
20
8.0919855
40
0.016176
50
150.9517669
51
189.7731569
0
LINE
8
DEFAULT_255_2_778
10
3.8776509
20
4.8825396
11
3.9191509
21
4.8121396
0
LINE
8
DEFAULT_255_2_778
10
3.9191509
20
4.8121396
11
3.8776509
21
4.8825396
0
LINE
8
DEFAULT_255_2_778
10
3.8776509
20
4.8825396
11
3.8776509
21
4.8825396
0
LINE
8
DEFAULT_255_2_778
10
8.2115509
20
2.0673396
11
8.0797509
21
2.0818396
0
LINE
8
DEFAULT_255_2_778
10
8.0797509
20
2.0818396
11
8.2115509
21
2.0673396
0
LINE
8
DEFAULT_255_2_778
10
8.2115509
20
2.0673396
11
8.2115509
21
2.0673396
0
LINE
8
DEFAULT_255_2_778
10
9.2738509
20
2.0601396
11
9.6188509
21
2.1017396
0
LINE
8
DEFAULT_255_2_778
10
9.6188509
20
2.1017396
11
9.2738509
21
2.0601396
0
LINE
8
DEFAULT_255_2_778
10
9.2738509
20
2.0601396
11
9.2738509
21
2.0601396
0
LINE
8
DEFAULT_255_2_778
10
12.3549509
20
3.3230396
11
12.5480509
21
3.4892396
0
LINE
8
DEFAULT_255_2_778
10
12.5480509
20
3.4892396
11
12.3549509
21
3.3230396
0
LINE
8
DEFAULT_255_2_778
10
12.3549509
20
3.3230396
11
12.3549509
21
3.3230396
0
LINE
8
DEFAULT_255_2_778
10
3.8802509
20
4.8825396
11
3.7162509
21
4.8698396
0
LINE
8
DEFAULT_255_2_778
10
3.7162509
20
4.8698396
11
3.8802509
21
4.8825396
0
LINE
8
DEFAULT_255_2_778
10
3.8802509
20
4.8825396
11
3.8802509
21
4.8825396
0
LINE
8
DEFAULT_255_2_778
10
14.9705509
20
8.2681396
11
14.4070509
21
7.9646396
0
LINE
8
DEFAULT_255_2_778
10
14.4070509
20
7.9646396
11
14.9705509
21
8.2681396
0
LINE
8
DEFAULT_255_2_778
10
14.9705509
20
8.2681396
11
15.0663509
21
8.3223396
0
LINE
8
DEFAULT_255_2_778
10
15.0663509
20
8.3223396
11
14.9705509
21
8.2681396
0
LINE
8
DEFAULT_255_2_778
10
14.9705509
20
8.2681396
11
14.9705509
21
8.2681396
0
LINE
8
DEFAULT_255_2_778
10
4.2118509
20
8.0892396
11
4.2118509
21
8.0892396
0
ARC
8
DEFAULT_255_2_778
10
16.1745416
20
10.5537371
40
1.0231227
50
16.7355389
51
53.0771067
0
ARC
8
DEFAULT_255_2_778
10
15.8592472
20
10.1596069
40
1.5276945
50
52.5036189
51
65.3377729
0
ARC
8
DEFAULT_255_2_778
10
15.536609
20
9.4693667
40
2.2896059
50
65.2078196
51
73.7962376
0
ARC
8
DEFAULT_255_2_778
10
15.2310153
20
8.435333
40
3.3678438
50
73.7128295
51
79.8105534
0
ARC
8
DEFAULT_255_2_778
10
14.9725683
20
7.0191388
40
4.8074237
50
79.7647741
51
84.3710813
0
ARC
8
DEFAULT_255_2_778
10
14.7845893
20
5.1425462
40
6.6934059
50
84.3453447
51
87.9978932
0
ARC
8
DEFAULT_255_2_778
10
14.705532
20
3.1292217
40
8.7082676
50
87.9408423
51
90.0354999
0
ARC
8
DEFAULT_255_2_778
10
14.7019138
20
1.6235875
40
10.2139003
50
90.0099705
51
91.05844
0
ARC
8
DEFAULT_255_2_778
10
14.7201831
20
0.5848356
40
11.2528127
50
91.0537458
51
91.7906133
0
ARC
8
DEFAULT_255_2_778
10
14.7556363
20
-0.5280555
40
12.3662681
50
91.7936779
51
92.7013487
0
ARC
8
DEFAULT_255_2_778
10
14.8184226
20
-1.8641731
40
13.7038601
50
92.700284
51
93.5171165
0
ARC
8
DEFAULT_255_2_778
10
14.8738095
20
-2.7907742
40
14.6321139
50
93.5110025
51
93.7715615
0
ARC
8
DEFAULT_255_2_778
10
13.9788678
20
10.2710537
40
1.5400779
50
92.5134644
51
93.7028429
0
ARC
8
DEFAULT_255_2_778
10
13.9781017
20
10.2816856
40
1.5294188
50
93.6999267
51
96.0981348
0
ARC
8
DEFAULT_255_2_778
10
8.4819302
20
7.6400887
40
6.7656185
50
32.8430323
51
37.9680951
0
ARC
8
DEFAULT_255_2_778
10
8.7404432
20
7.8266175
40
6.4472856
50
27.2278963
51
32.6962914
0
ARC
8
DEFAULT_255_2_778
10
14.7257886
20
0.9446411
40
9.8350496
50
90.9336593
51
91.4709086
0
ARC
8
DEFAULT_255_2_778
10
14.7162878
20
1.5157094
40
9.2639023
50
90.4729345
51
90.9324586
0
ARC
8
DEFAULT_255_2_778
10
14.7121893
20
2.0103383
40
8.7692564
50
90.002281
51
90.4728323
0
ARC
8
DEFAULT_255_2_778
10
14.7149845
20
2.9737911
40
7.8058043
50
88.4544306
51
90.0230799
0
ARC
8
DEFAULT_255_2_778
10
14.7523379
20
4.3276283
40
6.4514521
50
86.6022665
51
88.4617495
0
ARC
8
DEFAULT_255_2_778
10
14.8245631
20
5.5376839
40
5.2392431
50
84.5547404
51
86.6064447
0
ARC
8
DEFAULT_255_2_778
10
14.9263818
20
6.5973226
40
4.1747243
50
82.1309436
51
84.5657893
0
ARC
8
DEFAULT_255_2_778
10
15.0581733
20
7.5436094
40
3.2193049
50
79.1827409
51
82.1486479
0
ARC
8
DEFAULT_255_2_778
10
15.2129426
20
8.3497057
40
2.3984859
50
75.7299933
51
79.200259
0
ARC
8
DEFAULT_255_2_778
10
15.3476854
20
8.8859631
40
1.8455625
50
73.2462884
51
75.6803909
0
ARC
8
DEFAULT_255_2_778
10
15.4670753
20
9.2788199
40
1.4349666
50
69.7392737
51
73.2893269
0
ARC
8
DEFAULT_255_2_778
10
15.6045939
20
9.6497461
40
1.0393693
50
65.5381453
51
69.770192
0
ARC
8
DEFAULT_255_2_778
10
15.7374821
20
9.9412571
40
0.7189979
50
60.9538531
51
65.5579671
0
ARC
8
DEFAULT_255_2_778
10
15.8632184
20
10.1664692
40
0.4610646
50
55.5613603
51
61.0257629
0
ARC
8
DEFAULT_255_2_778
10
15.9348222
20
10.273357
40
0.33242
50
54.4005641
51
55.3211795
0
ARC
8
DEFAULT_255_2_778
10
15.6772586
20
10.7205576
40
0.4845212
50
329.6661869
51
338.5851254
0
ARC
8
DEFAULT_255_2_778
10
15.2624722
20
10.959335
40
0.9631197
50
322.6692321
51
329.8681155
0
ARC
8
DEFAULT_255_2_778
10
14.7268979
20
11.3635647
40
1.6341152
50
317.2263189
51
322.7869746
0
ARC
8
DEFAULT_255_2_778
10
14.0608433
20
11.9765872
40
2.5393343
50
312.744438
51
317.2790328
0
ARC
8
DEFAULT_255_2_778
10
13.2561669
20
12.8433819
40
3.7220567
50
309.1413145
51
312.7848599
0
ARC
8
DEFAULT_255_2_778
10
12.3509152
20
13.9508802
40
5.1524507
50
306.3349186
51
309.1748249
0
ARC
8
DEFAULT_255_2_778
10
11.3040101
20
15.373527
40
6.9187841
50
303.722467
51
306.3384655
0
ARC
8
DEFAULT_255_2_778
10
10.3143267
20
16.8447168
40
8.6918718
50
302.341187
51
303.7646184
0
ARC
8
DEFAULT_255_2_778
10
14.9837184
20
9.4641918
40
0.0418288
50
117.925527
51
125.1631203
0
ARC
8
DEFAULT_255_2_778
10
14.9443724
20
9.5201837
40
0.0266053
50
293.8475276
51
304.9905972
0
ARC
8
DEFAULT_255_2_778
10
14.9651444
20
9.4736968
40
0.0243119
50
114.3277417
51
126.6589129
0
ARC
8
DEFAULT_255_2_778
10
14.9361136
20
9.5127031
40
0.0243119
50
294.3277417
51
306.6589129
0
ARC
8
DEFAULT_255_2_778
10
14.6949806
20
9.8455314
40
0.4348418
50
303.8036219
51
305.2793018
0
ARC
8
DEFAULT_255_2_778
10
14.8607858
20
9.5982981
40
0.1371582
50
299.8245842
51
303.7084254
0
ARC
8
DEFAULT_255_2_778
10
14.8868946
20
9.5533722
40
0.0851981
50
297.5715979
51
299.6180996
0
ARC
8
DEFAULT_255_2_778
10
15.2499446
20
8.9283159
40
0.6377418
50
120.4934447
51
124.7286583
0
ARC
8
DEFAULT_255_2_778
10
9.8335917
20
17.5422876
40
9.5382734
50
299.7145822
51
301.9895349
0
ARC
8
DEFAULT_255_2_778
10
7.8074278
20
21.0374034
40
13.5781561
50
299.7149928
51
299.8296798
0
ARC
8
DEFAULT_255_2_778
10
13.912679
20
9.7873448
40
0.7790887
50
294.6671762
51
298.9865702
0
ARC
8
DEFAULT_255_2_778
10
8.7519584
20
7.6663676
40
5.6649179
50
14.4435955
51
26.9712095
0
ARC
8
DEFAULT_255_2_778
10
16.9477323
20
12.0695937
40
3.6386841
50
208.0794452
51
208.9239574
0
LINE
8
DEFAULT_255_2_778
10
13.7373367
20
10.3568819
11
13.7341057
21
10.3629059
0
ARC
8
DEFAULT_255_2_778
10
12.1016898
20
9.5062663
40
1.8435327
50
27.6890487
51
31.0106632
0
ARC
8
DEFAULT_255_2_778
10
13.166773
20
10.2048719
40
0.5729486
50
26.0015486
51
32.4636913
0
ARC
8
DEFAULT_255_2_778
10
12.3693618
20
9.7101101
40
1.5113577
50
32.0627412
51
32.7740683
0
ARC
8
DEFAULT_255_2_778
10
9.5676929
20
8.176648
40
4.7026341
50
30.0040081
51
32.7108506
0
ARC
8
DEFAULT_255_2_778
10
8.8722726
20
7.7527087
40
5.5168963
50
32.5124997
51
45.5594849
0
ARC
8
DEFAULT_255_2_778
10
8.6582399
20
7.5759768
40
5.7930108
50
45.2719427
51
49.6866564
0
ARC
8
DEFAULT_255_2_778
10
9.0974149
20
8.1483408
40
5.0713398
50
52.306388
51
54.9943033
0
ARC
8
DEFAULT_255_2_778
10
8.8790092
20
7.8590063
40
5.4329064
50
56.8748319
51
60.9264874
0
ARC
8
DEFAULT_255_2_778
10
8.1913341
20
6.6421638
40
6.8305929
50
60.8449211
51
61.00118
0
ARC
8
DEFAULT_255_2_778
10
9.2255243
20
8.5312895
40
4.6769544
50
60.8627622
51
63.911878
0
ARC
8
DEFAULT_255_2_778
10
11.7914868
20
13.8139929
40
1.1960741
50
244.2841553
51
244.8003089
0
ARC
8
DEFAULT_255_2_778
10
12.0868045
20
14.4222374
40
1.8722182
50
243.1709603
51
244.21847
0
ARC
8
DEFAULT_255_2_778
10
24.1737131
20
38.2635224
40
28.6023546
50
243.0321747
51
243.1197683
0
ARC
8
DEFAULT_255_2_778
10
9.1032977
20
8.4776399
40
4.7795626
50
66.8044182
51
69.6727649
0
ARC
8
DEFAULT_255_2_778
10
9.0715034
20
8.6419715
40
4.6344005
50
71.5767865
51
74.5662436
0
ARC
8
DEFAULT_255_2_778
10
8.7444466
20
7.5688103
40
5.7559764
50
74.2709162
51
84.1149011
0
ARC
8
DEFAULT_255_2_778
10
8.7682813
20
7.7168969
40
5.6062329
50
84.2020283
51
87.8391577
0
ARC
8
DEFAULT_255_2_778
10
8.768333
20
7.7181056
40
5.6050232
50
87.8392198
51
90.0000221
0
ARC
8
DEFAULT_255_2_778
10
8.7681817
20
7.7209393
40
5.6021896
50
89.9984753
51
108.7649915
0
ARC
8
DEFAULT_255_2_778
10
8.7355754
20
7.7476101
40
5.5664919
50
108.5355239
51
111.0065501
0
ARC
8
DEFAULT_255_2_778
10
7.4479715
20
10.9816618
40
2.0862408
50
109.8336776
51
113.1144164
0
ARC
8
DEFAULT_255_2_778
10
9.3250395
20
6.5632408
40
6.8868458
50
113.0466035
51
113.914791
0
ARC
8
DEFAULT_255_2_778
10
-10.8716044
20
52.3708347
40
43.1755342
50
293.7509134
51
293.7732971
0
ARC
8
DEFAULT_255_2_778
10
8.9445312
20
7.4721237
40
5.9038712
50
116.6009798
51
135.0705172
0
ARC
8
DEFAULT_255_2_778
10
8.6190875
20
7.8130236
40
5.4327211
50
135.1918966
51
141.470644
0
ARC
8
DEFAULT_255_2_778
10
7.1843102
20
8.9044211
40
3.6306818
50
140.8400741
51
144.6030356
0
ARC
8
DEFAULT_255_2_778
10
9.1268462
20
7.4228827
40
6.0728804
50
143.824669
51
148.3438936
0
ARC
8
DEFAULT_255_2_778
10
8.0363052
20
8.0810431
40
4.7991969
50
148.1994069
51
152.5190519
0
ARC
8
DEFAULT_255_2_778
10
8.7310735
20
7.6899273
40
5.5961145
50
152.2489535
51
168.5811
0
ARC
8
DEFAULT_255_2_778
10
-20.6270116
20
13.3758619
40
24.3077341
50
349.1350716
51
349.1443318
0
ARC
8
DEFAULT_255_2_778
10
8.5731247
20
7.7043999
40
5.4384045
50
168.4424934
51
172.8569445
0
ARC
8
DEFAULT_255_2_778
10
8.7520496
20
7.674678
40
5.6193938
50
174.2297527
51
179.9856054
0
ARC
8
DEFAULT_255_2_778
10
8.7559157
20
7.67456
40
5.62326
50
179.9844134
51
181.3115506
0
ARC
8
DEFAULT_255_2_778
10
8.6964549
20
7.6667442
40
5.5636395
50
181.2450983
51
198.4155949
0
ARC
8
DEFAULT_255_2_778
10
2.6446838
20
18.551245
40
12.6657083
50
271.9587199
51
273.4991941
0
ARC
8
DEFAULT_255_2_778
10
2.7487267
20
15.464918
40
9.5776286
50
270.0626158
51
271.9677344
0
LINE
8
DEFAULT_255_2_778
10
2.7591937
20
5.8872949
11
2.7568428
21
5.8872946
0
ARC
8
DEFAULT_255_2_778
10
2.7545444
20
13.5073362
40
7.620042
50
268.7514545
51
270.0172823
0
ARC
8
DEFAULT_255_2_778
10
2.7448337
20
12.9574933
40
7.0701184
50
268.6456679
51
268.7330385
0
ARC
8
DEFAULT_255_2_778
10
2.7262466
20
12.6299672
40
6.7422532
50
266.8639377
51
268.7377928
0
ARC
8
DEFAULT_255_2_778
10
2.6546557
20
11.330857
40
5.4411719
50
264.7935627
51
266.8682854
0
ARC
8
DEFAULT_255_2_778
10
2.550433
20
10.1968099
40
4.3023461
50
262.3324052
51
264.8053383
0
ARC
8
DEFAULT_255_2_778
10
2.4153826
20
9.2006323
40
3.2970565
50
259.3887575
51
262.3485176
0
ARC
8
DEFAULT_255_2_778
10
2.2570869
20
8.3602336
40
2.4418804
50
255.9032166
51
259.4083301
0
ARC
8
DEFAULT_255_2_778
10
2.1147829
20
7.7875731
40
1.8518061
50
253.2142236
51
255.858076
0
ARC
8
DEFAULT_255_2_778
10
1.9824602
20
7.3537397
40
1.3982444
50
249.3047623
51
253.2714296
0
ARC
8
DEFAULT_255_2_778
10
1.8372545
20
6.9699723
40
0.9879249
50
245.0201777
51
249.3171648
0
ARC
8
DEFAULT_255_2_778
10
1.6985003
20
6.6737497
40
0.6608167
50
239.8497951
51
245.0791453
0
ARC
8
DEFAULT_255_2_778
10
1.5661962
20
6.4468081
40
0.3981257
50
234.1146889
51
239.9101371
0
ARC
8
DEFAULT_255_2_778
10
1.79678
20
5.9389563
40
0.4995841
50
149.8266176
51
158.2291286
0
ARC
8
DEFAULT_255_2_778
10
2.1989428
20
5.7083036
40
0.9631914
50
142.9711645
51
149.9892054
0
ARC
8
DEFAULT_255_2_778
10
2.7168447
20
5.3214784
40
1.609605
50
137.601408
51
143.0805909
0
ARC
8
DEFAULT_255_2_778
10
3.3343117
20
4.7615324
40
2.4431516
50
133.4142889
51
137.6681004
0
ARC
8
DEFAULT_255_2_778
10
4.0902267
20
3.9636303
40
3.5422671
50
129.6028861
51
133.4260334
0
ARC
8
DEFAULT_255_2_778
10
5.0171556
20
2.8467983
40
4.9936483
50
126.4668756
51
129.6286137
0
ARC
8
DEFAULT_255_2_778
10
6.0843747
20
1.4062789
40
6.7864253
50
123.8313682
51
126.484387
0
ARC
8
DEFAULT_255_2_778
10
6.6962885
20
0.5088348
40
7.8726021
50
123.7279113
51
123.8943361
0
ARC
8
DEFAULT_255_2_778
10
8.7831138
20
7.8381247
40
6.5052311
50
181.365092
51
186.9022787
0
ARC
8
DEFAULT_255_2_778
10
8.4250977
20
7.8363785
40
6.1472788
50
180.0007307
51
181.4283163
0
ARC
8
DEFAULT_255_2_778
10
8.4304723
20
7.8363001
40
6.1526533
50
179.8246907
51
179.9999998
0
ARC
8
DEFAULT_255_2_778
10
8.3629797
20
7.8369211
40
6.0851589
50
175.7786366
51
179.8285934
0
ARC
8
DEFAULT_255_2_778
10
8.1373362
20
-1.7087481
40
11.576387
50
120.3137601
51
122.7654147
0
ARC
8
DEFAULT_255_2_778
10
6.5618142
20
0.7350467
40
8.6687425
50
122.7504602
51
125.779924
0
ARC
8
DEFAULT_255_2_778
10
5.219084
20
2.5954564
40
6.3743918
50
125.765696
51
129.4290123
0
ARC
8
DEFAULT_255_2_778
10
4.0775598
20
3.9793455
40
4.5804533
50
129.3941255
51
134.1930185
0
ARC
8
DEFAULT_255_2_778
10
3.1042858
20
4.9762567
40
3.1872261
50
134.1407323
51
140.5839508
0
ARC
8
DEFAULT_255_2_778
10
2.3037631
20
5.6299134
40
2.153743
50
140.4960754
51
149.6018488
0
ARC
8
DEFAULT_255_2_778
10
1.6874283
20
5.9878117
40
1.4410405
50
149.4757694
51
163.056279
0
ARC
8
DEFAULT_255_2_778
10
1.3291574
20
6.0993103
40
1.0658296
50
163.1770684
51
179.7658019
0
ARC
8
DEFAULT_255_2_778
10
1.2604067
20
6.1044948
40
0.9970704
50
180.0475725
51
196.767579
0
ARC
8
DEFAULT_255_2_778
10
1.2964687
20
6.1179365
40
1.0354797
50
196.9040686
51
234.2751321
0
ARC
8
DEFAULT_255_2_778
10
1.6349501
20
6.5588901
40
1.5911906
50
233.65148
51
246.8264593
0
ARC
8
DEFAULT_255_2_778
10
1.9799901
20
7.3486308
40
2.4530005
50
246.6763984
51
255.330247
0
ARC
8
DEFAULT_255_2_778
10
2.3036179
20
8.5638609
40
3.7105777
50
255.2480337
51
261.4430959
0
ARC
8
DEFAULT_255_2_778
10
2.520293
20
9.9207721
40
5.0846391
50
261.3037483
51
264.3140545
0
ARC
8
DEFAULT_255_2_778
10
2.753934
20
13.1332322
40
8.3048848
50
264.9059006
51
267.4520153
0
ARC
8
DEFAULT_255_2_778
10
2.7862597
20
13.865
40
9.0373661
50
267.4535226
51
270.0192222
0
ARC
8
DEFAULT_255_2_778
10
2.7883059
20
14.5212579
40
9.6936236
50
270.0058267
51
271.381002
0
ARC
8
DEFAULT_255_2_778
10
2.6707896
20
18.5534501
40
13.7274919
50
271.4657449
51
272.016682
0
ARC
8
DEFAULT_255_2_778
10
2.663482
20
18.7448351
40
13.9190153
50
272.0190206
51
273.6497627
0
ARC
8
DEFAULT_255_2_778
10
4.2942196
20
5.0836763
40
0.4661845
50
206.282646
51
213.3037577
0
ARC
8
DEFAULT_255_2_778
10
0.2700628
20
2.4957409
40
4.3183197
50
32.3581721
51
32.6847603
0
ARC
8
DEFAULT_255_2_778
10
8.795268
20
7.6926935
40
5.6671798
50
210.6107403
51
244.3252981
0
ARC
8
DEFAULT_255_2_778
10
8.7570192
20
7.6293264
40
5.5935018
50
244.3971844
51
257.2266972
0
ARC
8
DEFAULT_255_2_778
10
8.3243432
20
5.2290194
40
3.1553436
50
258.4065932
51
260.184202
0
ARC
8
DEFAULT_255_2_778
10
8.2160686
20
4.6150718
40
2.5319256
50
260.2299824
51
260.9665661
0
ARC
8
DEFAULT_255_2_778
10
8.8662598
20
8.3934902
40
6.3657545
50
260.526662
51
262.8926156
0
ARC
8
DEFAULT_255_2_778
10
8.77766
20
7.5737147
40
5.5406766
50
264.1240054
51
270.0064133
0
ARC
8
DEFAULT_255_2_778
10
8.7776348
20
7.6569401
40
5.6239021
50
270.0065756
51
274.8470125
0
ARC
8
DEFAULT_255_2_778
10
9.2518022
20
2.1273572
40
0.0742144
50
270.7927413
51
277.5341629
0
ARC
8
DEFAULT_255_2_778
10
9.2108186
20
2.4785562
40
0.4277894
50
276.808425
51
277.10304
0
ARC
8
DEFAULT_255_2_778
10
9.2764907
20
1.9659823
40
0.0889893
50
91.2631845
51
98.2532277
0
ARC
8
DEFAULT_255_2_778
10
8.5780225
20
9.2826204
40
7.2611529
50
275.5044065
51
278.2466882
0
ARC
8
DEFAULT_255_2_778
10
9.3317689
20
4.1627601
40
2.086152
50
277.9285585
51
281.2016169
0
ARC
8
DEFAULT_255_2_778
10
8.7637422
20
7.7267451
40
5.6941918
50
279.841677
51
284.1923142
0
ARC
8
DEFAULT_255_2_778
10
9.048145
20
6.8242658
40
4.7480899
50
286.8634775
51
291.8038478
0
ARC
8
DEFAULT_255_2_778
10
8.9015334
20
7.3924758
40
5.3283399
50
292.4723977
51
299.1669124
0
ARC
8
DEFAULT_255_2_778
10
11.120182
20
3.4638117
40
0.8168602
50
297.5761692
51
301.5414695
0
ARC
8
DEFAULT_255_2_778
10
5.4288553
20
12.7932327
40
11.7452285
50
301.3957812
51
301.611455
0
ARC
8
DEFAULT_255_2_778
10
12.9951541
20
0.4814542
40
2.7056944
50
121.3288802
51
121.4067454
0
ARC
8
DEFAULT_255_2_778
10
8.8961318
20
7.4492009
40
5.378791
50
300.0344672
51
300.1810087
0
ARC
8
DEFAULT_255_2_778
10
8.3101257
20
8.4448264
40
6.5340586
50
300.2339176
51
301.9274403
0
ARC
8
DEFAULT_255_2_778
10
8.720599
20
7.7428082
40
5.7212118
50
302.1565991
51
307.3332693
0
ARC
8
DEFAULT_255_2_778
10
19.8121159
20
-5.6418205
40
11.661494
50
129.4672465
51
129.7651649
0
ARC
8
DEFAULT_255_2_778
10
10.7791251
20
5.3699643
40
2.5813081
50
308.8870917
51
313.1992948
0
ARC
8
DEFAULT_255_2_778
10
8.7839754
20
7.6835155
40
5.6344686
50
314.4843531
51
337.7223216
0
ARC
8
DEFAULT_255_2_778
10
8.8135417
20
7.6651698
40
5.6001573
50
337.7813333
51
351.7310444
0
ARC
8
DEFAULT_255_2_778
10
8.7139977
20
7.6821128
40
5.7011038
50
351.706418
51
354.3219097
0
ARC
8
DEFAULT_255_2_778
10
8.6163947
20
7.6895908
40
5.7989682
50
354.3437991
51
0.0021841
0
ARC
8
DEFAULT_255_2_778
10
8.6078273
20
7.6898376
40
5.8075357
50
359.999746
51
0.4371055
0
ARC
8
DEFAULT_255_2_778
10
8.5944444
20
7.6897114
40
5.820919
50
0.4373434
51
2.7151333
0
ARC
8
DEFAULT_255_2_778
10
6.1324763
20
24.0067882
40
18.0505553
50
297.2909759
51
299.3226703
0
ARC
8
DEFAULT_255_2_778
10
14.9377915
20
8.560252
40
0.270477
50
298.8082563
51
304.6772345
0
ARC
8
DEFAULT_255_2_778
10
17.5754058
20
4.6174922
40
4.4732236
50
123.6936932
51
123.7274456
0
ARC
8
DEFAULT_255_2_778
10
15.1963538
20
8.1960525
40
0.1761172
50
113.4284775
51
125.5839054
0
ARC
8
DEFAULT_255_2_778
10
18.1537469
20
2.9281813
40
6.2164611
50
119.0558425
51
119.1436046
0
ARC
8
DEFAULT_255_2_778
10
14.8632534
20
8.8537923
40
0.5614615
50
298.9059601
51
300.6254747
0
ARC
8
DEFAULT_255_2_778
10
15.0625066
20
8.5183613
40
0.1713144
50
300.4301955
51
305.7631659
0
ARC
8
DEFAULT_255_2_778
10
9.3788468
20
18.2928345
40
11.4773391
50
300.2603881
51
302.9347749
0
ARC
8
DEFAULT_255_2_778
10
11.0463674
20
15.7223493
40
8.4133526
50
302.9211412
51
306.1707883
0
ARC
8
DEFAULT_255_2_778
10
12.4708245
20
13.7798651
40
6.004555
50
306.1377134
51
310.4160238
0
ARC
8
DEFAULT_255_2_778
10
13.6845853
20
12.3595524
40
4.1362702
50
310.3707286
51
316.0527585
0
ARC
8
DEFAULT_255_2_778
10
14.6672899
20
11.4163093
40
2.7741383
50
315.9933301
51
323.6184926
0
ARC
8
DEFAULT_255_2_778
10
15.4386057
20
10.8530297
40
1.8190532
50
323.4917171
51
334.7894951
0
ARC
8
DEFAULT_255_2_778
10
16.0048408
20
10.5915661
40
1.1953924
50
334.5677615
51
353.7944771
0
ARC
8
DEFAULT_255_2_778
10
16.2209682
20
10.5690621
40
0.9780994
50
353.7364744
51
358.3103968
0
ARC
8
DEFAULT_255_2_778
10
16.221714
20
10.5690493
40
0.9773535
50
358.3098549
51
0.0005167
0
ARC
8
DEFAULT_255_2_778
10
16.2217869
20
10.5691014
40
0.9772806
50
359.9974659
51
16.8663597
0
ARC
8
DEFAULT_255_2_778
10
9.8665331
20
7.604256
40
3.4845982
50
353.7061856
51
357.5821236
0
ARC
8
DEFAULT_255_2_778
10
8.7784555
20
7.6746157
40
4.5740973
50
340.0595107
51
354.3243257
0
ARC
8
DEFAULT_255_2_778
10
8.7883484
20
7.6752488
40
4.565015
50
317.5336919
51
340.0096945
0
ARC
8
DEFAULT_255_2_778
10
8.7594252
20
7.6944568
40
4.5993223
50
283.462266
51
317.6004444
0
ARC
8
DEFAULT_255_2_778
10
8.7777417
20
7.6443093
40
4.5462928
50
269.9857674
51
283.3849024
0
ARC
8
DEFAULT_255_2_778
10
8.7768046
20
7.6994191
40
4.6014022
50
266.5908706
51
269.9976061
0
ARC
8
DEFAULT_255_2_778
10
8.779042
20
7.7384898
40
4.6405369
50
264.2563704
51
266.591981
0
ARC
8
DEFAULT_255_2_778
10
8.7605975
20
7.6489027
40
4.5495635
50
249.5556248
51
264.3745782
0
ARC
8
DEFAULT_255_2_778
10
8.7700275
20
7.6573752
40
4.5608
50
223.9910951
51
249.4817991
0
ARC
8
DEFAULT_255_2_778
10
8.8196687
20
7.7116158
40
4.634189
50
215.4131582
51
224.0472904
0
ARC
8
DEFAULT_255_2_778
10
1.2988361
20
30.1600816
40
25.4111585
50
278.4726081
51
280.2678598
0
ARC
8
DEFAULT_255_2_778
10
0.621077
20
33.9042517
40
29.2161772
50
280.2668903
51
282.1119423
0
ARC
8
DEFAULT_255_2_778
10
-0.1325374
20
37.414373
40
32.8062868
50
282.1125303
51
284.2172704
0
ARC
8
DEFAULT_255_2_778
10
-0.5957732
20
39.2796061
40
34.7281622
50
284.2023344
51
284.9410678
0
ARC
8
DEFAULT_255_2_778
10
10.1288176
20
6.9704965
40
2.164621
50
186.6200175
51
215.108999
0
ARC
8
DEFAULT_255_2_778
10
-0.2859513
20
38.0253365
40
32.3769657
50
282.7105475
51
284.7890579
0
ARC
8
DEFAULT_255_2_778
10
0.3715616
20
35.1081862
40
29.3866331
50
280.9002718
51
282.7114218
0
ARC
8
DEFAULT_255_2_778
10
1.0077563
20
31.8072024
40
26.0249019
50
279.2705934
51
280.8991708
0
ARC
8
DEFAULT_255_2_778
10
1.577675
20
28.3026199
40
22.474282
50
277.483213
51
279.2759576
0
ARC
8
DEFAULT_255_2_778
10
8.7206821
20
7.6763021
40
4.52982
50
179.99876
51
201.4506267
0
ARC
8
DEFAULT_255_2_778
10
8.7226511
20
7.6764004
40
4.5317889
50
177.2641791
51
180.0000041
0
ARC
8
DEFAULT_255_2_778
10
8.7240889
20
7.6763269
40
4.5332285
50
174.715409
51
177.2641187
0
ARC
8
DEFAULT_255_2_778
10
4.2366187
20
8.0952255
40
0.0265254
50
165.5656784
51
182.9724858
0
ARC
8
DEFAULT_255_2_778
10
4.2244736
20
8.0976808
40
0.0141665
50
151.4562514
51
162.9375541
0
ARC
8
DEFAULT_255_2_778
10
4.2330251
20
8.106255
40
0.0210735
50
155.6315528
51
184.9135982
0
ARC
8
DEFAULT_255_2_778
10
4.2842
20
8.1139204
40
0.0703786
50
172.0504021
51
179.1618522
0
ARC
8
DEFAULT_255_2_778
10
4.6395846
20
8.0700219
40
0.4284568
50
172.514739
51
172.8091413
0
ARC
8
DEFAULT_255_2_778
10
4.1313492
20
8.1386157
40
0.0844027
50
351.2921169
51
358.6654153
0
ARC
8
DEFAULT_255_2_778
10
8.7078899
20
7.6950341
40
4.5138159
50
158.9415116
51
174.3854013
0
ARC
8
DEFAULT_255_2_778
10
8.7246863
20
7.6890246
40
4.5316499
50
157.9421777
51
158.9469121
0
ARC
8
DEFAULT_255_2_778
10
8.7604554
20
7.6865393
40
4.5657478
50
133.1056265
51
158.0818408
0
ARC
8
DEFAULT_255_2_778
10
8.7860028
20
7.6685836
40
4.5963193
50
103.2153282
51
133.1851839
0
ARC
8
DEFAULT_255_2_778
10
8.7708518
20
7.712066
40
4.5505272
50
89.9869168
51
103.1547751
0
ARC
8
DEFAULT_255_2_778
10
8.7716883
20
7.65916
40
4.6034331
50
86.4493016
51
89.9974786
0
ARC
8
DEFAULT_255_2_778
10
8.7694379
20
7.6210699
40
4.6415895
50
84.3174961
51
86.4506948
0
ARC
8
DEFAULT_255_2_778
10
8.7732623
20
7.6682527
40
4.5942599
50
69.8258838
51
84.306693
0
ARC
8
DEFAULT_255_2_778
10
8.7914712
20
7.7255263
40
4.5342213
50
55.5927649
51
69.7922662
0
ARC
8
DEFAULT_255_2_778
10
8.7503237
20
7.6620123
40
4.6098746
50
39.000793
51
55.6168963
0
ARC
8
DEFAULT_255_2_778
10
8.7677704
20
7.6727579
40
4.5895543
50
11.5099639
51
39.0336128
0
ARC
8
DEFAULT_255_2_778
10
5.3315384
20
25.3185289
40
18.5157357
50
292.5422711
51
295.3706841
0
ARC
8
DEFAULT_255_2_778
10
1.7931579
20
33.7245434
40
27.6360335
50
291.7400302
51
292.636533
0
ARC
8
DEFAULT_255_2_778
10
10.1409135
20
6.9755916
40
2.1748055
50
1.3347281
51
29.7313091
0
ARC
8
DEFAULT_255_2_778
10
2.5873563
20
31.6444773
40
26.470487
50
291.5612128
51
293.987575
0
LINE
8
DEFAULT_255_2_778
10
14.537929
20
9.2447499
11
14.442129
21
9.1905499
0
LINE
8
DEFAULT_255_2_778
10
14.442129
20
9.1905499
11
14.290229
21
9.1058499
0
LINE
8
DEFAULT_255_2_778
10
13.800729
20
10.2356499
11
13.762929
21
10.3097499
0
LINE
8
DEFAULT_255_2_778
10
12.406129
20
11.9932499
11
12.268629
21
12.1070499
0
LINE
8
DEFAULT_255_2_778
10
12.268629
20
12.1070499
11
12.198229
21
12.1612499
0
LINE
8
DEFAULT_255_2_778
10
12.006629
20
12.3022499
11
11.847929
21
12.4089499
0
LINE
8
DEFAULT_255_2_778
10
11.202829
20
12.7713499
11
10.985829
21
12.8708499
0
LINE
8
DEFAULT_255_2_778
10
10.763629
20
12.9595499
11
10.536129
21
13.0388499
0
LINE
8
DEFAULT_255_2_778
10
6.517829
20
12.8520499
11
6.300929
21
12.7510499
0
LINE
8
DEFAULT_255_2_778
10
3.176929
20
8.3806499
11
3.161129
21
8.2396499
0
LINE
8
DEFAULT_255_2_778
10
3.549529
20
4.8540499
11
3.712229
21
4.8645499
0
LINE
8
DEFAULT_255_2_778
10
3.712229
20
4.8645499
11
3.876229
21
4.8772499
0
LINE
8
DEFAULT_255_2_778
10
7.520329
20
2.1742499
11
7.690229
21
2.1380499
0
LINE
8
DEFAULT_255_2_778
10
8.078629
20
2.0766499
11
8.210429
21
2.0621499
0
LINE
8
DEFAULT_255_2_778
10
10.159829
20
2.2063499
11
10.425529
21
2.2803499
0
LINE
8
DEFAULT_255_2_778
10
10.811729
20
2.4158499
11
10.938229
21
2.4687499
0
LINE
8
DEFAULT_255_2_778
10
12.190229
20
3.1937499
11
12.352929
21
3.3220499
0
LINE
8
DEFAULT_255_2_778
10
12.546129
20
3.4882499
11
12.640029
21
3.5750499
0
LINE
8
DEFAULT_255_2_778
10
12.640029
20
3.5750499
11
12.732129
21
3.6636499
0
LINE
8
DEFAULT_255_2_778
10
14.972329
20
8.2689499
11
15.068129
21
8.3232499
0
LINE
8
DEFAULT_255_2_778
10
17.157029
20
10.8526499
11
17.154329
21
10.8483499
0
LINE
8
DEFAULT_255_2_778
10
13.348629
20
7.4601499
11
13.348029
21
7.4572499
0
ARC
8
DEFAULT_255_2_778
10
14.9358288
20
9.5355298
40
0.0482714
50
294.2819502
51
306.7035213
0
ARC
8
DEFAULT_255_2_778
10
14.9644652
20
9.4893107
40
0.0075211
50
88.3687624
51
124.7391445
0
ARC
8
DEFAULT_255_2_778
10
14.9838695
20
9.4640504
40
0.0393669
50
126.9974807
51
135.7326257
0
LINE
8
DEFAULT_255_2_778
10
14.9556793
20
9.4915288
11
14.9556793
21
9.4915288
0
LINE
8
DEFAULT_255_2_778
10
12.4064793
20
11.9903288
11
12.7353793
21
11.6886288
0
LINE
8
DEFAULT_255_2_778
10
12.7353793
20
11.6886288
11
12.4064793
21
11.9903288
0
LINE
8
DEFAULT_255_2_778
10
12.4064793
20
11.9903288
11
12.4064793
21
11.9903288
0
LINE
8
DEFAULT_255_2_778
10
10.7620793
20
12.9565288
11
10.9842793
21
12.8679288
0
LINE
8
DEFAULT_255_2_778
10
10.9842793
20
12.8679288
11
10.7620793
21
12.9565288
0
LINE
8
DEFAULT_255_2_778
10
10.7620793
20
12.9565288
11
10.7620793
21
12.9565288
0
LINE
8
DEFAULT_255_2_778
10
10.3048793
20
13.1084288
11
10.5360793
21
13.0380288
0
LINE
8
DEFAULT_255_2_778
10
10.5360793
20
13.0380288
11
10.3048793
21
13.1084288
0
LINE
8
DEFAULT_255_2_778
10
10.3048793
20
13.1084288
11
10.3048793
21
13.1084288
0
LINE
8
DEFAULT_255_2_778
10
4.2639151
20
1.50272
11
3.5337151
21
1.71042
0
LINE
8
DEFAULT_255_2_778
10
3.5337151
20
1.71042
11
3.8459151
21
1.04552
0
LINE
8
DEFAULT_255_2_778
10
3.8459151
20
1.04552
11
3.2241151
21
0.81802
0
LINE
8
DEFAULT_255_2_778
10
3.2241151
20
0.81802
11
3.0469151
21
1.53152
0
LINE
8
DEFAULT_255_2_778
10
3.0469151
20
1.53152
11
2.6098151
21
0.89652
0
LINE
8
DEFAULT_255_2_778
10
2.6098151
20
0.89652
11
2.1049151
21
1.32282
0
LINE
8
DEFAULT_255_2_778
10
2.1049151
20
1.32282
11
2.7048151
21
1.87842
0
LINE
8
DEFAULT_255_2_778
10
2.7048151
20
1.87842
11
1.8864151
21
1.91812
0
LINE
8
DEFAULT_255_2_778
10
1.8864151
20
1.91812
11
1.8970151
21
1.98502
0
LINE
8
DEFAULT_255_2_778
10
1.8970151
20
1.98502
11
1.9981151
21
2.55602
0
LINE
8
DEFAULT_255_2_778
10
1.9981151
20
2.55602
11
2.7423151
21
2.36452
0
LINE
8
DEFAULT_255_2_778
10
2.7423151
20
2.36452
11
2.4100151
21
3.03122
0
LINE
8
DEFAULT_255_2_778
10
2.4100151
20
3.03122
11
3.0297151
21
3.26062
0
LINE
8
DEFAULT_255_2_778
10
3.0297151
20
3.26062
11
3.2265151
21
2.54622
0
LINE
8
DEFAULT_255_2_778
10
3.2265151
20
2.54622
11
3.6512151
21
3.16962
0
LINE
8
DEFAULT_255_2_778
10
3.6512151
20
3.16962
11
4.1608151
21
2.75952
0
LINE
8
DEFAULT_255_2_778
10
4.1608151
20
2.75952
11
3.5699151
21
2.20382
0
LINE
8
DEFAULT_255_2_778
10
3.5699151
20
2.20382
11
4.3796151
21
2.16762
0
LINE
8
DEFAULT_255_2_778
10
4.3796151
20
2.16762
11
4.2639151
21
1.50272
0
LINE
8
DEFAULT_255_2_778
10
11.7637111
20
15.0515734
11
12.0744111
21
14.3866734
0
LINE
8
DEFAULT_255_2_778
10
12.0744111
20
14.3866734
11
11.4547111
21
14.1591734
0
LINE
8
DEFAULT_255_2_778
10
11.4547111
20
14.1591734
11
11.2774111
21
14.8726734
0
LINE
8
DEFAULT_255_2_778
10
11.2774111
20
14.8726734
11
10.8382111
21
14.2376734
0
LINE
8
DEFAULT_255_2_778
10
10.8382111
20
14.2376734
11
10.3324111
21
14.6694734
0
LINE
8
DEFAULT_255_2_778
10
10.3324111
20
14.6694734
11
10.9340111
21
15.2251734
0
LINE
8
DEFAULT_255_2_778
10
10.9340111
20
15.2251734
11
10.1138111
21
15.2666734
0
LINE
8
DEFAULT_255_2_778
10
10.1138111
20
15.2666734
11
10.1265111
21
15.3317734
0
LINE
8
DEFAULT_255_2_778
10
10.1265111
20
15.3317734
11
10.2276111
21
15.9045734
0
LINE
8
DEFAULT_255_2_778
10
10.2276111
20
15.9045734
11
10.9700111
21
15.7114734
0
LINE
8
DEFAULT_255_2_778
10
10.9700111
20
15.7114734
11
10.6350111
21
16.3771734
0
LINE
8
DEFAULT_255_2_778
10
10.6350111
20
16.3771734
11
11.2568111
21
16.6046734
0
LINE
8
DEFAULT_255_2_778
10
11.2568111
20
16.6046734
11
11.4537111
21
15.8902734
0
LINE
8
DEFAULT_255_2_778
10
11.4537111
20
15.8902734
11
11.8786111
21
16.5078734
0
LINE
8
DEFAULT_255_2_778
10
11.8786111
20
16.5078734
11
12.3882111
21
16.0977734
0
LINE
8
DEFAULT_255_2_778
10
12.3882111
20
16.0977734
11
11.7974111
21
15.5420734
0
LINE
8
DEFAULT_255_2_778
10
11.7974111
20
15.5420734
11
12.6070111
21
15.5058734
0
LINE
8
DEFAULT_255_2_778
10
12.6070111
20
15.5058734
11
12.4914111
21
14.8464734
0
LINE
8
DEFAULT_255_2_778
10
12.4914111
20
14.8464734
11
11.7637111
21
15.0515734
0
LINE
8
DEFAULT_255_2_778
10
6.3434711
20
0.2591628
11
5.8574711
21
0.3967628
0
LINE
8
DEFAULT_255_2_778
10
5.8574711
20
0.3967628
11
6.0651711
21
-0.0459372
0
LINE
8
DEFAULT_255_2_778
10
6.0651711
20
-0.0459372
11
5.6513711
21
-0.1977372
0
LINE
8
DEFAULT_255_2_778
10
5.6513711
20
-0.1977372
11
5.5338711
21
0.2774628
0
LINE
8
DEFAULT_255_2_778
10
5.5338711
20
0.2774628
11
5.2428711
21
-0.1453372
0
LINE
8
DEFAULT_255_2_778
10
5.2428711
20
-0.1453372
11
4.9049711
21
0.1403628
0
LINE
8
DEFAULT_255_2_778
10
4.9049711
20
0.1403628
11
5.3060711
21
0.5089628
0
LINE
8
DEFAULT_255_2_778
10
5.3060711
20
0.5089628
11
4.7610711
21
0.5353628
0
LINE
8
DEFAULT_255_2_778
10
4.7610711
20
0.5353628
11
4.7681711
21
0.5787628
0
LINE
8
DEFAULT_255_2_778
10
4.7681711
20
0.5787628
11
4.8350711
21
0.9597628
0
LINE
8
DEFAULT_255_2_778
10
4.8350711
20
0.9597628
11
5.3298711
21
0.8314628
0
LINE
8
DEFAULT_255_2_778
10
5.3298711
20
0.8314628
11
5.1094711
21
1.2759628
0
LINE
8
DEFAULT_255_2_778
10
5.1094711
20
1.2759628
11
5.5214711
21
1.4278628
0
LINE
8
DEFAULT_255_2_778
10
5.5214711
20
1.4278628
11
5.6531711
21
0.9507628
0
LINE
8
DEFAULT_255_2_778
10
5.6531711
20
0.9507628
11
5.9349711
21
1.3645628
0
LINE
8
DEFAULT_255_2_778
10
5.9349711
20
1.3645628
11
6.2746711
21
1.0920628
0
LINE
8
DEFAULT_255_2_778
10
6.2746711
20
1.0920628
11
5.8778711
21
0.7198628
0
LINE
8
DEFAULT_255_2_778
10
5.8778711
20
0.7198628
11
6.4162711
21
0.6981628
0
LINE
8
DEFAULT_255_2_778
10
6.4162711
20
0.6981628
11
6.3434711
21
0.2591628
0
LINE
8
DEFAULT_255_2_778
10
14.7246711
20
13.5333628
11
14.2386711
21
13.6708628
0
LINE
8
DEFAULT_255_2_778
10
14.2386711
20
13.6708628
11
14.4463711
21
13.2300628
0
LINE
8
DEFAULT_255_2_778
10
14.4463711
20
13.2300628
11
14.0325711
21
13.0782628
0
LINE
8
DEFAULT_255_2_778
10
14.0325711
20
13.0782628
11
13.9150711
21
13.5544628
0
LINE
8
DEFAULT_255_2_778
10
13.9150711
20
13.5544628
11
13.6240711
21
13.1316628
0
LINE
8
DEFAULT_255_2_778
10
13.6240711
20
13.1316628
11
13.2879711
21
13.4190628
0
LINE
8
DEFAULT_255_2_778
10
13.2879711
20
13.4190628
11
13.6848711
21
13.7857628
0
LINE
8
DEFAULT_255_2_778
10
13.6848711
20
13.7857628
11
13.1392711
21
13.8127628
0
LINE
8
DEFAULT_255_2_778
10
13.1392711
20
13.8127628
11
13.1464711
21
13.8576628
0
LINE
8
DEFAULT_255_2_778
10
13.1464711
20
13.8576628
11
13.2152711
21
14.2370628
0
LINE
8
DEFAULT_255_2_778
10
13.2152711
20
14.2370628
11
13.7100711
21
14.1087628
0
LINE
8
DEFAULT_255_2_778
10
13.7100711
20
14.1087628
11
13.4877711
21
14.5532628
0
LINE
8
DEFAULT_255_2_778
10
13.4877711
20
14.5532628
11
13.9015711
21
14.7051628
0
LINE
8
DEFAULT_255_2_778
10
13.9015711
20
14.7051628
11
14.0317711
21
14.2281628
0
LINE
8
DEFAULT_255_2_778
10
14.0317711
20
14.2281628
11
14.3135711
21
14.6419628
0
LINE
8
DEFAULT_255_2_778
10
14.3135711
20
14.6419628
11
14.6532711
21
14.3709628
0
LINE
8
DEFAULT_255_2_778
10
14.6532711
20
14.3709628
11
14.2611711
21
13.9987628
0
LINE
8
DEFAULT_255_2_778
10
14.2611711
20
13.9987628
11
14.7977711
21
13.9722628
0
LINE
8
DEFAULT_255_2_778
10
14.7977711
20
13.9722628
11
14.7246711
21
13.5333628
0
LINE
8
DEFAULT_255_2_778
10
3.8865711
20
12.9644628
11
3.4005711
21
13.1020628
0
LINE
8
DEFAULT_255_2_778
10
3.4005711
20
13.1020628
11
3.6063711
21
12.6612628
0
LINE
8
DEFAULT_255_2_778
10
3.6063711
20
12.6612628
11
3.1944711
21
12.5093628
0
LINE
8
DEFAULT_255_2_778
10
3.1944711
20
12.5093628
11
3.0769711
21
12.9845628
0
LINE
8
DEFAULT_255_2_778
10
3.0769711
20
12.9845628
11
2.7848711
21
12.5569628
0
LINE
8
DEFAULT_255_2_778
10
2.7848711
20
12.5569628
11
2.4488711
21
12.8443628
0
LINE
8
DEFAULT_255_2_778
10
2.4488711
20
12.8443628
11
2.8499711
21
13.2128628
0
LINE
8
DEFAULT_255_2_778
10
2.8499711
20
13.2128628
11
2.3043711
21
13.2382628
0
LINE
8
DEFAULT_255_2_778
10
2.3043711
20
13.2382628
11
2.3114711
21
13.2832628
0
LINE
8
DEFAULT_255_2_778
10
2.3114711
20
13.2832628
11
2.3784711
21
13.6626628
0
LINE
8
DEFAULT_255_2_778
10
2.3784711
20
13.6626628
11
2.8732711
21
13.5362628
0
LINE
8
DEFAULT_255_2_778
10
2.8732711
20
13.5362628
11
2.6528711
21
13.9788628
0
LINE
8
DEFAULT_255_2_778
10
2.6528711
20
13.9788628
11
3.0647711
21
14.1307628
0
LINE
8
DEFAULT_255_2_778
10
3.0647711
20
14.1307628
11
3.1965711
21
13.6536628
0
LINE
8
DEFAULT_255_2_778
10
3.1965711
20
13.6536628
11
3.4783711
21
14.0690628
0
LINE
8
DEFAULT_255_2_778
10
3.4783711
20
14.0690628
11
3.8180711
21
13.7965628
0
LINE
8
DEFAULT_255_2_778
10
3.8180711
20
13.7965628
11
3.4211711
21
13.4243628
0
LINE
8
DEFAULT_255_2_778
10
3.4211711
20
13.4243628
11
3.9595711
21
13.3978628
0
LINE
8
DEFAULT_255_2_778
10
3.9595711
20
13.3978628
11
3.8865711
21
12.9644628
0
LINE
8
DEFAULT_255_2_778
10
16.2460711
20
2.5134628
11
15.6586711
21
2.6814628
0
LINE
8
DEFAULT_255_2_778
10
15.6586711
20
2.6814628
11
15.9079711
21
2.1469628
0
LINE
8
DEFAULT_255_2_778
10
15.9079711
20
2.1469628
11
15.4091711
21
1.9628628
0
LINE
8
DEFAULT_255_2_778
10
15.4091711
20
1.9628628
11
15.2662711
21
2.5369628
0
LINE
8
DEFAULT_255_2_778
10
15.2662711
20
2.5369628
11
14.9138711
21
2.0236628
0
LINE
8
DEFAULT_255_2_778
10
14.9138711
20
2.0236628
11
14.5056711
21
2.3723628
0
LINE
8
DEFAULT_255_2_778
10
14.5056711
20
2.3723628
11
14.9897711
21
2.8168628
0
LINE
8
DEFAULT_255_2_778
10
14.9897711
20
2.8168628
11
14.3304711
21
2.8494628
0
LINE
8
DEFAULT_255_2_778
10
14.3304711
20
2.8494628
11
14.3394711
21
2.9036628
0
LINE
8
DEFAULT_255_2_778
10
14.3394711
20
2.9036628
11
14.4206711
21
3.3624628
0
LINE
8
DEFAULT_255_2_778
10
14.4206711
20
3.3624628
11
15.0204711
21
3.2071628
0
LINE
8
DEFAULT_255_2_778
10
15.0204711
20
3.2071628
11
14.7559711
21
3.7455628
0
LINE
8
DEFAULT_255_2_778
10
14.7559711
20
3.7455628
11
15.2546711
21
3.9297628
0
LINE
8
DEFAULT_255_2_778
10
15.2546711
20
3.9297628
11
15.4134711
21
3.3516628
0
LINE
8
DEFAULT_255_2_778
10
15.4134711
20
3.3516628
11
15.7573711
21
3.8543628
0
LINE
8
DEFAULT_255_2_778
10
15.7573711
20
3.8543628
11
16.1674711
21
3.5254628
0
LINE
8
DEFAULT_255_2_778
10
16.1674711
20
3.5254628
11
15.6922711
21
3.0756628
0
LINE
8
DEFAULT_255_2_778
10
15.6922711
20
3.0756628
11
16.3426711
21
3.0486628
0
LINE
8
DEFAULT_255_2_778
10
16.3426711
20
3.0486628
11
16.2460711
21
2.5134628
0
LINE
8
DEFAULT_255_2_778
10
10.7681711
20
7.1481628
11
11.9322711
21
7.0951628
0
LINE
8
DEFAULT_255_2_778
10
11.9322711
20
7.0951628
11
11.7661711
21
6.1485628
0
LINE
8
DEFAULT_255_2_778
10
11.7661711
20
6.1485628
11
10.7183711
21
6.4448628
0
LINE
8
DEFAULT_255_2_778
10
10.7183711
20
6.4448628
11
11.1663711
21
5.4923628
0
LINE
8
DEFAULT_255_2_778
10
11.1663711
20
5.4923628
11
10.2757711
21
5.1653628
0
LINE
8
DEFAULT_255_2_778
10
10.2757711
20
5.1653628
11
10.0209711
21
6.1897628
0
LINE
8
DEFAULT_255_2_778
10
10.0209711
20
6.1897628
11
9.3922711
21
5.2738628
0
LINE
8
DEFAULT_255_2_778
10
9.3922711
20
5.2738628
11
8.6659711
21
5.8934628
0
LINE
8
DEFAULT_255_2_778
10
8.6659711
20
5.8934628
11
9.5295711
21
6.6882628
0
LINE
8
DEFAULT_255_2_778
10
9.5295711
20
6.6882628
11
8.3535711
21
6.7464628
0
LINE
8
DEFAULT_255_2_778
10
8.3535711
20
6.7464628
11
8.3694711
21
6.8422628
0
LINE
8
DEFAULT_255_2_778
10
8.3694711
20
6.8422628
11
8.5138711
21
7.6624628
0
LINE
8
DEFAULT_255_2_778
10
8.5138711
20
7.6624628
11
9.5817711
21
7.3859628
0
LINE
8
DEFAULT_255_2_778
10
9.5817711
20
7.3859628
11
9.1046711
21
8.3437628
0
LINE
8
DEFAULT_255_2_778
10
9.1046711
20
8.3437628
11
9.9952711
21
8.6707628
0
LINE
8
DEFAULT_255_2_778
10
9.9952711
20
8.6707628
11
10.2788711
21
7.6410628
0
LINE
8
DEFAULT_255_2_778
10
10.2788711
20
7.6410628
11
10.8874711
21
8.5371628
0
LINE
8
DEFAULT_255_2_778
10
10.8874711
20
8.5371628
11
11.6190711
21
7.9482628
0
LINE
8
DEFAULT_255_2_778
10
11.6190711
20
7.9482628
11
10.7681711
21
7.1481628
0
ENDSEC
0
EOF