0
SECTION
2
HEADER
9
$MEASUREMENT
70
1
0
ENDSEC
0
SECTION
2
TABLES
0
TABLE
2
LTYPE
0
LTYPE
72
65
70
64
2
CONTINUOUS
3
______
73
0
40
0
0
ENDTAB
0
TABLE
2
LAYER
0
LAYER
2
DEFAULT_255_2_778
70
0
62
255
6
CONTINUOUS
0
ENDTAB
0
ENDSEC
0
SECTION
2
ENTITIES
0
ARC
8
DEFAULT_255_2_778
10
19.4996732
20
4.7953812
40
1.6782428
50
340.540774
51
351.4210989
0
ARC
8
DEFAULT_255_2_778
10
20.0399048
20
4.6007632
40
1.1040413
50
325.1911552
51
340.7239976
0
ARC
8
DEFAULT_255_2_778
10
20.362814
20
4.3706787
40
0.7075864
50
298.9879066
51
325.562331
0
ARC
8
DEFAULT_255_2_778
10
20.4299569
20
4.2657327
40
0.5833017
50
269.772302
51
298.214649
0
ARC
8
DEFAULT_255_2_778
10
20.4176167
20
4.0229613
40
0.3406731
50
236.7753186
51
271.6858103
0
ARC
8
DEFAULT_255_2_778
10
20.4026986
20
3.9758687
40
0.2934076
50
182.5878819
51
234.1726074
0
ARC
8
DEFAULT_255_2_778
10
20.5389809
20
3.9995856
40
0.4309788
50
179.9532689
51
184.9202625
0
ARC
8
DEFAULT_255_2_778
10
20.6141937
20
3.9986966
40
0.506193
50
171.8828483
51
179.859586
0
ARC
8
DEFAULT_255_2_778
10
20.6774092
20
3.991035
40
0.5698585
50
170.9536682
51
172.0176811
0
ARC
8
DEFAULT_255_2_778
10
20.9320393
20
4.7504124
40
0.70072
50
141.596774
51
171.9998517
0
ARC
8
DEFAULT_255_2_778
10
20.7409074
20
4.8881137
40
0.4655248
50
93.7150276
51
140.2651015
0
ARC
8
DEFAULT_255_2_778
10
20.7590386
20
4.7633399
40
0.5912959
50
89.961218
51
94.6848802
0
ARC
8
DEFAULT_255_2_778
10
20.7612807
20
4.5854326
40
0.7692052
50
90.0066023
51
90.1371936
0
ARC
8
DEFAULT_255_2_778
10
20.7734474
20
4.8618763
40
0.4929138
50
67.8885894
51
91.424698
0
ARC
8
DEFAULT_255_2_778
10
20.822916
20
5.0099679
40
0.337239
50
18.8807046
51
66.2042221
0
ARC
8
DEFAULT_255_2_778
10
20.5237738
20
4.8920538
40
0.658608
50
4.9359417
51
20.1655221
0
ARC
8
DEFAULT_255_2_778
10
20.0853204
20
4.8421736
40
1.0997924
50
359.8347357
51
5.5595482
0
ARC
8
DEFAULT_255_2_778
10
19.6707977
20
4.8414085
40
1.5143124
50
356.1448769
51
359.9089225
0
ARC
8
DEFAULT_255_2_778
10
19.1962852
20
4.8727984
40
1.9898618
50
353.1026677
51
356.1617056
0
ARC
8
DEFAULT_255_2_778
10
18.6833204
20
4.9334797
40
2.5064019
50
351.0843204
51
353.1337597
0
ARC
8
DEFAULT_255_2_778
10
19.947295
20
3.3561428
40
0.0616191
50
46.9952302
51
80.053035
0
ARC
8
DEFAULT_255_2_778
10
19.7845403
20
3.1271398
40
0.3421221
50
52.4816696
51
53.2327394
0
ARC
8
DEFAULT_255_2_778
10
19.7022558
20
3.0199138
40
0.4772818
50
51.9482052
51
52.4861823
0
ARC
8
DEFAULT_255_2_778
10
21.9092844
20
5.7567411
40
3.0386261
50
230.9860386
51
232.2134271
0
ARC
8
DEFAULT_255_2_778
10
20.469189
20
3.9093591
40
0.6962921
50
232.7214758
51
238.2546847
0
ARC
8
DEFAULT_255_2_778
10
20.428308
20
3.8451169
40
0.6201523
50
238.3437832
51
248.5540642
0
ARC
8
DEFAULT_255_2_778
10
20.4518405
20
3.908544
40
0.687793
50
248.6612933
51
259.2540606
0
ARC
8
DEFAULT_255_2_778
10
20.483203
20
4.0744813
40
0.856668
50
259.2625715
51
268.2248007
0
ARC
8
DEFAULT_255_2_778
10
20.4911443
20
4.2274335
40
1.009798
50
268.0432685
51
270.0110362
0
ARC
8
DEFAULT_255_2_778
10
20.500699
20
4.6267108
40
1.4091063
50
269.6194017
51
286.068763
0
ARC
8
DEFAULT_255_2_778
10
20.5155405
20
4.4925283
40
1.2762633
50
287.095926
51
336.0319943
0
ARC
8
DEFAULT_255_2_778
10
19.854759
20
4.8403617
40
2.0219702
50
334.6316395
51
350.9104687
0
ARC
8
DEFAULT_255_2_778
10
19.5471583
20
4.9262963
40
2.3395652
50
350.0223946
51
352.8905944
0
ARC
8
DEFAULT_255_2_778
10
19.8376769
20
4.8903603
40
2.0468325
50
352.8823035
51
356.281267
0
ARC
8
DEFAULT_255_2_778
10
20.1027874
20
4.8731878
40
1.7811664
50
356.2793919
51
359.9573978
0
ARC
8
DEFAULT_255_2_778
10
20.4998232
20
4.8803277
40
1.3841559
50
359.6496269
51
11.4528864
0
ARC
8
DEFAULT_255_2_778
10
20.9011561
20
4.9638482
40
0.9742325
50
11.325385
51
28.5660418
0
ARC
8
DEFAULT_255_2_778
10
21.066
20
5.0439115
40
0.7912172
50
29.1820625
51
86.2691109
0
ARC
8
DEFAULT_255_2_778
10
21.0134197
20
4.7709517
40
1.0675843
50
84.4060899
51
90.0419058
0
ARC
8
DEFAULT_255_2_778
10
20.9929754
20
3.1660935
40
2.6725144
50
89.5784344
51
95.2902287
0
ARC
8
DEFAULT_255_2_778
10
20.8369977
20
4.7638562
40
1.0672062
50
94.8608125
51
108.0780521
0
ARC
8
DEFAULT_255_2_778
10
20.7053334
20
5.1943054
40
0.6172064
50
108.8586911
51
118.0456032
0
ARC
8
DEFAULT_255_2_778
10
20.1520158
20
3.1039466
40
0.3690767
50
152.7085154
51
154.8096344
0
ARC
8
DEFAULT_255_2_778
10
20.3472404
20
3.0049208
40
0.5879769
50
148.1809189
51
152.855764
0
ARC
8
DEFAULT_255_2_778
10
20.2656432
20
3.0555993
40
0.4919227
50
144.9102202
51
148.1857192
0
ARC
8
DEFAULT_255_2_778
10
20.0276903
20
3.2386923
40
0.192406
50
115.4962177
51
148.792387
0
ARC
8
DEFAULT_255_2_778
10
19.9649997
20
3.3540417
40
0.0616956
50
90.4280384
51
109.0440284
0
ARC
8
DEFAULT_255_2_778
10
25.2102292
20
5.306907
40
1.7277104
50
349.913863
51
353.4509768
0
ARC
8
DEFAULT_255_2_778
10
25.6023078
20
5.2621971
40
1.333091
50
353.4380933
51
357.6976541
0
ARC
8
DEFAULT_255_2_778
10
25.8311606
20
5.2515804
40
1.1039973
50
357.7710636
51
359.9778322
0
ARC
8
DEFAULT_255_2_778
10
26.1913944
20
5.2629606
40
0.7438571
50
359.0905009
51
16.6075153
0
ARC
8
DEFAULT_255_2_778
10
26.4595648
20
5.3393215
40
0.4650613
50
17.035199
51
71.4151145
0
ARC
8
DEFAULT_255_2_778
10
26.2893834
20
4.9200632
40
0.9171126
50
69.6852363
51
83.3028947
0
ARC
8
DEFAULT_255_2_778
10
26.1992025
20
4.2362065
40
1.6068499
50
82.9529585
51
90.2910941
0
ARC
8
DEFAULT_255_2_778
10
26.1838457
20
4.5778648
40
1.2651913
50
89.6742468
51
99.5496715
0
ARC
8
DEFAULT_255_2_778
10
26.1221384
20
4.9414367
40
0.8964205
50
99.5154984
51
113.7412121
0
ARC
8
DEFAULT_255_2_778
10
26.1271989
20
4.9552865
40
0.8858389
50
114.401495
51
132.4152817
0
ARC
8
DEFAULT_255_2_778
10
26.6610461
20
4.3467412
40
1.6952712
50
131.8631231
51
135.2839545
0
ARC
8
DEFAULT_255_2_778
10
31.1635766
20
-0.1098695
40
8.0304238
50
135.291615
51
135.9592816
0
ARC
8
DEFAULT_255_2_778
10
26.4971598
20
4.4030191
40
1.2325499
50
150.4344325
51
170.7785741
0
ARC
8
DEFAULT_255_2_778
10
26.2716968
20
4.5369884
40
0.9703555
50
130.8563991
51
150.7460552
0
ARC
8
DEFAULT_255_2_778
10
26.0217034
20
4.8359696
40
0.5807199
50
102.8302657
51
131.4977541
0
ARC
8
DEFAULT_255_2_778
10
25.9767482
20
4.9826461
40
0.4278707
50
99.2471128
51
101.3221016
0
ARC
8
DEFAULT_255_2_778
10
25.9727479
20
5.010455
40
0.3997809
50
90.0729632
51
99.3217012
0
ARC
8
DEFAULT_255_2_778
10
25.9801458
20
4.8300968
40
0.5801927
50
78.5157913
51
90.7808592
0
ARC
8
DEFAULT_255_2_778
10
26.050865
20
5.1566193
40
0.2461647
50
51.7862595
51
79.5151706
0
ARC
8
DEFAULT_255_2_778
10
26.0554013
20
5.1898477
40
0.2179142
50
359.1018271
51
47.3143572
0
ARC
8
DEFAULT_255_2_778
10
25.7735244
20
5.1563753
40
0.5006673
50
359.9272084
51
3.4417038
0
ARC
8
DEFAULT_255_2_778
10
25.4234654
20
5.1634523
40
0.8507609
50
352.5145742
51
359.4805409
0
ARC
8
DEFAULT_255_2_778
10
24.1014079
20
5.332049
40
2.1835214
50
349.4386618
51
352.647607
0
ARC
8
DEFAULT_255_2_778
10
27.9562574
20
3.3344941
40
1.1145045
50
79.2130645
51
91.8211483
0
ARC
8
DEFAULT_255_2_778
10
28.084196
20
4.0422574
40
0.395361
50
35.9205669
51
78.2297026
0
ARC
8
DEFAULT_255_2_778
10
27.7919181
20
3.8224314
40
0.7610489
50
22.8510591
51
36.41394
0
ARC
8
DEFAULT_255_2_778
10
27.0163385
20
3.4848226
40
1.6068957
50
15.8853604
51
23.2049912
0
ARC
8
DEFAULT_255_2_778
10
25.6151274
20
3.0736831
40
3.067154
50
12.2417981
51
16.1078124
0
ARC
8
DEFAULT_255_2_778
10
27.5888671
20
3.6675523
40
1.6255645
50
20.605347
51
30.4379233
0
ARC
8
DEFAULT_255_2_778
10
28.4999888
20
4.2258748
40
0.5575178
50
28.4031555
51
78.9926097
0
ARC
8
DEFAULT_255_2_778
10
10.455694
20
5.9664113
40
1.0660802
50
282.4836407
51
343.7412941
0
ARC
8
DEFAULT_255_2_778
10
9.8976104
20
6.0606039
40
1.6295461
50
346.0563265
51
351.6552806
0
ARC
8
DEFAULT_255_2_778
10
10.1633698
20
6.0220663
40
1.3610075
50
351.6367745
51
358.2457069
0
ARC
8
DEFAULT_255_2_778
10
10.3103756
20
6.0154746
40
1.2138705
50
358.3442734
51
359.993934
0
ARC
8
DEFAULT_255_2_778
10
10.5748053
20
6.0281332
40
0.9495269
50
359.2283855
51
21.2733177
0
ARC
8
DEFAULT_255_2_778
10
10.7708914
20
6.0961205
40
0.7421759
50
21.8746206
51
61.0298572
0
ARC
8
DEFAULT_255_2_778
10
10.6313667
20
5.8528598
40
1.0225861
50
60.7921719
51
76.597236
0
ARC
8
DEFAULT_255_2_778
10
10.5173933
20
5.3910245
40
1.4982665
50
76.4512223
51
87.1484976
0
ARC
8
DEFAULT_255_2_778
10
10.4852249
20
4.9468726
40
1.9434945
50
86.8527131
51
90.0357511
0
ARC
8
DEFAULT_255_2_778
10
10.4840814
20
4.7780741
40
2.1122927
50
90.0018758
51
90.6386034
0
ARC
8
DEFAULT_255_2_778
10
9.8315983
20
1.3776818
40
3.3419665
50
90.8668447
51
91.6059386
0
ARC
8
DEFAULT_255_2_778
10
9.8229535
20
1.9524784
40
2.7671049
50
90.0131603
51
90.8679242
0
ARC
8
DEFAULT_255_2_778
10
9.8360764
20
3.1518936
40
1.56775
50
83.4569301
51
90.5028331
0
ARC
8
DEFAULT_255_2_778
10
9.9491712
20
4.0826224
40
0.6302279
50
67.5126878
51
84.0298257
0
ARC
8
DEFAULT_255_2_778
10
10.0268294
20
4.2996423
40
0.4001649
50
21.6397374
51
65.9013916
0
ARC
8
DEFAULT_255_2_778
10
9.3858371
20
3.9999781
40
1.1072906
50
14.1158724
51
23.8221
0
ARC
8
DEFAULT_255_2_778
10
7.5501583
20
3.5185031
40
3.0050257
50
10.5419602
51
14.4828032
0
ARC
8
DEFAULT_255_2_778
10
4.9019448
20
2.99437
40
5.7045167
50
10.5172945
51
10.8511244
0
ARC
8
DEFAULT_255_2_778
10
3.1997283
20
2.6798164
40
7.4355522
50
9.9910066
51
10.506195
0
ARC
8
DEFAULT_255_2_778
10
-0.2781071
20
2.0665393
40
10.9670458
50
9.6386169
51
9.9941128
0
ARC
8
DEFAULT_255_2_778
10
-4.2479263
20
1.3897056
40
14.9941493
50
9.5588238
51
9.6485495
0
ARC
8
DEFAULT_255_2_778
10
9.7556463
20
3.9762369
40
1.4006387
50
12.0664866
51
26.5800506
0
ARC
8
DEFAULT_255_2_778
10
10.4446507
20
4.3177395
40
0.6316572
50
26.8416686
51
67.4532819
0
ARC
8
DEFAULT_255_2_778
10
10.3884139
20
4.1991692
40
0.7627555
50
66.9669436
51
69.1626114
0
ARC
8
DEFAULT_255_2_778
10
10.1944599
20
5.8745593
40
0.6306877
50
271.3063931
51
352.3531408
0
ARC
8
DEFAULT_255_2_778
10
10.3842211
20
5.7099003
40
0.6798754
50
75.7515962
51
90.6221419
0
ARC
8
DEFAULT_255_2_778
10
10.462215
20
6.0030405
40
0.3765722
50
46.9352502
51
76.2757922
0
ARC
8
DEFAULT_255_2_778
10
10.4242939
20
5.9967336
40
0.4077452
50
1.0391962
51
43.6455814
0
ARC
8
DEFAULT_255_2_778
10
10.1020037
20
5.9533654
40
0.7317313
50
359.9441947
51
3.9780405
0
ARC
8
DEFAULT_255_2_778
10
9.8680052
20
5.9569549
40
0.9657389
50
352.1038897
51
359.7447608
0
ARC
8
DEFAULT_255_2_778
10
9.6184035
20
5.9869029
40
1.2170971
50
350.7105062
51
352.3216393
0
ARC
8
DEFAULT_255_2_778
10
12.5198823
20
5.3270535
40
1.296332
50
350.1071463
51
353.6915284
0
ARC
8
DEFAULT_255_2_778
10
12.780062
20
5.2986183
40
1.0346033
50
353.6734817
51
358.1291768
0
ARC
8
DEFAULT_255_2_778
10
12.9296442
20
5.2925735
40
0.8849042
50
358.2041791
51
359.9875156
0
ARC
8
DEFAULT_255_2_778
10
13.2012783
20
5.3030504
40
0.6133627
50
359.0032608
51
18.8502759
0
ARC
8
DEFAULT_255_2_778
10
13.3589156
20
5.3436096
40
0.45125
50
20.4437352
51
71.7138465
0
ARC
8
DEFAULT_255_2_778
10
13.1516606
20
4.8382052
40
0.9968937
50
69.5171162
51
82.6645885
0
ARC
8
DEFAULT_255_2_778
10
13.0214505
20
3.9003973
40
1.9436742
50
82.3872771
51
89.9862719
0
ARC
8
DEFAULT_255_2_778
10
13.003218
20
3.1212278
40
2.7229079
50
89.6065463
51
90.0016652
0
ARC
8
DEFAULT_255_2_778
10
13.0006036
20
3.6690491
40
2.175088
50
89.9332174
51
95.7369334
0
ARC
8
DEFAULT_255_2_778
10
12.9740042
20
3.9337241
40
1.9090798
50
95.7366648
51
101.8796328
0
ARC
8
DEFAULT_255_2_778
10
12.9315384
20
4.1371018
40
1.7013161
50
101.890083
51
107.685055
0
ARC
8
DEFAULT_255_2_778
10
12.8781605
20
4.3039156
40
1.5261706
50
107.6783032
51
113.7802893
0
ARC
8
DEFAULT_255_2_778
10
12.8268301
20
4.4228819
40
1.3966072
50
113.8212502
51
116.8806888
0
ARC
8
DEFAULT_255_2_778
10
12.7685877
20
4.5357716
40
1.2695822
50
116.8397131
51
122.0456456
0
ARC
8
DEFAULT_255_2_778
10
12.6674007
20
4.6968679
40
1.0793436
50
122.0301516
51
126.8539127
0
ARC
8
DEFAULT_255_2_778
10
12.5229719
20
4.8889769
40
0.8389993
50
126.8303699
51
131.0523379
0
ARC
8
DEFAULT_255_2_778
10
12.3231518
20
5.1176889
40
0.5352939
50
131.0009502
51
134.5857263
0
ARC
8
DEFAULT_255_2_778
10
12.0903309
20
5.3536441
40
0.2038119
50
134.5349991
51
136.8491132
0
ARC
8
DEFAULT_255_2_778
10
12.8500726
20
4.4210074
40
0.9686552
50
90.0050706
51
134.6656286
0
ARC
8
DEFAULT_255_2_778
10
12.84999
20
4.4205866
40
0.969076
50
87.9391494
51
90.0001852
0
ARC
8
DEFAULT_255_2_778
10
12.8928494
20
4.8671469
40
0.5219502
50
78.0881675
51
90.8793791
0
ARC
8
DEFAULT_255_2_778
10
12.9632647
20
5.1796508
40
0.2016893
50
49.7709753
51
79.3371353
0
ARC
8
DEFAULT_255_2_778
10
12.9785875
20
5.2181555
40
0.162929
50
355.7147024
51
45.1346889
0
ARC
8
DEFAULT_255_2_778
10
12.5781754
20
5.2167474
40
0.5629886
50
349.0633936
51
358.904225
0
ARC
8
DEFAULT_255_2_778
10
12.9135324
20
-1.1461508
40
5.9310821
50
88.4057895
51
89.1674538
0
ARC
8
DEFAULT_255_2_778
10
12.9223802
20
-0.5335733
40
5.3184408
50
89.1668723
51
89.9927256
0
ARC
8
DEFAULT_255_2_778
10
12.909382
20
0.8875001
40
3.8973914
50
89.7989853
51
94.7237973
0
ARC
8
DEFAULT_255_2_778
10
12.774749
20
2.4686719
40
2.3105065
50
94.6255416
51
102.1617259
0
ARC
8
DEFAULT_255_2_778
10
12.5644384
20
3.4189986
40
1.3372125
50
101.9310535
51
114.8877797
0
ARC
8
DEFAULT_255_2_778
10
12.3262646
20
3.9097538
40
0.7918557
50
114.1985781
51
163.6698877
0
ARC
8
DEFAULT_255_2_778
10
12.6960465
20
3.7771489
40
1.1842332
50
162.5433167
51
170.2727068
0
ARC
8
DEFAULT_255_2_778
10
12.4200571
20
3.8215873
40
0.9047079
50
170.0933978
51
174.8343249
0
ARC
8
DEFAULT_255_2_778
10
12.3050863
20
3.8319925
40
0.7892672
50
174.8351575
51
179.9446155
0
ARC
8
DEFAULT_255_2_778
10
12.1172613
20
3.8244444
40
0.6014993
50
179.2083
51
204.3127146
0
ARC
8
DEFAULT_255_2_778
10
12.1187915
20
3.8548509
40
0.6160083
50
206.8322564
51
257.1264664
0
ARC
8
DEFAULT_255_2_778
10
12.2478338
20
4.2380076
40
1.0190869
50
254.8527026
51
270.3095064
0
ARC
8
DEFAULT_255_2_778
10
12.3053977
20
4.0532395
40
0.8359265
50
266.4294908
51
269.9997146
0
ARC
8
DEFAULT_255_2_778
10
12.3052396
20
4.0538502
40
0.8365372
50
270.0105422
51
312.9889642
0
ARC
8
DEFAULT_255_2_778
10
13.1405983
20
3.5045397
40
0.272255
50
193.2939221
51
256.9318611
0
ARC
8
DEFAULT_255_2_778
10
13.2094441
20
3.9941398
40
0.7659863
50
260.1979388
51
267.5106518
0
ARC
8
DEFAULT_255_2_778
10
13.2094439
20
3.9943944
40
0.7662406
50
267.5114932
51
269.9994708
0
ARC
8
DEFAULT_255_2_778
10
13.2093438
20
3.995414
40
0.7672602
50
270.0069451
51
294.1735872
0
ARC
8
DEFAULT_255_2_778
10
17.0186483
20
3.2713532
40
3.4951925
50
167.6345537
51
179.6052197
0
ARC
8
DEFAULT_255_2_778
10
4.0270885
20
5.7054701
40
9.0731229
50
351.7107983
51
351.9604621
0
ARC
8
DEFAULT_255_2_778
10
4.7961524
20
5.5937121
40
8.2959813
50
351.619723
51
351.7088281
0
ARC
8
DEFAULT_255_2_778
10
7.7262153
20
5.1469591
40
5.332114
50
349.3010819
51
351.7803483
0
ARC
8
DEFAULT_255_2_778
10
10.7433062
20
4.5708439
40
2.2605246
50
344.5125968
51
349.4527303
0
ARC
8
DEFAULT_255_2_778
10
12.0530236
20
4.2018077
40
0.899841
50
334.4447986
51
344.8887118
0
ARC
8
DEFAULT_255_2_778
10
12.5519906
20
3.9553585
40
0.3434479
50
307.0025424
51
335.6284246
0
ARC
8
DEFAULT_255_2_778
10
12.552619
20
3.9996783
40
0.3794383
50
271.6762122
51
302.8954423
0
ARC
8
DEFAULT_255_2_778
10
12.4561123
20
5.028485
40
1.4121882
50
269.5750643
51
274.3700547
0
ARC
8
DEFAULT_255_2_778
10
12.4366669
20
3.9916364
40
0.375408
50
246.9262403
51
271.3694522
0
ARC
8
DEFAULT_255_2_778
10
12.4048435
20
3.8858715
40
0.2659109
50
175.6404278
51
244.3023259
0
ARC
8
DEFAULT_255_2_778
10
12.5939813
20
3.9089124
40
0.4542881
50
179.9997204
51
180.3566232
0
ARC
8
DEFAULT_255_2_778
10
12.6649872
20
3.9067232
40
0.5252987
50
170.3735436
51
179.7609741
0
ARC
8
DEFAULT_255_2_778
10
12.7567979
20
3.8935481
40
0.6180243
50
169.3904656
51
170.5926502
0
ARC
8
DEFAULT_255_2_778
10
12.5813888
20
3.9470179
40
0.4362401
50
111.8438493
51
172.0524059
0
ARC
8
DEFAULT_255_2_778
10
12.7685714
20
3.5258091
40
0.8970147
50
99.4268291
51
112.931075
0
ARC
8
DEFAULT_255_2_778
10
12.932801
20
2.6083483
40
1.8290223
50
92.6200575
51
99.7946865
0
ARC
8
DEFAULT_255_2_778
10
13.0066718
20
1.3228684
40
3.1165715
50
89.9050077
51
92.8963881
0
ARC
8
DEFAULT_255_2_778
10
22.9646003
20
5.3267976
40
1.2968144
50
350.1088875
51
353.692532
0
ARC
8
DEFAULT_255_2_778
10
23.2249325
20
5.2983508
40
1.0349329
50
353.6744574
51
358.1293681
0
ARC
8
DEFAULT_255_2_778
10
23.3746139
20
5.2923022
40
0.8851345
50
358.2044139
51
359.9875074
0
ARC
8
DEFAULT_255_2_778
10
23.6464181
20
5.3027842
40
0.613423
50
359.0028659
51
18.8493576
0
ARC
8
DEFAULT_255_2_778
10
23.8041762
20
5.343383
40
0.4511829
50
20.4429228
51
71.7191343
0
ARC
8
DEFAULT_255_2_778
10
23.5968976
20
4.8377962
40
0.9970043
50
69.5217576
51
82.6675483
0
ARC
8
DEFAULT_255_2_778
10
23.4666535
20
3.8993553
40
1.9444163
50
82.3902897
51
89.9863663
0
ARC
8
DEFAULT_255_2_778
10
23.448418
20
3.1209278
40
2.7229079
50
89.6065463
51
90.0016652
0
ARC
8
DEFAULT_255_2_778
10
23.4458036
20
3.6687491
40
2.175088
50
89.9332174
51
95.7369334
0
ARC
8
DEFAULT_255_2_778
10
23.4192042
20
3.9334241
40
1.9090798
50
95.7366648
51
101.8796328
0
ARC
8
DEFAULT_255_2_778
10
23.3767384
20
4.1368018
40
1.7013161
50
101.890083
51
107.685055
0
ARC
8
DEFAULT_255_2_778
10
23.3233605
20
4.3036156
40
1.5261706
50
107.6783032
51
113.7802893
0
ARC
8
DEFAULT_255_2_778
10
23.2720301
20
4.4225819
40
1.3966072
50
113.8212502
51
116.8806888
0
ARC
8
DEFAULT_255_2_778
10
23.2137877
20
4.5354716
40
1.2695822
50
116.8397131
51
122.0456456
0
ARC
8
DEFAULT_255_2_778
10
23.1126007
20
4.6965679
40
1.0793436
50
122.0301516
51
126.8539127
0
ARC
8
DEFAULT_255_2_778
10
22.9681719
20
4.8886769
40
0.8389993
50
126.8303699
51
131.0523379
0
ARC
8
DEFAULT_255_2_778
10
22.7683518
20
5.1173889
40
0.5352939
50
131.0009502
51
134.5857263
0
ARC
8
DEFAULT_255_2_778
10
22.5355309
20
5.3533441
40
0.2038119
50
134.5349991
51
136.8491132
0
ARC
8
DEFAULT_255_2_778
10
23.2952076
20
4.4211091
40
0.9682535
50
90.0012233
51
134.675393
0
ARC
8
DEFAULT_255_2_778
10
23.29519
20
4.4202868
40
0.9690757
50
87.9391493
51
90.0001851
0
ARC
8
DEFAULT_255_2_778
10
23.3380517
20
4.8665219
40
0.5222752
50
78.0944444
51
90.8790797
0
ARC
8
DEFAULT_255_2_778
10
23.4084997
20
5.1793249
40
0.2017157
50
49.7840366
51
79.3447903
0
ARC
8
DEFAULT_255_2_778
10
23.4238999
20
5.2179261
40
0.1628286
50
355.7126374
51
45.1469355
0
ARC
8
DEFAULT_255_2_778
10
23.0229488
20
5.2165545
40
0.5634277
50
349.0609255
51
358.9015315
0
ARC
8
DEFAULT_255_2_778
10
23.3583209
20
-1.1378604
40
5.9225066
50
88.3994981
51
89.1644533
0
ARC
8
DEFAULT_255_2_778
10
23.367124
20
-0.5296522
40
5.3142347
50
89.1637306
51
89.9925384
0
ARC
8
DEFAULT_255_2_778
10
23.3541533
20
0.8914314
40
3.893175
50
89.7989252
51
94.727424
0
ARC
8
DEFAULT_255_2_778
10
23.2196174
20
2.4702632
40
2.3086299
50
94.6291943
51
102.1691315
0
ARC
8
DEFAULT_255_2_778
10
23.0094412
20
3.4194026
40
1.3365241
50
101.9386415
51
114.8985856
0
ARC
8
DEFAULT_255_2_778
10
22.7715227
20
3.9094512
40
0.7919133
50
114.2121009
51
163.6726491
0
ARC
8
DEFAULT_255_2_778
10
23.1413727
20
3.7768239
40
1.1843619
50
162.545175
51
170.2725495
0
ARC
8
DEFAULT_255_2_778
10
22.8653259
20
3.8214253
40
0.9047519
50
170.1027562
51
174.8390695
0
ARC
8
DEFAULT_255_2_778
10
22.7503171
20
3.831826
40
0.7892738
50
174.8400165
51
179.9451436
0
ARC
8
DEFAULT_255_2_778
10
22.5626813
20
3.8242732
40
0.6016951
50
179.2088114
51
204.3069314
0
ARC
8
DEFAULT_255_2_778
10
22.5645088
20
3.854978
40
0.616601
50
206.838087
51
257.2392126
0
ARC
8
DEFAULT_255_2_778
10
22.6931086
20
4.2381949
40
1.0195739
50
254.9470383
51
270.3051559
0
ARC
8
DEFAULT_255_2_778
10
22.7496582
20
4.0554184
40
0.8383428
50
266.5041225
51
269.9997085
0
ARC
8
DEFAULT_255_2_778
10
22.7494554
20
4.0560118
40
0.8389362
50
270.0135622
51
312.9281569
0
ARC
8
DEFAULT_255_2_778
10
23.5859257
20
3.5043369
40
0.2723783
50
193.2871777
51
256.9103896
0
ARC
8
DEFAULT_255_2_778
10
23.6546265
20
3.9966367
40
0.7687394
50
260.2347222
51
267.6195773
0
ARC
8
DEFAULT_255_2_778
10
23.6546079
20
3.9963893
40
0.7684916
50
267.6201959
51
269.9999464
0
ARC
8
DEFAULT_255_2_778
10
23.6546707
20
3.9954884
40
0.7675908
50
269.9952567
51
294.1603124
0
ARC
8
DEFAULT_255_2_778
10
27.4638716
20
3.2715325
40
3.4951125
50
167.6423114
51
179.613069
0
ARC
8
DEFAULT_255_2_778
10
14.305631
20
5.7312463
40
9.2475895
50
351.782719
51
351.9518525
0
ARC
8
DEFAULT_255_2_778
10
15.0360224
20
5.6257177
40
8.5096139
50
351.603235
51
351.7830701
0
ARC
8
DEFAULT_255_2_778
10
18.1978498
20
5.1440753
40
5.311367
50
349.2785754
51
351.7625307
0
ARC
8
DEFAULT_255_2_778
10
21.2019065
20
4.5692191
40
2.2528163
50
344.4828563
51
349.4302657
0
ARC
8
DEFAULT_255_2_778
10
22.506481
20
4.2008959
40
0.8972759
50
334.4039267
51
344.8589341
0
ARC
8
DEFAULT_255_2_778
10
23.0033972
20
3.9550288
40
0.3429782
50
306.9564823
51
335.5831638
0
ARC
8
DEFAULT_255_2_778
10
23.0036418
20
3.9998666
40
0.379633
50
271.6744052
51
302.8550421
0
ARC
8
DEFAULT_255_2_778
10
22.9072002
20
5.0289806
40
1.4126837
50
269.5757044
51
274.3656139
0
ARC
8
DEFAULT_255_2_778
10
22.8877517
20
3.9917618
40
0.3755337
50
246.9252928
51
271.3713187
0
ARC
8
DEFAULT_255_2_778
10
22.8559447
20
3.8859282
40
0.2659821
50
175.6309771
51
244.2926316
0
ARC
8
DEFAULT_255_2_778
10
23.0452615
20
3.9090191
40
0.4545349
50
179.9997016
51
180.3565286
0
ARC
8
DEFAULT_255_2_778
10
23.1166581
20
3.9068354
40
0.5259361
50
170.3961154
51
179.7618471
0
ARC
8
DEFAULT_255_2_778
10
23.2097598
20
3.8934711
40
0.6199669
50
169.4168538
51
170.6138261
0
ARC
8
DEFAULT_255_2_778
10
23.0323983
20
3.9469843
40
0.4362541
50
111.8365474
51
172.0482048
0
ARC
8
DEFAULT_255_2_778
10
23.2196896
20
3.5255267
40
0.8972992
50
99.4261283
51
112.9277178
0
ARC
8
DEFAULT_255_2_778
10
23.3839135
20
2.608023
40
1.8293479
50
92.6200684
51
99.7938781
0
ARC
8
DEFAULT_255_2_778
10
23.4577729
20
1.3227135
40
3.1167264
50
89.9050329
51
92.896316
0
ARC
8
DEFAULT_255_2_778
10
15.1264968
20
4.6275051
40
1.4089006
50
269.619435
51
286.0712631
0
ARC
8
DEFAULT_255_2_778
10
15.1412312
20
4.4936061
40
1.2763612
50
287.0997087
51
336.0341759
0
ARC
8
DEFAULT_255_2_778
10
14.4803239
20
4.8415065
40
2.0222094
50
334.6328944
51
350.9102679
0
ARC
8
DEFAULT_255_2_778
10
14.1735958
20
4.9273259
40
2.3389252
50
350.0213857
51
352.890042
0
ARC
8
DEFAULT_255_2_778
10
14.4640454
20
4.8914053
40
2.046263
50
352.8814826
51
356.2818562
0
ARC
8
DEFAULT_255_2_778
10
14.7288725
20
4.8742538
40
1.7808811
50
356.2799838
51
359.9573429
0
ARC
8
DEFAULT_255_2_778
10
15.1257575
20
4.881388
40
1.3840213
50
359.6497696
51
11.4537293
0
ARC
8
DEFAULT_255_2_778
10
15.5269457
20
4.9648846
40
0.9742447
50
11.3262715
51
28.5669907
0
ARC
8
DEFAULT_255_2_778
10
15.6917045
20
5.0449016
40
0.7913266
50
29.183144
51
86.2686369
0
ARC
8
DEFAULT_255_2_778
10
15.6391222
20
4.7719407
40
1.0676951
50
84.4058283
51
90.0420389
0
ARC
8
DEFAULT_255_2_778
10
15.6194093
20
3.1930951
40
2.6466082
50
89.5901957
51
95.0797345
0
ARC
8
DEFAULT_255_2_778
10
15.471474
20
4.7576605
40
1.0751255
50
94.6094511
51
108.629454
0
ARC
8
DEFAULT_255_2_778
10
15.3667254
20
5.1002633
40
0.7170843
50
109.4431122
51
116.833075
0
ARC
8
DEFAULT_255_2_778
10
14.7971654
20
3.0963777
40
0.3897809
50
152.8600084
51
154.8491608
0
ARC
8
DEFAULT_255_2_778
10
15.0017528
20
2.9932433
40
0.6188905
50
148.5708486
51
153.0032391
0
ARC
8
DEFAULT_255_2_778
10
14.9116413
20
3.0483394
40
0.51327
50
145.4489315
51
148.573596
0
ARC
8
DEFAULT_255_2_778
10
14.6613568
20
3.2356763
40
0.2012632
50
118.705185
51
148.9664096
0
ARC
8
DEFAULT_255_2_778
10
14.5876168
20
3.3581336
40
0.0587312
50
92.3978129
51
112.9779371
0
ARC
8
DEFAULT_255_2_778
10
14.586639
20
3.3679765
40
0.0488591
50
90.0001542
51
91.7350195
0
ARC
8
DEFAULT_255_2_778
10
14.586926
20
3.3996531
40
0.0171849
50
89.9986923
51
90.9575395
0
ARC
8
DEFAULT_255_2_778
10
14.5762878
20
3.3555418
40
0.0622126
50
47.3093759
51
80.1537546
0
ARC
8
DEFAULT_255_2_778
10
14.4130352
20
3.1238893
40
0.3451717
50
52.7297166
51
53.4753836
0
ARC
8
DEFAULT_255_2_778
10
14.3369626
20
3.0239034
40
0.470807
50
52.1849533
51
52.731103
0
ARC
8
DEFAULT_255_2_778
10
16.7075144
20
5.9875162
40
3.3243158
50
231.225111
51
232.3471349
0
ARC
8
DEFAULT_255_2_778
10
15.103599
20
3.9189791
40
0.7068348
50
232.8531637
51
238.293737
0
ARC
8
DEFAULT_255_2_778
10
15.0586858
20
3.8480256
40
0.6228668
50
238.3783101
51
248.7576455
0
ARC
8
DEFAULT_255_2_778
10
15.0805696
20
3.9079081
40
0.6866105
50
248.8660738
51
259.4981906
0
ARC
8
DEFAULT_255_2_778
10
15.1107778
20
4.0725288
40
0.8539796
50
259.5184979
51
268.7587847
0
ARC
8
DEFAULT_255_2_778
10
15.1173423
20
4.218197
40
0.9997615
50
268.5634953
51
270.0055306
0
ARC
8
DEFAULT_255_2_778
10
15.4045587
20
4.858696
40
0.4934909
50
68.7627445
51
91.4189055
0
ARC
8
DEFAULT_255_2_778
10
15.4545225
20
5.0144245
40
0.3303863
50
18.6723606
51
67.0562123
0
ARC
8
DEFAULT_255_2_778
10
15.1284023
20
4.8857157
40
0.6807736
50
5.3017862
51
20.1474683
0
ARC
8
DEFAULT_255_2_778
10
14.6071223
20
4.8247214
40
1.205525
50
359.7885174
51
5.8990414
0
ARC
8
DEFAULT_255_2_778
10
14.0932368
20
4.8225863
40
1.7194038
50
356.7021594
51
359.9228714
0
ARC
8
DEFAULT_255_2_778
10
13.5532322
20
4.8532228
40
2.2602768
50
354.0551247
51
356.7142945
0
ARC
8
DEFAULT_255_2_778
10
12.9951931
20
4.9096368
40
2.8211583
50
352.5191289
51
354.0893732
0
ARC
8
DEFAULT_255_2_778
10
14.2009036
20
4.740926
40
1.6037781
50
342.0470462
51
352.8870033
0
ARC
8
DEFAULT_255_2_778
10
14.7132232
20
4.5714346
40
1.0641651
50
326.4849927
51
342.2259859
0
ARC
8
DEFAULT_255_2_778
10
15.0073909
20
4.3724397
40
0.7090379
50
300.2714123
51
326.7665295
0
ARC
8
DEFAULT_255_2_778
10
15.0601909
20
4.2980649
40
0.6182413
50
269.6430091
51
299.5199341
0
ARC
8
DEFAULT_255_2_778
10
15.046396
20
4.0199018
40
0.3402115
50
237.3468151
51
271.6747254
0
ARC
8
DEFAULT_255_2_778
10
15.028136
20
3.9676058
40
0.2866164
50
181.8500552
51
234.7787091
0
ARC
8
DEFAULT_255_2_778
10
15.1602063
20
3.9895847
40
0.4197008
50
179.9645457
51
184.2676085
0
ARC
8
DEFAULT_255_2_778
10
15.2319374
20
3.9885365
40
0.4914335
50
171.5371841
51
179.8475173
0
ARC
8
DEFAULT_255_2_778
10
15.3026977
20
3.97941
40
0.5627683
50
169.9067417
51
171.6783366
0
ARC
8
DEFAULT_255_2_778
10
15.5689389
20
4.7477714
40
0.7035973
50
141.9877676
51
172.029408
0
ARC
8
DEFAULT_255_2_778
10
15.3730056
20
4.8890239
40
0.462333
50
92.6887443
51
140.8262801
0
ARC
8
DEFAULT_255_2_778
10
15.3884005
20
4.7726018
40
0.5794339
50
89.9764298
51
93.6693665
0
ARC
8
DEFAULT_255_2_778
10
19.7011406
20
4.018614
40
2.9628083
50
165.4629802
51
174.230882
0
ARC
8
DEFAULT_255_2_778
10
18.6095712
20
4.3076968
40
1.8336326
50
151.5286684
51
165.6454049
0
ARC
8
DEFAULT_255_2_778
10
18.0602624
20
4.6145075
40
1.2045224
50
108.2831455
51
151.9014924
0
ARC
8
DEFAULT_255_2_778
10
18.2169954
20
4.1657107
40
1.6798515
50
95.8568932
51
108.5569386
0
ARC
8
DEFAULT_255_2_778
10
18.2920154
20
3.5339376
40
2.3160043
50
89.8658295
51
96.1082356
0
ARC
8
DEFAULT_255_2_778
10
18.3060187
20
4.6285802
40
1.2213856
50
77.4933659
51
90.4024891
0
ARC
8
DEFAULT_255_2_778
10
18.3864732
20
4.9818732
40
0.8590557
50
57.5834208
51
77.6293504
0
ARC
8
DEFAULT_255_2_778
10
18.3824885
20
5.0225751
40
0.8272158
50
6.782983
51
55.838901
0
ARC
8
DEFAULT_255_2_778
10
17.9354281
20
4.9202134
40
1.2841661
50
359.8516075
51
8.9627588
0
ARC
8
DEFAULT_255_2_778
10
17.6847333
20
4.9194308
40
1.5348586
50
352.7631351
51
359.9050579
0
ARC
8
DEFAULT_255_2_778
10
17.529844
20
4.9367944
40
1.690703
50
350.4342877
51
352.8406178
0
ARC
8
DEFAULT_255_2_778
10
15.4797558
20
5.2470354
40
3.7640019
50
345.0222357
51
350.9633162
0
ARC
8
DEFAULT_255_2_778
10
16.9920909
20
4.8370521
40
2.1970948
50
335.4890141
51
345.1578525
0
ARC
8
DEFAULT_255_2_778
10
17.8028221
20
4.459147
40
1.3026661
50
316.8378439
51
335.8190123
0
ARC
8
DEFAULT_255_2_778
10
17.9656475
20
4.3302854
40
1.0958861
50
287.1584267
51
315.9286664
0
ARC
8
DEFAULT_255_2_778
10
17.7879726
20
4.8685779
40
1.6626734
50
275.7179856
51
287.536208
0
ARC
8
DEFAULT_255_2_778
10
17.6935301
20
5.7030615
40
2.5024381
50
269.82161
51
275.9659778
0
ARC
8
DEFAULT_255_2_778
10
17.6832029
20
4.2084271
40
1.0077946
50
249.3768844
51
270.144175
0
ARC
8
DEFAULT_255_2_778
10
17.6643046
20
4.1125222
40
0.9115213
50
188.2020272
51
248.365312
0
ARC
8
DEFAULT_255_2_778
10
17.9135423
20
4.1821047
40
1.1686114
50
179.9177181
51
189.835573
0
ARC
8
DEFAULT_255_2_778
10
18.0113747
20
4.1831416
40
1.2664427
50
174.2294127
51
179.9709852
0
ARC
8
DEFAULT_255_2_778
10
18.0491999
20
4.1799951
40
1.3043927
50
173.8809836
51
174.2589563
0
ARC
8
DEFAULT_255_2_778
10
15.8032046
20
5.0957727
40
2.7522047
50
349.7796168
51
349.9165102
0
ARC
8
DEFAULT_255_2_778
10
16.3040787
20
5.0094266
40
2.243951
50
349.8480243
51
352.4566416
0
ARC
8
DEFAULT_255_2_778
10
17.056955
20
4.9155657
40
1.4852799
50
352.2334285
51
359.6353176
0
ARC
8
DEFAULT_255_2_778
10
17.4302025
20
4.906166
40
1.1120022
50
359.9972261
51
0.4208798
0
ARC
8
DEFAULT_255_2_778
10
17.9033368
20
4.9335108
40
0.6391256
50
358.2806285
51
25.0104957
0
ARC
8
DEFAULT_255_2_778
10
18.2091323
20
5.0660928
40
0.3060871
50
26.7208513
51
73.7445045
0
ARC
8
DEFAULT_255_2_778
10
18.1664661
20
4.9197445
40
0.458528
50
73.7451804
51
90.7281727
0
ARC
8
DEFAULT_255_2_778
10
18.1501998
20
4.8459311
40
0.5324068
50
88.8765143
51
131.393685
0
ARC
8
DEFAULT_255_2_778
10
18.2916684
20
4.6940654
40
0.7398991
50
131.8358073
51
149.6803629
0
ARC
8
DEFAULT_255_2_778
10
18.7291828
20
4.431594
40
1.2500862
50
149.418945
51
160.3747755
0
ARC
8
DEFAULT_255_2_778
10
19.4996507
20
4.1506482
40
2.0701658
50
160.2128273
51
167.5042423
0
ARC
8
DEFAULT_255_2_778
10
20.3496406
20
3.9504764
40
2.9433543
50
167.2799903
51
170.1768402
0
ARC
8
DEFAULT_255_2_778
10
19.2458149
20
4.1339042
40
1.8244333
50
169.9387066
51
175.0404941
0
ARC
8
DEFAULT_255_2_778
10
18.819399
20
4.1714803
40
1.3963654
50
175.0639243
51
179.8921113
0
ARC
8
DEFAULT_255_2_778
10
18.3086641
20
4.1624118
40
0.8857052
50
179.2432498
51
193.9252559
0
ARC
8
DEFAULT_255_2_778
10
17.8602692
20
4.0441273
40
0.422079
50
192.9886547
51
223.6469081
0
ARC
8
DEFAULT_255_2_778
10
17.7811681
20
3.9866795
40
0.3254503
50
225.9409213
51
265.6452388
0
ARC
8
DEFAULT_255_2_778
10
17.8043333
20
4.1318823
40
0.4721472
50
264.1800177
51
270.0856117
0
ARC
8
DEFAULT_255_2_778
10
17.8002881
20
4.1385547
40
0.4788427
50
270.5684589
51
287.2150187
0
ARC
8
DEFAULT_255_2_778
10
17.7953831
20
4.1548284
40
0.495839
50
287.1998687
51
293.4291776
0
ARC
8
DEFAULT_255_2_778
10
17.7598612
20
4.2256514
40
0.5749639
50
293.8709221
51
314.1304691
0
ARC
8
DEFAULT_255_2_778
10
17.5837648
20
4.4094355
40
0.8294926
50
314.0217778
51
327.7561388
0
ARC
8
DEFAULT_255_2_778
10
17.2375687
20
4.6313977
40
1.240726
50
327.6162868
51
337.1563185
0
ARC
8
DEFAULT_255_2_778
10
16.7077864
20
4.8577629
40
1.8168378
50
337.0636147
51
344.0119931
0
ARC
8
DEFAULT_255_2_778
10
15.9587488
20
5.0742733
40
2.5965375
50
343.9717546
51
349.5266072
0
ARC
8
DEFAULT_255_2_778
10
15.4211859
20
5.1823581
40
3.1448035
50
349.3705332
51
349.5309885
0
LINE
8
DEFAULT_255_2_778
10
20.1146388
20
4.0806356
11
20.2381388
21
4.8479356
0
LINE
8
DEFAULT_255_2_778
10
21.1594388
20
4.5450356
11
21.1591388
21
4.5450356
0
LINE
8
DEFAULT_255_2_778
10
20.4151388
20
5.7390356
11
20.6284388
21
6.9836356
0
LINE
8
DEFAULT_255_2_778
10
20.6284388
20
6.9836356
11
19.9749388
21
6.9836356
0
LINE
8
DEFAULT_255_2_778
10
19.9749388
20
6.9836356
11
19.3258388
21
3.2610356
0
LINE
8
DEFAULT_255_2_778
10
19.3258388
20
3.2610356
11
19.8180388
21
3.2610356
0
LINE
8
DEFAULT_255_2_778
10
19.9645388
20
3.4157356
11
19.9601388
21
3.4157356
0
LINE
8
DEFAULT_255_2_778
10
19.9601388
20
3.4157356
11
19.9579388
21
3.4168356
0
LINE
8
DEFAULT_255_2_778
10
25.3909388
20
5.4726356
11
25.4078388
21
5.7864356
0
LINE
8
DEFAULT_255_2_778
10
25.4078388
20
5.7864356
11
24.8025388
21
5.7864356
0
LINE
8
DEFAULT_255_2_778
10
24.8025388
20
5.7864356
11
24.7554388
21
5.3215356
0
LINE
8
DEFAULT_255_2_778
10
24.7554388
20
5.3215356
11
24.4051388
21
3.2670356
0
LINE
8
DEFAULT_255_2_778
10
24.4051388
20
3.2670356
11
25.0673388
21
3.2670356
0
LINE
8
DEFAULT_255_2_778
10
25.0673388
20
3.2670356
11
25.2805388
21
4.6005356
0
LINE
8
DEFAULT_255_2_778
10
26.2479388
20
4.9318356
11
25.9589388
21
3.2657356
0
LINE
8
DEFAULT_255_2_778
10
25.9589388
20
3.2657356
11
26.6167388
21
3.2657356
0
LINE
8
DEFAULT_255_2_778
10
26.6167388
20
3.2657356
11
26.9112388
21
5.0043356
0
LINE
8
DEFAULT_255_2_778
10
29.6779388
20
5.8383356
11
28.9053388
21
5.8383356
0
LINE
8
DEFAULT_255_2_778
10
28.9053388
20
5.8383356
11
28.0163388
21
4.8977356
0
LINE
8
DEFAULT_255_2_778
10
28.0163388
20
4.8977356
11
28.0031388
21
4.8977356
0
LINE
8
DEFAULT_255_2_778
10
28.0031388
20
4.8977356
11
28.3587388
21
6.9815356
0
LINE
8
DEFAULT_255_2_778
10
28.3587388
20
6.9815356
11
27.7131388
21
6.9815356
0
LINE
8
DEFAULT_255_2_778
10
27.7131388
20
6.9815356
11
27.0641388
21
3.2610356
0
LINE
8
DEFAULT_255_2_778
10
27.0641388
20
3.2610356
11
27.7219388
21
3.2610356
0
LINE
8
DEFAULT_255_2_778
10
27.7219388
20
3.2610356
11
27.7885388
21
3.6335356
0
LINE
8
DEFAULT_255_2_778
10
27.7885388
20
3.6335356
11
27.9208388
21
4.4484356
0
LINE
8
DEFAULT_255_2_778
10
28.6125388
20
3.7240356
11
28.7164388
21
3.2618356
0
LINE
8
DEFAULT_255_2_778
10
28.7164388
20
3.2618356
11
29.3850388
21
3.2618356
0
LINE
8
DEFAULT_255_2_778
10
29.3850388
20
3.2618356
11
29.1104388
21
4.2396356
0
LINE
8
DEFAULT_255_2_778
10
28.6064388
20
4.7731356
11
29.6779388
21
5.8383356
0
LINE
8
DEFAULT_255_2_778
10
10.4605388
20
6.8902356
11
9.4497388
21
6.8902356
0
LINE
8
DEFAULT_255_2_778
10
9.4497388
20
6.8902356
11
8.8158388
21
3.2612356
0
LINE
8
DEFAULT_255_2_778
10
8.8158388
20
3.2612356
11
9.4773388
21
3.2612356
0
LINE
8
DEFAULT_255_2_778
10
9.4773388
20
3.2612356
11
9.7379388
21
4.7183356
0
LINE
8
DEFAULT_255_2_778
10
10.5380388
20
3.8796356
11
10.6420388
21
3.2573356
0
LINE
8
DEFAULT_255_2_778
10
10.6420388
20
3.2573356
11
11.3246388
21
3.2573356
0
LINE
8
DEFAULT_255_2_778
10
11.3246388
20
3.2573356
11
11.1253388
21
4.2690356
0
LINE
8
DEFAULT_255_2_778
10
10.6597388
20
4.9120356
11
10.6861388
21
4.9255356
0
LINE
8
DEFAULT_255_2_778
10
10.2088388
20
5.2440356
11
9.8202388
21
5.2440356
0
LINE
8
DEFAULT_255_2_778
10
9.8202388
20
5.2440356
11
10.0212388
21
6.3897356
0
LINE
8
DEFAULT_255_2_778
10
10.0212388
20
6.3897356
11
10.3768388
21
6.3897356
0
LINE
8
DEFAULT_255_2_778
10
10.8195388
20
5.7904356
11
10.8195388
21
5.7906356
0
LINE
8
DEFAULT_255_2_778
10
11.9416388
20
5.4930356
11
12.1691388
21
5.1099356
0
LINE
8
DEFAULT_255_2_778
10
13.1309388
20
5.1099356
11
13.0785388
21
4.7826356
0
LINE
8
DEFAULT_255_2_778
10
13.6045388
20
4.0198356
11
13.7969388
21
5.1043356
0
LINE
8
DEFAULT_255_2_778
10
13.0118388
20
4.4394356
11
13.0110388
21
4.4365356
0
LINE
8
DEFAULT_255_2_778
10
22.3868388
20
5.4927356
11
22.6144388
21
5.1096356
0
LINE
8
DEFAULT_255_2_778
10
23.5761388
20
5.1096356
11
23.5237388
21
4.7823356
0
LINE
8
DEFAULT_255_2_778
10
24.0497388
20
4.0195356
11
24.2421388
21
5.1040356
0
LINE
8
DEFAULT_255_2_778
10
23.4629388
20
4.4394356
11
23.4621388
21
4.4365356
0
LINE
8
DEFAULT_255_2_778
10
15.0430388
20
5.7401356
11
15.2563388
21
6.9847356
0
LINE
8
DEFAULT_255_2_778
10
15.2563388
20
6.9847356
11
14.6012388
21
6.9847356
0
LINE
8
DEFAULT_255_2_778
10
14.6012388
20
6.9847356
11
13.9522388
21
3.2620356
0
LINE
8
DEFAULT_255_2_778
10
13.9522388
20
3.2620356
11
14.4443388
21
3.2620356
0
LINE
8
DEFAULT_255_2_778
10
15.1174388
20
3.2184356
11
15.1171388
21
3.2186356
0
LINE
8
DEFAULT_255_2_778
10
14.7486388
20
4.0780356
11
14.8721388
21
4.8453356
0
LINE
8
DEFAULT_255_2_778
10
15.3886388
20
5.3520356
11
15.3931388
21
5.3520356
0
LINE
8
DEFAULT_255_2_778
10
15.3931388
20
5.3520356
11
15.3923388
21
5.3520356
0
LINE
8
DEFAULT_255_2_778
10
16.7522388
20
4.3190356
11
16.7533388
21
4.3164356
0
LINE
8
DEFAULT_255_2_778
10
18.5136388
20
4.6109356
11
18.5117388
21
4.6074356
0
ARC
8
DEFAULT_255_2_778
10
6.0469204
20
2.1403348
40
2.0982428
50
26.8881494
51
45.5334437
0
ARC
8
DEFAULT_255_2_778
10
6.4432019
20
2.3567825
40
1.6469723
50
13.8370282
51
26.4070385
0
ARC
8
DEFAULT_255_2_778
10
6.6248331
20
2.4033047
40
1.4594868
50
0.066192
51
13.7689959
0
ARC
8
DEFAULT_255_2_778
10
6.6595465
20
2.4050063
40
1.4247725
50
354.552941
51
359.9993743
0
ARC
8
DEFAULT_255_2_778
10
6.5817621
20
2.4168124
40
1.5033326
50
336.9543212
51
354.3864274
0
ARC
8
DEFAULT_255_2_778
10
6.3051416
20
2.5329265
40
1.8033319
50
325.5531658
51
337.0000683
0
ARC
8
DEFAULT_255_2_778
10
5.9524266
20
2.7728637
40
2.2299179
50
316.9346873
51
325.595448
0
ARC
8
DEFAULT_255_2_778
10
5.6866749
20
3.0126862
40
2.5878353
50
314.4290104
51
317.0731782
0
ARC
8
DEFAULT_255_2_778
10
5.3272868
20
3.4009889
40
3.116747
50
301.9703572
51
314.1500261
0
ARC
8
DEFAULT_255_2_778
10
4.8598868
20
4.1407629
40
3.9917958
50
292.3482518
51
302.0393964
0
ARC
8
DEFAULT_255_2_778
10
4.5056316
20
4.9932344
40
4.9149397
50
284.001512
51
292.3891386
0
ARC
8
DEFAULT_255_2_778
10
4.2875933
20
5.8563861
40
5.8052011
50
276.3174147
51
284.0283861
0
ARC
8
DEFAULT_255_2_778
10
4.2025849
20
6.586493
40
6.5402297
50
269.9512872
51
276.3538046
0
ARC
8
DEFAULT_255_2_778
10
4.1891879
20
6.5365209
40
6.4902601
50
262.5118556
51
270.0691798
0
ARC
8
DEFAULT_255_2_778
10
4.083348
20
5.7411045
40
5.6878342
50
254.9524004
51
262.5247275
0
ARC
8
DEFAULT_255_2_778
10
3.8468762
20
4.8737082
40
4.7887884
50
246.330963
51
254.9903124
0
ARC
8
DEFAULT_255_2_778
10
3.4676313
20
4.0160665
40
3.8510441
50
236.2584178
51
246.3761905
0
ARC
8
DEFAULT_255_2_778
10
3.0239512
20
3.3502618
40
3.0509522
50
225.7552019
51
236.2419436
0
ARC
8
DEFAULT_255_2_778
10
2.5817546
20
2.8895621
40
2.4123955
50
217.7164512
51
225.6443439
0
ARC
8
DEFAULT_255_2_778
10
2.214395
20
2.6069008
40
1.9488776
50
207.6603829
51
217.749826
0
ARC
8
DEFAULT_255_2_778
10
1.9069163
20
2.4471809
40
1.602393
50
193.5506044
51
207.7059528
0
ARC
8
DEFAULT_255_2_778
10
1.7641208
20
2.4086087
40
1.4545405
50
185.5859474
51
193.3914268
0
ARC
8
DEFAULT_255_2_778
10
1.736328
20
2.4054113
40
1.4265685
50
180.0009164
51
185.5667935
0
ARC
8
DEFAULT_255_2_778
10
1.8003644
20
2.4008328
40
1.4906118
50
160.4309239
51
179.8248911
0
ARC
8
DEFAULT_255_2_778
10
2.0075661
20
2.3334507
40
1.7084246
50
153.7425948
51
160.6291552
0
ARC
8
DEFAULT_255_2_778
10
2.3549561
20
2.1308825
40
2.109772
50
134.4190691
51
152.9827268
0
ARC
8
DEFAULT_255_2_778
10
4.599712
20
-0.21129
40
5.3538729
50
134.0338562
51
135.3909042
0
ARC
8
DEFAULT_255_2_778
10
2.2904012
20
2.0227259
40
2.1411963
50
134.5527302
51
148.519095
0
ARC
8
DEFAULT_255_2_778
10
2.3091505
20
2.0301951
40
2.1533461
50
148.9491078
51
153.3467177
0
ARC
8
DEFAULT_255_2_778
10
1.7756914
20
2.3062669
40
1.5527484
50
153.6209228
51
170.1649271
0
ARC
8
DEFAULT_255_2_778
10
1.9275185
20
2.2762163
40
1.7074812
50
170.0416103
51
180.0479333
0
ARC
8
DEFAULT_255_2_778
10
2.0131009
20
2.2757595
40
1.7930633
50
180.0310488
51
189.1689649
0
ARC
8
DEFAULT_255_2_778
10
2.0536587
20
2.2814453
40
1.8340091
50
189.1424235
51
191.6943474
0
ARC
8
DEFAULT_255_2_778
10
2.1021739
20
2.2931226
40
1.8838846
50
191.7430493
51
205.45355
0
ARC
8
DEFAULT_255_2_778
10
2.1884336
20
2.3342556
40
1.9794495
50
205.4555101
51
217.4359779
0
ARC
8
DEFAULT_255_2_778
10
2.2895766
20
2.4107252
40
2.1062444
50
217.4152272
51
225.6079906
0
ARC
8
DEFAULT_255_2_778
10
3.1497396
20
3.2912879
40
3.3372075
50
225.6313871
51
239.0446481
0
ARC
8
DEFAULT_255_2_778
10
3.4697902
20
3.8205849
40
3.9557409
50
239.0126266
51
248.7556104
0
ARC
8
DEFAULT_255_2_778
10
3.7675456
20
4.5790645
40
4.7705684
50
248.723323
51
256.2817563
0
ARC
8
DEFAULT_255_2_778
10
4.0077668
20
5.5568177
40
5.7773978
50
256.2669113
51
262.6630086
0
ARC
8
DEFAULT_255_2_778
10
4.1632828
20
6.7439332
40
6.9746541
50
262.6413041
51
267.8754912
0
ARC
8
DEFAULT_255_2_778
10
4.2089051
20
7.7364531
40
7.9681878
50
267.8122352
51
270.0152385
0
ARC
8
DEFAULT_255_2_778
10
4.2203308
20
7.1723407
40
7.404081
50
269.9279835
51
275.0321695
0
ARC
8
DEFAULT_255_2_778
10
4.3274565
20
5.9755969
40
6.2025537
50
275.0160923
51
281.0059384
0
ARC
8
DEFAULT_255_2_778
10
4.5300271
20
4.9426606
40
5.1499432
50
280.9876249
51
288.0492037
0
ARC
8
DEFAULT_255_2_778
10
4.807895
20
4.0951245
40
4.2580212
50
288.0276867
51
296.4780127
0
ARC
8
DEFAULT_255_2_778
10
5.1366205
20
3.4396285
40
3.52472
50
296.4456923
51
307.1012368
0
ARC
8
DEFAULT_255_2_778
10
5.409156
20
3.0708482
40
3.0661955
50
307.1963707
51
315.0777686
0
ARC
8
DEFAULT_255_2_778
10
6.0270972
20
2.4545943
40
2.1934868
50
315.0775473
51
322.6642401
0
ARC
8
DEFAULT_255_2_778
10
6.1441832
20
2.3651023
40
2.0461168
50
322.6682664
51
331.2149173
0
ARC
8
DEFAULT_255_2_778
10
6.2274699
20
2.3190687
40
1.9509553
50
331.2219826
51
340.7274697
0
ARC
8
DEFAULT_255_2_778
10
6.2611043
20
2.30635
40
1.9150081
50
340.7545312
51
342.0942651
0
ARC
8
DEFAULT_255_2_778
10
6.2855964
20
2.2989825
40
1.8894373
50
342.0785129
51
350.5635735
0
ARC
8
DEFAULT_255_2_778
10
6.334475
20
2.2910802
40
1.8399244
50
350.5567719
51
359.3146254
0
ARC
8
DEFAULT_255_2_778
10
6.3705298
20
2.2898085
40
1.8038572
50
359.3413157
51
359.9993867
0
ARC
8
DEFAULT_255_2_778
10
6.4392298
20
2.2917948
40
1.7351584
50
359.9337733
51
10.3420142
0
ARC
8
DEFAULT_255_2_778
10
6.6214063
20
2.3260196
40
1.5497976
50
10.3063855
51
20.6012666
0
ARC
8
DEFAULT_255_2_778
10
6.8089947
20
2.3948423
40
1.34999
50
20.668481
51
27.3549855
0
ARC
8
DEFAULT_255_2_778
10
6.0967416
20
2.0120981
40
2.1585056
50
27.6911063
51
48.8635419
0
LINE
8
DEFAULT_255_2_778
10
7.5167244
20
3.6377656
11
7.5167244
21
3.6377656
0
ARC
8
DEFAULT_255_2_778
10
4.4051738
20
-0.4604432
40
5.2136907
50
67.6603071
51
78.1547384
0
ARC
8
DEFAULT_255_2_778
10
4.2080121
20
-1.3795613
40
6.1537094
50
78.1147335
51
90.0784888
0
ARC
8
DEFAULT_255_2_778
10
4.1872386
20
-1.367159
40
6.1413137
50
89.8848394
51
102.5227713
0
ARC
8
DEFAULT_255_2_778
10
3.9623177
20
-0.3486496
40
5.0982659
50
102.5370554
51
112.4880027
0
ARC
8
DEFAULT_255_2_778
10
3.5672248
20
0.5794314
40
4.0896498
50
112.3469462
51
121.6503462
0
ARC
8
DEFAULT_255_2_778
10
3.0275282
20
1.4479753
40
3.0670927
50
121.581772
51
132.993417
0
ARC
8
DEFAULT_255_2_778
10
2.4351945
20
2.0746816
40
2.2047867
50
132.8403073
51
149.3701545
0
ARC
8
DEFAULT_255_2_778
10
2.1237922
20
2.2754923
40
1.8345757
50
149.8116618
51
153.7591236
0
ARC
8
DEFAULT_255_2_778
10
1.9534086
20
2.3544228
40
1.6468586
50
153.6012336
51
166.1694486
0
ARC
8
DEFAULT_255_2_778
10
1.7725119
20
2.4007362
40
1.4601365
50
166.2372162
51
179.9341447
0
ARC
8
DEFAULT_255_2_778
10
1.7378984
20
2.4024283
40
1.4255222
50
180.0005579
51
185.5052702
0
ARC
8
DEFAULT_255_2_778
10
1.8159743
20
2.4143314
40
1.5043862
50
185.6712407
51
203.0722502
0
ARC
8
DEFAULT_255_2_778
10
2.0918803
20
2.5302926
40
1.8036676
50
203.0265192
51
214.4582425
0
ARC
8
DEFAULT_255_2_778
10
2.443282
20
2.7694483
40
2.2287282
50
214.416291
51
223.0704865
0
ARC
8
DEFAULT_255_2_778
10
2.7076715
20
3.0080769
40
2.5848348
50
222.9324042
51
225.5759469
0
ARC
8
DEFAULT_255_2_778
10
3.0691917
20
3.3982265
40
3.116558
50
225.8498805
51
238.0303776
0
ARC
8
DEFAULT_255_2_778
10
3.5365104
20
4.1379068
40
3.9914842
50
237.9614504
51
247.6538356
0
ARC
8
DEFAULT_255_2_778
10
3.8909574
20
4.9909433
40
4.9152234
50
247.6129953
51
256.0012221
0
ARC
8
DEFAULT_255_2_778
10
4.1093316
20
5.8556316
40
5.8070569
50
255.9743886
51
263.6847451
0
ARC
8
DEFAULT_255_2_778
10
4.194597
20
6.5882562
40
6.5446162
50
263.648326
51
270.0488965
0
ARC
8
DEFAULT_255_2_778
10
4.2080597
20
6.5212518
40
6.4776142
50
269.9303217
51
277.503624
0
ARC
8
DEFAULT_255_2_778
10
4.3139407
20
5.7268856
40
5.6762239
50
277.4911188
51
285.0782096
0
ARC
8
DEFAULT_255_2_778
10
4.5495609
20
4.8643485
40
4.7820899
50
285.0407067
51
293.7108828
0
ARC
8
DEFAULT_255_2_778
10
4.926801
20
4.0128996
40
3.8508196
50
293.6661013
51
303.7888565
0
ARC
8
DEFAULT_255_2_778
10
5.3679395
20
3.3520194
40
3.056235
50
303.8059337
51
314.2717556
0
ARC
8
DEFAULT_255_2_778
10
5.8192201
20
2.8861237
40
2.4076152
50
314.321509
51
322.2923503
0
ARC
8
DEFAULT_255_2_778
10
6.1865783
20
2.6035447
40
1.9441484
50
322.2591018
51
332.4046095
0
ARC
8
DEFAULT_255_2_778
10
6.4928388
20
2.4448721
40
1.5992273
50
332.3599947
51
346.5871644
0
ARC
8
DEFAULT_255_2_778
10
6.6335397
20
2.4071674
40
1.4536235
50
346.7463428
51
354.583107
0
ARC
8
DEFAULT_255_2_778
10
6.6597963
20
2.4042018
40
1.4272043
50
354.6021261
51
359.9995736
0
ARC
8
DEFAULT_255_2_778
10
6.5943991
20
2.3995885
40
1.4926088
50
0.1766789
51
19.5480669
0
ARC
8
DEFAULT_255_2_778
10
6.3862345
20
2.3319917
40
1.711403
50
19.3488415
51
26.2244858
0
ARC
8
DEFAULT_255_2_778
10
6.0606676
20
2.1494741
40
2.0842065
50
26.7706313
51
44.9554976
0
ARC
8
DEFAULT_255_2_778
10
5.4770969
20
1.5794198
40
2.8999634
50
44.7791833
51
56.8356
0
ARC
8
DEFAULT_255_2_778
10
4.9370232
20
0.7634021
40
3.8785034
50
56.7513791
51
66.2063901
0
ARC
8
DEFAULT_255_2_778
10
4.6736488
20
0.2035539
40
4.4970491
50
66.0137269
51
67.595299
0
LINE
8
DEFAULT_255_2_778
10
6.3876822
20
4.3611424
11
6.3868822
21
4.3619424
0
ARC
8
DEFAULT_255_2_778
10
5.1799265
20
4.4771626
40
0.9480199
50
192.5072277
51
206.1606119
0
ARC
8
DEFAULT_255_2_778
10
5.2728959
20
4.4923364
40
1.0420825
50
179.6641064
51
192.2147187
0
ARC
8
DEFAULT_255_2_778
10
6.1619001
20
4.4760173
40
1.9311992
50
172.1741399
51
179.3345733
0
ARC
8
DEFAULT_255_2_778
10
11.7536591
20
3.8015293
40
7.5632935
50
172.6317548
51
172.8800662
0
ARC
8
DEFAULT_255_2_778
10
4.1887541
20
-1.3714276
40
6.1429314
50
89.8837267
51
102.4387481
0
ARC
8
DEFAULT_255_2_778
10
3.9658387
20
-0.3560727
40
5.1033952
50
102.4502034
51
112.4870429
0
ARC
8
DEFAULT_255_2_778
10
3.568774
20
0.5764554
40
4.0899165
50
112.3440656
51
121.6475263
0
ARC
8
DEFAULT_255_2_778
10
3.0286328
20
1.4457758
40
3.0664654
50
121.5785383
51
132.9915008
0
ARC
8
DEFAULT_255_2_778
10
2.4352388
20
2.0736092
40
2.2026122
50
132.8373046
51
149.3770902
0
ARC
8
DEFAULT_255_2_778
10
2.1228821
20
2.2749641
40
1.8313047
50
149.8202321
51
153.7722647
0
ARC
8
DEFAULT_255_2_778
10
1.9557142
20
2.3516881
40
1.647448
50
153.5965154
51
166.1638292
0
ARC
8
DEFAULT_255_2_778
10
1.7737722
20
2.3982844
40
1.459643
50
166.2318723
51
179.9336344
0
ARC
8
DEFAULT_255_2_778
10
1.738755
20
2.3999851
40
1.4246249
50
180.0004014
51
185.3969496
0
ARC
8
DEFAULT_255_2_778
10
1.8159992
20
2.4116551
40
1.5026306
50
185.5629352
51
203.0203733
0
ARC
8
DEFAULT_255_2_778
10
2.0922905
20
2.5275057
40
1.8022245
50
202.9751933
51
214.4400675
0
ARC
8
DEFAULT_255_2_778
10
2.4451208
20
2.7674666
40
2.2289191
50
214.397888
51
223.0714841
0
ARC
8
DEFAULT_255_2_778
10
2.7108762
20
3.0073161
40
2.5868573
50
222.9324655
51
225.5805664
0
ARC
8
DEFAULT_255_2_778
10
2.8247032
20
3.1245923
40
2.7502884
50
225.5968797
51
229.4091581
0
ARC
8
DEFAULT_255_2_778
10
0.648389
20
7.6406837
40
6.6159112
50
273.3519867
51
278.4355408
0
ARC
8
DEFAULT_255_2_778
10
0.7760052
20
6.7894203
40
5.7551365
50
278.4220198
51
284.1671761
0
ARC
8
DEFAULT_255_2_778
10
0.9806111
20
5.9831746
40
4.9233347
50
284.1549252
51
290.4821901
0
ARC
8
DEFAULT_255_2_778
10
1.2580929
20
5.2445852
40
4.1343431
50
290.4614679
51
297.6789803
0
ARC
8
DEFAULT_255_2_778
10
1.6013661
20
4.5934142
40
3.3982336
50
297.6535149
51
305.9643326
0
ARC
8
DEFAULT_255_2_778
10
1.9957479
20
4.053496
40
2.7296206
50
305.9197947
51
316.0489809
0
ARC
8
DEFAULT_255_2_778
10
2.4195143
20
3.6487547
40
2.1436309
50
315.9761368
51
329.1991344
0
ARC
8
DEFAULT_255_2_778
10
2.8314088
20
3.4084978
40
1.6668145
50
329.0429426
51
350.0351173
0
ARC
8
DEFAULT_255_2_778
10
3.0039995
20
3.3692373
40
1.4900598
50
350.3735855
51
359.9833598
0
ARC
8
DEFAULT_255_2_778
10
3.0089459
20
3.3685722
40
1.4851134
50
0.0089653
51
8.2482684
0
ARC
8
DEFAULT_255_2_778
10
2.9857857
20
3.365609
40
1.5084591
50
8.233452
51
9.0804884
0
ARC
8
DEFAULT_255_2_778
10
2.9475227
20
3.3586059
40
1.5473481
50
9.112947
51
16.7317071
0
ARC
8
DEFAULT_255_2_778
10
2.8494147
20
3.3291733
40
1.6497758
50
16.7296982
51
22.9460807
0
ARC
8
DEFAULT_255_2_778
10
2.7560466
20
3.2905095
40
1.7508297
50
22.9200164
51
26.0716961
0
LINE
8
DEFAULT_255_2_778
10
4.2528202
20
4.7714912
11
4.2012202
21
4.7714912
0
LINE
8
DEFAULT_255_2_778
10
4.3287202
20
4.0599912
11
4.3290202
21
4.0591912
0
ARC
8
DEFAULT_255_2_778
10
-0.9121856
20
-9.429832
40
13.8765767
50
69.5559241
51
75.6535936
0
ARC
8
DEFAULT_255_2_778
10
9.2970711
20
-9.2694584
40
13.6948541
50
104.1871278
51
110.3251295
0
ARC
8
DEFAULT_255_2_778
10
11.7166016
20
-5.1158015
40
10.7981745
50
122.3374631
51
128.5547686
0
ARC
8
DEFAULT_255_2_778
10
6.4778452
20
-13.7518879
40
16.7614464
50
88.7250036
51
90.0058066
0
ARC
8
DEFAULT_255_2_778
10
6.4838636
20
-15.5829254
40
18.5924854
50
90.0237814
51
91.7703559
0
ARC
8
DEFAULT_255_2_778
10
6.7566657
20
-23.4398223
40
26.4540767
50
91.83521
51
93.7561979
0
ARC
8
DEFAULT_255_2_778
10
7.3626822
20
-33.6408072
40
36.6729043
50
93.6568908
51
93.6793186
0
ARC
8
DEFAULT_255_2_778
10
73.085727
20
-13.1966178
40
70.3377811
50
166.9537073
51
168.1823344
0
ARC
8
DEFAULT_255_2_778
10
-3.4339874
20
-5.2974786
40
11.056337
50
51.2468665
51
57.3793226
0
LINE
8
DEFAULT_255_2_778
10
4.237205
20
3.1573086
11
4.237205
21
4.2397086
0
ARC
8
DEFAULT_255_2_778
10
-3.1073483
20
-9.440939
40
14.5837588
50
59.7607548
51
61.106374
0
ARC
8
DEFAULT_255_2_778
10
-2.7529123
20
-8.642926
40
13.7157555
50
60.785865
51
66.0840327
0
ARC
8
DEFAULT_255_2_778
10
6.6338732
20
-23.1169112
40
26.5818311
50
95.8134473
51
96.408719
0
ARC
8
DEFAULT_255_2_778
10
4.2375906
20
-18.8236589
40
21.9817675
50
84.175062
51
89.9994412
0
ARC
8
DEFAULT_255_2_778
10
11.6047225
20
-9.3034215
40
14.4759707
50
119.2402505
51
120.5910285
0
ARC
8
DEFAULT_255_2_778
10
-12.3907329
20
-1.6349679
40
17.6360171
50
16.3451373
51
16.8590813
0
ARC
8
DEFAULT_255_2_778
10
3.2952498
20
0.8459364
40
2.468394
50
59.6251737
51
64.1942647
0
ARC
8
DEFAULT_255_2_778
10
5.7226184
20
5.8598841
40
3.1022249
50
240.5782767
51
244.1458393
0
ARC
8
DEFAULT_255_2_778
10
3.3603107
20
1.7258133
40
1.6593279
50
59.6514983
51
59.6753006
0
ARC
8
DEFAULT_255_2_778
10
6.0735886
20
-15.8359385
40
18.8735389
50
93.7953163
51
94.6488713
0
ARC
8
DEFAULT_255_2_778
10
12.309902
20
-10.4378409
40
15.812888
50
120.7035357
51
121.9886486
0
ARC
8
DEFAULT_255_2_778
10
13.8736256
20
-17.853895
40
22.9035618
50
115.6114232
51
119.4981809
0
LINE
8
DEFAULT_255_2_778
10
3.934805
20
3.5727086
11
4.237205
21
4.3974086
0
LINE
8
DEFAULT_255_2_778
10
4.237205
20
4.3974086
11
4.540205
21
3.5727086
0
LINE
8
DEFAULT_255_2_778
10
4.986505
20
3.3285086
11
6.850805
21
3.0054086
0
LINE
8
DEFAULT_255_2_778
10
5.009305
20
2.9565086
11
6.238505
21
1.8137086
0
LINE
8
DEFAULT_255_2_778
10
6.238505
20
1.8137086
11
4.563505
21
2.6813086
0
LINE
8
DEFAULT_255_2_778
10
4.238805
20
1.2084086
11
3.926305
21
2.6578086
0
LINE
8
DEFAULT_255_2_778
10
3.926305
20
2.6578086
11
2.225605
21
1.8100086
0
LINE
8
DEFAULT_255_2_778
10
2.225605
20
1.8100086
11
3.466205
21
2.9440086
0
LINE
8
DEFAULT_255_2_778
10
3.466205
20
2.9440086
11
1.600405
21
3.0017086
0
LINE
8
DEFAULT_255_2_778
10
1.600405
20
3.0017086
11
3.486905
21
3.3248086
0
LINE
8
DEFAULT_255_2_778
10
2.526205
20
4.0148086
11
2.526205
21
4.0140086
0
LINE
8
DEFAULT_255_2_778
10
4.237205
20
4.2397086
11
3.939305
21
3.3274086
0
LINE
8
DEFAULT_255_2_778
10
4.237205
20
3.1584086
11
4.237205
21
3.1573086
0
LINE
8
DEFAULT_255_2_778
10
3.666805
20
3.2988086
11
2.807705
21
3.8952086
0
LINE
8
DEFAULT_255_2_778
10
2.807705
20
3.8952086
11
2.807405
21
3.8952086
0
LINE
8
DEFAULT_255_2_778
10
6.468505
20
3.0446086
11
4.533605
21
3.3280086
0
LINE
8
DEFAULT_255_2_778
10
4.237805
20
3.1578086
11
4.237805
21
3.1581086
0
LINE
8
DEFAULT_255_2_778
10
5.666505
20
3.8952086
11
4.532505
21
3.3282086
0
LINE
8
DEFAULT_255_2_778
10
4.487305
20
3.4798086
11
5.666505
21
3.8952086
0
LINE
8
DEFAULT_255_2_778
10
5.666505
20
3.8952086
11
5.666505
21
3.8952086
0
LINE
8
DEFAULT_255_2_778
10
4.197505
20
3.1573086
11
4.237205
21
1.5751086
0
LINE
8
DEFAULT_255_2_778
10
4.237205
20
1.5751086
11
4.543405
21
2.9755086
0
LINE
8
DEFAULT_255_2_778
10
4.198105
20
3.1581086
11
4.197505
21
3.1573086
0
LINE
8
DEFAULT_255_2_778
10
5.878705
20
2.0802086
11
4.543905
21
2.9755086
0
LINE
8
DEFAULT_255_2_778
10
4.824305
20
2.9962086
11
5.879505
21
2.0807086
0
LINE
8
DEFAULT_255_2_778
10
5.879505
20
2.0807086
11
5.878705
21
2.0802086
0
LINE
8
DEFAULT_255_2_778
10
4.237205
20
3.1573086
11
2.170305
21
3.0501086
0
LINE
8
DEFAULT_255_2_778
10
2.170305
20
3.0501086
11
3.933005
21
2.9739086
0
LINE
8
DEFAULT_255_2_778
10
4.235905
20
3.1584086
11
4.237205
21
3.1573086
0
LINE
8
DEFAULT_255_2_778
10
2.596005
20
2.0802086
11
3.933005
21
2.9745086
0
LINE
8
DEFAULT_255_2_778
10
3.933005
20
2.9745086
11
3.973205
21
2.7993086
0
LINE
8
DEFAULT_255_2_778
10
2.596005
20
2.0807086
11
2.596005
21
2.0802086
0
ARC
8
DEFAULT_255_2_778
10
9.2962221
20
-9.3038011
40
13.7101974
50
104.3739343
51
110.2954979
0
ARC
8
DEFAULT_255_2_778
10
9.3044565
20
-9.2912128
40
13.7181306
50
104.1923379
51
110.3199148
0
ARC
8
DEFAULT_255_2_778
10
-0.9268863
20
-9.4777532
40
13.9272538
50
69.5670284
51
75.6424894
0
ARC
8
DEFAULT_255_2_778
10
-0.9273435
20
-9.4992235
40
13.9301966
50
69.569531
51
75.440187
0
LINE
8
DEFAULT_255_2_778
10
4.2377763
20
4.3799151
11
4.5406763
21
3.5552151
0
LINE
8
DEFAULT_255_2_778
10
5.8926763
20
3.9772151
11
5.9410763
21
4.0082151
0
LINE
8
DEFAULT_255_2_778
10
4.5406763
20
3.5732151
11
4.2377763
21
4.3979151
0
LINE
8
DEFAULT_255_2_778
10
4.2377763
20
4.3979151
11
3.9352763
21
3.5732151
0
LINE
8
DEFAULT_255_2_778
10
2.5266763
20
4.0145151
11
2.5745763
21
3.9836151
0
LINE
8
DEFAULT_255_2_778
10
3.9352763
20
3.5547151
11
4.2377763
21
4.3794151
0
LINE
8
DEFAULT_255_2_778
10
4.2377763
20
4.3794151
11
4.2377763
21
4.3799151
0
LINE
8
DEFAULT_255_2_778
10
3.4656139
20
2.9435035
11
2.2287139
21
1.8095035
0
LINE
8
DEFAULT_255_2_778
10
2.2287139
20
1.8095035
11
2.2933139
21
1.8455035
0
LINE
8
DEFAULT_255_2_778
10
2.2933139
20
1.8455035
11
3.4683139
21
2.9149035
0
LINE
8
DEFAULT_255_2_778
10
3.4683139
20
2.9149035
11
3.4683139
21
2.9422035
0
LINE
8
DEFAULT_255_2_778
10
3.4683139
20
2.9422035
11
3.4656139
21
2.9435035
0
ARC
8
DEFAULT_255_2_778
10
16.0533569
20
-16.7879581
40
23.182969
50
120.7296914
51
121.5181499
0
LINE
8
DEFAULT_255_2_778
10
4.2377278
20
3.1583343
11
4.2377278
21
3.1403343
0
LINE
8
DEFAULT_255_2_778
10
4.2377278
20
3.1403343
11
4.2377278
21
3.1583343
0
LINE
8
DEFAULT_255_2_778
10
4.2224278
20
3.1490343
11
4.2071278
21
3.1398343
0
LINE
8
DEFAULT_255_2_778
10
3.9340278
20
2.9749343
11
3.9382278
21
2.9569343
0
LINE
8
DEFAULT_255_2_778
10
3.9382278
20
2.9569343
11
4.2372278
21
3.1374343
0
LINE
8
DEFAULT_255_2_778
10
4.2372278
20
3.1374343
11
4.2372278
21
3.1596343
0
LINE
8
DEFAULT_255_2_778
10
4.2372278
20
3.1596343
11
4.2224278
21
3.1490343
0
ARC
8
DEFAULT_255_2_778
10
6.8096847
20
-24.9037298
40
28.3566654
50
95.8091567
51
96.3673496
0
ARC
8
DEFAULT_255_2_778
10
15.1711052
20
-20.269642
40
25.6224718
50
115.9109561
51
119.3881454
0
ARC
8
DEFAULT_255_2_778
10
13.6160871
20
-17.2730392
40
22.2709458
50
115.6524224
51
119.6532077
0
LINE
8
DEFAULT_255_2_778
10
3.9400565
20
3.3285113
11
3.9122565
21
3.3253113
0
LINE
8
DEFAULT_255_2_778
10
3.9122565
20
3.3253113
11
3.6648565
21
3.2996113
0
LINE
8
DEFAULT_255_2_778
10
3.6648565
20
3.2996113
11
2.8078565
21
3.8976113
0
LINE
8
DEFAULT_255_2_778
10
2.8078565
20
3.8976113
11
2.8078565
21
3.8759113
0
LINE
8
DEFAULT_255_2_778
10
2.8078565
20
3.8759113
11
3.6648565
21
3.2780113
0
LINE
8
DEFAULT_255_2_778
10
3.9395565
20
3.3073113
11
4.2014565
21
3.1599113
0
LINE
8
DEFAULT_255_2_778
10
4.2014565
20
3.1599113
11
4.2374565
21
3.1599113
0
LINE
8
DEFAULT_255_2_778
10
4.2374565
20
3.1599113
11
3.9400565
21
3.3285113
0
LINE
8
DEFAULT_255_2_778
10
3.9400565
20
3.3285113
11
3.9400565
21
3.3285113
0
LINE
8
DEFAULT_255_2_778
10
3.9747565
20
2.7771113
11
3.9747565
21
2.8028113
0
LINE
8
DEFAULT_255_2_778
10
2.5975565
20
2.0812113
11
2.5975565
21
2.0556113
0
LINE
8
DEFAULT_255_2_778
10
4.5443666
20
2.9760481
11
4.2387666
21
1.5761481
0
LINE
8
DEFAULT_255_2_778
10
4.2387666
20
1.5761481
11
4.2387666
21
1.5581481
0
LINE
8
DEFAULT_255_2_778
10
4.2387666
20
1.5581481
11
4.5438666
21
2.9548481
0
LINE
8
DEFAULT_255_2_778
10
4.5438666
20
2.9548481
11
5.8802666
21
2.0539481
0
LINE
8
DEFAULT_255_2_778
10
5.8802666
20
2.0539481
11
5.8802666
21
2.0812481
0
LINE
8
DEFAULT_255_2_778
10
5.8802666
20
2.0812481
11
4.5454666
21
2.9760481
0
LINE
8
DEFAULT_255_2_778
10
4.5454666
20
2.9760481
11
4.5443666
21
2.9760481
0
LINE
8
DEFAULT_255_2_778
10
5.0287666
20
2.9400481
11
5.0081666
21
2.9570481
0
LINE
8
DEFAULT_255_2_778
10
5.0081666
20
2.9570481
11
5.0081666
21
2.9276481
0
LINE
8
DEFAULT_255_2_778
10
5.0081666
20
2.9276481
11
6.1704666
21
1.8523481
0
LINE
8
DEFAULT_255_2_778
10
6.1704666
20
1.8523481
11
6.2374666
21
1.8142481
0
LINE
8
DEFAULT_255_2_778
10
6.2374666
20
1.8142481
11
5.0282666
21
2.9398481
0
LINE
8
DEFAULT_255_2_778
10
5.0282666
20
2.9398481
11
5.0287666
21
2.9400481
0
ARC
8
DEFAULT_255_2_778
10
2.3093002
20
-11.9407835
40
14.9727567
50
89.9988928
51
90.5209963
0
ARC
8
DEFAULT_255_2_778
10
2.2849749
20
-14.2551723
40
17.287163
50
86.4413531
51
89.9184183
0
ARC
8
DEFAULT_255_2_778
10
1.9885844
20
-19.3986727
40
22.4391548
50
85.0874799
51
86.5012019
0
LINE
8
DEFAULT_255_2_778
10
3.4682533
20
3.3215541
11
1.6008533
21
3.0009541
0
LINE
8
DEFAULT_255_2_778
10
1.6008533
20
3.0009541
11
1.6987533
21
3.0009541
0
LINE
8
DEFAULT_255_2_778
10
1.6987533
20
3.0009541
11
3.4873533
21
3.3038541
0
LINE
8
DEFAULT_255_2_778
10
3.4873533
20
3.3038541
11
3.4873533
21
3.3255541
0
LINE
8
DEFAULT_255_2_778
10
3.4873533
20
3.3255541
11
3.4682533
21
3.3215541
0
LINE
8
DEFAULT_255_2_778
10
3.9347533
20
2.9741541
11
2.1731533
21
3.0493541
0
LINE
8
DEFAULT_255_2_778
10
2.1731533
20
3.0493541
11
2.1731533
21
3.0313541
0
LINE
8
DEFAULT_255_2_778
10
3.9101533
20
2.9580541
11
3.9339533
21
2.9744541
0
ARC
8
DEFAULT_255_2_778
10
4.2375054
20
-18.8234738
40
21.9817675
50
84.175062
51
89.9994412
0
ARC
8
DEFAULT_255_2_778
10
4.1951711
20
-19.6581964
40
22.796019
50
84.2768778
51
89.8073498
0
LINE
8
DEFAULT_255_2_778
10
4.9862198
20
3.3284937
11
6.8505198
21
3.0053937
0
LINE
8
DEFAULT_255_2_778
10
6.8505198
20
3.0053937
11
6.7473198
21
3.0053937
0
LINE
8
DEFAULT_255_2_778
10
6.7473198
20
3.0053937
11
4.9883198
21
3.3043937
0
LINE
8
DEFAULT_255_2_778
10
4.9883198
20
3.3043937
11
4.9883198
21
3.3286937
0
LINE
8
DEFAULT_255_2_778
10
4.9883198
20
3.3286937
11
4.9862198
21
3.3284937
0
LINE
8
DEFAULT_255_2_778
10
6.4684198
20
3.0447937
11
6.4684198
21
3.0241937
0
LINE
8
DEFAULT_255_2_778
10
4.2718198
20
3.1376937
11
4.2533198
21
3.1479937
0
LINE
8
DEFAULT_255_2_778
10
4.2533198
20
3.1479937
11
4.2380198
21
3.1572937
0
LINE
8
DEFAULT_255_2_778
10
4.2380198
20
3.1572937
11
4.2700198
21
3.1572937
0
LINE
8
DEFAULT_255_2_778
10
4.5338198
20
3.3284937
11
4.5605198
21
3.3252937
0
LINE
8
DEFAULT_255_2_778
10
4.5605198
20
3.3252937
11
5.6667198
21
3.8766937
0
LINE
8
DEFAULT_255_2_778
10
5.6667198
20
3.8766937
11
5.6667198
21
3.8951937
0
LINE
8
DEFAULT_255_2_778
10
5.6667198
20
3.8951937
11
4.5327198
21
3.3281937
0
ARC
8
DEFAULT_255_2_778
10
-12.3897625
20
-1.6346404
40
17.6360171
50
16.3451373
51
16.8590813
0
LINE
8
DEFAULT_255_2_778
10
4.4882754
20
3.4801361
11
4.4882754
21
3.4621361
0
LINE
8
DEFAULT_255_2_778
10
4.4882754
20
3.4621361
11
4.5274754
21
3.3282361
0
LINE
8
DEFAULT_255_2_778
10
4.5274754
20
3.3282361
11
4.5326754
21
3.3309361
0
ARC
8
DEFAULT_255_2_778
10
4.436656
20
0.3931455
40
0.4871353
50
118.3781047
51
124.1225633
0
ARC
8
DEFAULT_255_2_778
10
2.5120431
20
3.8366307
40
3.4577573
50
299.3174375
51
299.5129681
0
ARC
8
DEFAULT_255_2_778
10
3.9449242
20
1.3103566
40
0.5534209
50
299.258078
51
302.0363504
0
ARC
8
DEFAULT_255_2_778
10
4.4975701
20
1.2202108
40
0.459086
50
235.6436336
51
240.6871565
0
ARC
8
DEFAULT_255_2_778
10
3.5135884
20
-0.496383
40
1.5195519
50
59.2916034
51
60.0240577
0
ARC
8
DEFAULT_255_2_778
10
4.1362414
20
0.5489898
40
0.3027982
50
54.7985651
51
59.5761121
0
ARC
8
DEFAULT_255_2_778
10
376.6633484
20
0.7984254
40
372.3525582
50
180.0003093
51
180.0938962
0
ARC
8
DEFAULT_255_2_778
10
1.9927467
20
1.757666
40
0.6247101
50
160.1672101
51
167.2709283
0
ARC
8
DEFAULT_255_2_778
10
17.4691214
20
-30.0517046
40
35.868887
50
116.7213846
51
117.8667652
0
ARC
8
DEFAULT_255_2_778
10
2.4252495
20
-10.4054732
40
13.3571116
50
95.6208339
51
98.1958774
0
ARC
8
DEFAULT_255_2_778
10
2.7526168
20
-12.5135579
40
15.5772711
50
95.9421538
51
98.1389001
0
ARC
8
DEFAULT_255_2_778
10
1.4511976
20
3.8944608
40
0.2020521
50
182.1685384
51
188.8995829
0
ARC
8
DEFAULT_255_2_778
10
3.2392853
20
4.1319841
40
2.0057976
50
187.7009286
51
187.7598833
0
ARC
8
DEFAULT_255_2_778
10
0.9241561
20
3.8120431
40
0.3313595
50
4.9292559
51
8.52386
0
ARC
8
DEFAULT_255_2_778
10
0.0842956
20
-4.444369
40
8.3670901
50
78.9185202
51
81.9618222
0
ARC
8
DEFAULT_255_2_778
10
-0.0271127
20
-5.5459673
40
9.5528104
50
79.2989935
51
81.963
0
ARC
8
DEFAULT_255_2_778
10
8.3962556
20
0.4733135
40
4.7683396
50
122.1691969
51
125.433264
0
ARC
8
DEFAULT_255_2_778
10
7.7080041
20
1.3455505
40
3.7245926
50
121.1797575
51
125.372216
0
LINE
8
DEFAULT_255_2_778
10
4.2697902
20
4.7432153
11
4.2697902
21
4.5644153
0
ARC
8
DEFAULT_255_2_778
10
-11.6363028
20
4.9369436
40
15.8225791
50
358.6508981
51
359.2984652
0
ARC
8
DEFAULT_255_2_778
10
2.8065266
20
4.2769106
40
0.3187012
50
130.4512595
51
133.987
0
ARC
8
DEFAULT_255_2_778
10
3.265059
20
3.7524653
40
1.0153153
50
130.8453307
51
130.9401467
0
ARC
8
DEFAULT_255_2_778
10
5.0516345
20
1.6705279
40
3.7587234
50
130.388811
51
130.6910303
0
ARC
8
DEFAULT_255_2_778
10
-0.3665801
20
-0.3459646
40
5.7485226
50
55.3659967
51
58.0820298
0
ARC
8
DEFAULT_255_2_778
10
2.888115
20
4.0141572
40
0.3460838
50
91.5439516
51
97.062186
0
ARC
8
DEFAULT_255_2_778
10
1.0548033
20
21.430121
40
17.1661666
50
275.9839537
51
275.987948
0
ARC
8
DEFAULT_255_2_778
10
2.8037731
20
4.6894602
40
0.3344435
50
271.3907358
51
276.9729949
0
ARC
8
DEFAULT_255_2_778
10
-0.6289183
20
-0.5616234
40
6.0011234
50
55.0150871
51
57.6164435
0
ARC
8
DEFAULT_255_2_778
10
2.039117
20
0.9379567
40
0.3861974
50
274.852029
51
282.0118695
0
LINE
8
DEFAULT_255_2_778
10
2.0717826
20
0.5531433
11
2.0710539
21
0.5530653
0
ARC
8
DEFAULT_255_2_778
10
2.1017478
20
0.1813463
40
0.3729842
50
94.7203644
51
102.4101813
0
ARC
8
DEFAULT_255_2_778
10
1.8058619
20
0.4690616
40
0.2289087
50
19.5378459
51
28.0073059
0
ARC
8
DEFAULT_255_2_778
10
2.8179009
20
0.9808068
40
0.9052189
50
206.002089
51
206.5245262
0
ARC
8
DEFAULT_255_2_778
10
2.1509965
20
0.6588879
40
0.1647172
50
197.3691758
51
207.0595691
0
ARC
8
DEFAULT_255_2_778
10
27.5405382
20
-20.7679012
40
33.3112416
50
138.8830369
51
140.0772781
0
ARC
8
DEFAULT_255_2_778
10
27.3827929
20
-20.4734666
40
32.8722846
50
139.0071063
51
140.2192499
0
ARC
8
DEFAULT_255_2_778
10
6.4709072
20
1.7682737
40
0.5870715
50
12.5776005
51
20.1092365
0
ARC
8
DEFAULT_255_2_778
10
-5.37261
20
-22.9290284
40
27.8576897
50
61.9578132
51
63.4325052
0
ARC
8
DEFAULT_255_2_778
10
5.9774193
20
-10.5871529
40
13.5399047
50
81.8205692
51
84.3604229
0
ARC
8
DEFAULT_255_2_778
10
5.6935242
20
-12.3191911
40
15.3815281
50
81.8375761
51
84.0623271
0
ARC
8
DEFAULT_255_2_778
10
6.9843322
20
3.8939299
40
0.1931004
50
350.7536896
51
357.7994546
0
ARC
8
DEFAULT_255_2_778
10
5.4821972
20
4.1022132
40
1.709559
50
351.8610972
51
351.9530921
0
ARC
8
DEFAULT_255_2_778
10
7.5399788
20
3.8034284
40
0.3698228
50
171.1719298
51
174.2912511
0
ARC
8
DEFAULT_255_2_778
10
8.3191454
20
-4.3090563
40
8.2296168
50
98.012753
51
101.1069047
0
ARC
8
DEFAULT_255_2_778
10
8.4936497
20
-5.8016905
40
9.8113682
50
98.0618125
51
100.6549313
0
ARC
8
DEFAULT_255_2_778
10
-20.4763422
20
-21.9189366
40
35.0947495
50
39.9352032
51
41.0686633
0
ARC
8
DEFAULT_255_2_778
10
-18.7586164
20
-20.2946621
40
32.6060522
50
39.7595906
51
40.9820335
0
LINE
8
DEFAULT_255_2_778
10
4.3117902
20
0.1882153
11
4.2379902
21
0.1366153
0
LINE
8
DEFAULT_255_2_778
10
4.2379902
20
0.1366153
11
4.1633902
21
0.1882153
0
LINE
8
DEFAULT_255_2_778
10
4.1633902
20
0.1882153
11
4.1633902
21
0.7964153
0
LINE
8
DEFAULT_255_2_778
10
4.3112902
20
0.1882153
11
4.3117902
21
0.1882153
0
LINE
8
DEFAULT_255_2_778
10
0.7028902
20
1.6587153
11
0.6668902
21
1.5902153
0
LINE
8
DEFAULT_255_2_778
10
0.6668902
20
1.5902153
11
0.7510902
21
1.5603153
0
LINE
8
DEFAULT_255_2_778
10
0.7510902
20
1.5603153
11
1.3833902
21
1.8953153
0
LINE
8
DEFAULT_255_2_778
10
1.4050902
20
1.9696153
11
1.3405902
21
1.9865153
0
LINE
8
DEFAULT_255_2_778
10
0.7033902
20
1.6577153
11
0.7028902
21
1.6587153
0
LINE
8
DEFAULT_255_2_778
10
0.5467902
20
2.9060153
11
0.4885902
21
2.8597153
0
LINE
8
DEFAULT_255_2_778
10
0.4885902
20
2.8597153
11
0.5210902
21
2.8152153
0
LINE
8
DEFAULT_255_2_778
10
1.1169902
20
2.8874153
11
1.1751902
21
2.9441153
0
LINE
8
DEFAULT_255_2_778
10
1.1751902
20
2.9441153
11
1.1399902
21
2.9800153
0
LINE
8
DEFAULT_255_2_778
10
0.5472902
20
2.9068153
11
0.5467902
21
2.9060153
0
LINE
8
DEFAULT_255_2_778
10
1.3095902
20
3.9124153
11
1.2492902
21
3.8868153
0
LINE
8
DEFAULT_255_2_778
10
1.6924902
20
3.7667153
11
1.7543902
21
3.8026153
0
LINE
8
DEFAULT_255_2_778
10
1.7543902
20
3.8026153
11
1.7466902
21
3.8407153
0
LINE
8
DEFAULT_255_2_778
10
1.3084902
20
3.9130153
11
1.3095902
21
3.9124153
0
LINE
8
DEFAULT_255_2_778
10
5.7796902
20
4.5318153
11
5.8352902
21
4.5318153
0
LINE
8
DEFAULT_255_2_778
10
5.8352902
20
4.5318153
11
5.8574902
21
4.5096153
0
LINE
8
DEFAULT_255_2_778
10
5.6317902
20
4.3585153
11
5.5735902
21
4.3585153
0
LINE
8
DEFAULT_255_2_778
10
5.5735902
20
4.3585153
11
5.5518902
21
4.3826153
0
LINE
8
DEFAULT_255_2_778
10
5.7796902
20
4.5321153
11
5.7796902
21
4.5318153
0
LINE
8
DEFAULT_255_2_778
10
4.1855902
20
4.7432153
11
4.2268902
21
4.7562153
0
LINE
8
DEFAULT_255_2_778
10
4.2268902
20
4.7562153
11
4.2697902
21
4.7432153
0
LINE
8
DEFAULT_255_2_778
10
4.2697902
20
4.5644153
11
4.2252902
21
4.5490153
0
LINE
8
DEFAULT_255_2_778
10
4.2252902
20
4.5490153
11
4.1818902
21
4.5644153
0
LINE
8
DEFAULT_255_2_778
10
4.1850902
20
4.7432153
11
4.1855902
21
4.7432153
0
LINE
8
DEFAULT_255_2_778
10
2.6160902
20
4.5334153
11
2.6726902
21
4.5334153
0
LINE
8
DEFAULT_255_2_778
10
2.9004902
20
4.3839153
11
2.8787902
21
4.3601153
0
LINE
8
DEFAULT_255_2_778
10
2.5851902
20
4.5062153
11
2.5851902
21
4.5062153
0
LINE
8
DEFAULT_255_2_778
10
2.4448902
20
1.1375153
11
2.5427902
21
1.1565153
0
LINE
8
DEFAULT_255_2_778
10
2.5427902
20
1.1565153
11
2.5710902
21
1.0896153
0
LINE
8
DEFAULT_255_2_778
10
2.1204902
20
0.5599153
11
2.1194902
21
0.5602153
0
LINE
8
DEFAULT_255_2_778
10
7.7230902
20
1.6585153
11
7.7590902
21
1.5899153
0
LINE
8
DEFAULT_255_2_778
10
7.7590902
20
1.5899153
11
7.6751902
21
1.5600153
0
LINE
8
DEFAULT_255_2_778
10
7.6751902
20
1.5600153
11
7.0438902
21
1.8961153
0
LINE
8
DEFAULT_255_2_778
10
7.0221902
20
1.9701153
11
7.0867902
21
1.9871153
0
LINE
8
DEFAULT_255_2_778
10
7.7238902
20
1.6582153
11
7.7230902
21
1.6585153
0
LINE
8
DEFAULT_255_2_778
10
7.8775902
20
2.9057153
11
7.9357902
21
2.8594153
0
LINE
8
DEFAULT_255_2_778
10
7.9357902
20
2.8594153
11
7.9037902
21
2.8150153
0
LINE
8
DEFAULT_255_2_778
10
7.3079902
20
2.8872153
11
7.2497902
21
2.9438153
0
LINE
8
DEFAULT_255_2_778
10
7.2497902
20
2.9438153
11
7.2846902
21
2.9798153
0
LINE
8
DEFAULT_255_2_778
10
7.8773902
20
2.9065153
11
7.8775902
21
2.9057153
0
LINE
8
DEFAULT_255_2_778
10
7.1168902
20
3.9122153
11
7.1772902
21
3.8865153
0
LINE
8
DEFAULT_255_2_778
10
6.7337902
20
3.7664153
11
6.6718902
21
3.8024153
0
LINE
8
DEFAULT_255_2_778
10
6.6718902
20
3.8024153
11
6.6795902
21
3.8405153
0
LINE
8
DEFAULT_255_2_778
10
7.1176902
20
3.9127153
11
7.1168902
21
3.9122153
0
LINE
8
DEFAULT_255_2_778
10
6.3075902
20
0.5596153
11
6.4054902
21
0.5451153
0
LINE
8
DEFAULT_255_2_778
10
6.4054902
20
0.5451153
11
6.4332902
21
0.6091153
0
LINE
8
DEFAULT_255_2_778
10
5.9823902
20
1.1370153
11
5.8844902
21
1.1560153
0
LINE
8
DEFAULT_255_2_778
10
5.8844902
20
1.1560153
11
5.8561902
21
1.0891153
0
LINE
8
DEFAULT_255_2_778
10
6.3067902
20
0.5591153
11
6.3075902
21
0.5596153
0
ARC
8
DEFAULT_255_2_778
10
12.42428
20
-20.3597016
40
24.9436345
50
116.3812151
51
118.0282683
0
ARC
8
DEFAULT_255_2_778
10
1.3135894
20
1.6602668
40
0.2844942
50
73.710312
51
79.5060859
0
ARC
8
DEFAULT_255_2_778
10
4.889732
20
19.7723147
40
18.1772452
50
258.7773846
51
258.8203006
0
ARC
8
DEFAULT_255_2_778
10
1.4144653
20
2.2637308
40
0.3270939
50
256.0819595
51
258.9992564
0
ARC
8
DEFAULT_255_2_778
10
2.5560078
20
-10.8358987
40
13.8871998
50
95.8515521
51
98.3200811
0
ARC
8
DEFAULT_255_2_778
10
0.2182834
20
-4.0753163
40
8.0616222
50
79.0653375
51
82.2221145
0
ARC
8
DEFAULT_255_2_778
10
1.7707319
20
3.9086644
40
0.1079636
50
258.7547092
51
261.6686843
0
ARC
8
DEFAULT_255_2_778
10
2.0547069
20
5.4605326
40
1.6855881
50
259.3955593
51
259.5741476
0
ARC
8
DEFAULT_255_2_778
10
2.5785178
20
8.2647779
40
4.5383358
50
259.3356083
51
259.4106281
0
ARC
8
DEFAULT_255_2_778
10
3.6414859
20
13.9147967
40
10.2874759
50
259.3117069
51
259.3409593
0
ARC
8
DEFAULT_255_2_778
10
-9.3181927
20
-54.5777664
40
59.4203764
50
79.2810375
51
79.3379231
0
ARC
8
DEFAULT_255_2_778
10
-1.6770728
20
-13.9979544
40
18.1274248
50
79.3419591
51
79.6808396
0
ARC
8
DEFAULT_255_2_778
10
-0.7768064
20
-9.0689571
40
13.1168875
50
79.6929279
51
79.8686717
0
ARC
8
DEFAULT_255_2_778
10
-0.3898666
20
-6.9028788
40
10.91652
50
79.8680539
51
80.0642838
0
ARC
8
DEFAULT_255_2_778
10
0.4114632
20
-2.2744426
40
6.2192442
50
79.9786659
51
81.211277
0
ARC
8
DEFAULT_255_2_778
10
0.9860378
20
1.4241885
40
2.4762521
50
81.2739689
51
82.4618493
0
LINE
8
DEFAULT_255_2_778
10
0.7012883
20
1.6224402
11
0.6805883
21
1.5848402
0
LINE
8
DEFAULT_255_2_778
10
0.6805883
20
1.5848402
11
0.6671883
21
1.5899402
0
LINE
8
DEFAULT_255_2_778
10
0.6671883
20
1.5899402
11
0.7030883
21
1.6584402
0
LINE
8
DEFAULT_255_2_778
10
1.3407883
20
1.9862402
11
1.4052883
21
1.9693402
0
LINE
8
DEFAULT_255_2_778
10
1.4052883
20
1.9693402
11
1.3933883
21
1.9333402
0
LINE
8
DEFAULT_255_2_778
10
1.3357883
20
1.9462402
11
0.7017883
21
1.6227402
0
LINE
8
DEFAULT_255_2_778
10
0.7017883
20
1.6227402
11
0.7012883
21
1.6224402
0
LINE
8
DEFAULT_255_2_778
10
0.5538883
20
2.8778402
11
0.5022883
21
2.8397402
0
LINE
8
DEFAULT_255_2_778
10
0.5022883
20
2.8397402
11
0.4882883
21
2.8588402
0
LINE
8
DEFAULT_255_2_778
10
0.4882883
20
2.8588402
11
0.5464883
21
2.9051402
0
LINE
8
DEFAULT_255_2_778
10
1.1401883
20
2.9789402
11
1.1751883
21
2.9429402
0
LINE
8
DEFAULT_255_2_778
10
1.1751883
20
2.9429402
11
1.1632883
21
2.9310402
0
LINE
8
DEFAULT_255_2_778
10
1.1632883
20
2.9310402
11
1.1425883
21
2.9506402
0
LINE
8
DEFAULT_255_2_778
10
1.1425883
20
2.9506402
11
0.5533883
21
2.8768402
0
LINE
8
DEFAULT_255_2_778
10
0.5533883
20
2.8768402
11
0.5538883
21
2.8778402
0
LINE
8
DEFAULT_255_2_778
10
1.2531883
20
3.8555402
11
1.2489883
21
3.8864402
0
LINE
8
DEFAULT_255_2_778
10
1.2489883
20
3.8864402
11
1.3092883
21
3.9121402
0
LINE
8
DEFAULT_255_2_778
10
1.7474883
20
3.8399402
11
1.7550883
21
3.8018402
0
LINE
8
DEFAULT_255_2_778
10
1.3108883
20
3.8790402
11
1.2531883
21
3.8555402
0
ARC
8
DEFAULT_255_2_778
10
8.8192735
20
-0.347311
40
5.7485226
50
121.9179702
51
124.6340033
0
ARC
8
DEFAULT_255_2_778
10
8.1269892
20
0.7063605
40
4.4629534
50
121.7200763
51
124.9693026
0
LINE
8
DEFAULT_255_2_778
10
5.8356033
20
4.5005689
11
5.8387033
21
4.4973689
0
LINE
8
DEFAULT_255_2_778
10
5.8387033
20
4.4973689
11
5.8578033
21
4.5098689
0
LINE
8
DEFAULT_255_2_778
10
5.8578033
20
4.5098689
11
5.8356033
21
4.5320689
0
LINE
8
DEFAULT_255_2_778
10
5.8356033
20
4.5320689
11
5.7800033
21
4.5320689
0
LINE
8
DEFAULT_255_2_778
10
5.5522033
20
4.3825689
11
5.5691033
21
4.3635689
0
LINE
8
DEFAULT_255_2_778
10
5.7805033
20
4.5026689
11
5.8361033
21
4.5026689
0
LINE
8
DEFAULT_255_2_778
10
5.8361033
20
4.5026689
11
5.8356033
21
4.5005689
0
LINE
8
DEFAULT_255_2_778
10
4.1856322
20
4.7122625
11
4.2269322
21
4.7251625
0
LINE
8
DEFAULT_255_2_778
10
4.2269322
20
4.7251625
11
4.2697322
21
4.7122625
0
LINE
8
DEFAULT_255_2_778
10
4.2697322
20
4.7122625
11
4.2697322
21
4.7431625
0
LINE
8
DEFAULT_255_2_778
10
4.2697322
20
4.7431625
11
4.2269322
21
4.7561625
0
LINE
8
DEFAULT_255_2_778
10
4.2269322
20
4.7561625
11
4.1856322
21
4.7431625
0
LINE
8
DEFAULT_255_2_778
10
4.1856322
20
4.7431625
11
4.1856322
21
4.7122625
0
ARC
8
DEFAULT_255_2_778
10
-0.3689641
20
-0.346011
40
5.7485226
50
55.3659967
51
58.0820298
0
ARC
8
DEFAULT_255_2_778
10
2.3840354
20
4.7765147
40
0.3344675
50
309.9293124
51
313.36755
0
LINE
8
DEFAULT_255_2_778
10
2.5987107
20
4.5200326
11
2.5982623
21
4.519649
0
ARC
8
DEFAULT_255_2_778
10
2.9334349
20
4.120007
40
0.5215884
50
129.9859555
51
132.2544535
0
LINE
8
DEFAULT_255_2_778
10
2.6719061
20
4.5071689
11
2.8806061
21
4.3648689
0
LINE
8
DEFAULT_255_2_778
10
2.8806061
20
4.3648689
11
2.8981061
21
4.3838689
0
LINE
8
DEFAULT_255_2_778
10
2.6703061
20
4.5333689
11
2.6137061
21
4.5333689
0
LINE
8
DEFAULT_255_2_778
10
2.5827061
20
4.5060689
11
2.6012061
21
4.4941689
0
LINE
8
DEFAULT_255_2_778
10
2.6012061
20
4.4941689
11
2.6152061
21
4.5066689
0
LINE
8
DEFAULT_255_2_778
10
2.6152061
20
4.5066689
11
2.6719061
21
4.5071689
0
ARC
8
DEFAULT_255_2_778
10
2.428263
20
1.057291
40
0.1296468
50
22.317793
51
34.3124014
0
ARC
8
DEFAULT_255_2_778
10
1.5690048
20
0.6634569
40
1.0747686
50
23.9935629
51
24.3458638
0
ARC
8
DEFAULT_255_2_778
10
2.9190481
20
1.2591935
40
0.4008934
50
203.3198515
51
206.7465674
0
ARC
8
DEFAULT_255_2_778
10
1.9662433
20
0.8491372
40
0.6479323
50
21.5825592
51
23.9909463
0
ARC
8
DEFAULT_255_2_778
10
426.8963992
20
184.9090877
40
462.4327654
50
203.4175853
51
203.4192137
0
LINE
8
DEFAULT_255_2_778
10
2.552977
20
1.1246419
11
2.5527084
21
1.1252625
0
ARC
8
DEFAULT_255_2_778
10
3.9695091
20
1.7439995
40
1.5460141
50
202.4194715
51
203.5915786
0
ARC
8
DEFAULT_255_2_778
10
28.1215969
20
-21.2497559
40
34.0662986
50
138.9205573
51
140.0881281
0
ARC
8
DEFAULT_255_2_778
10
2.0250061
20
0.6123534
40
0.033713
50
188.3225706
51
215.452871
0
LINE
8
DEFAULT_255_2_778
10
1.9975437
20
0.5927988
11
1.9977428
21
0.5924556
0
ARC
8
DEFAULT_255_2_778
10
1.9464283
20
0.5601086
40
0.0606589
50
21.0270376
51
32.2260494
0
ARC
8
DEFAULT_255_2_778
10
2.5715041
20
0.6907037
40
0.4381778
50
99.7786694
51
105.535018
0
ARC
8
DEFAULT_255_2_778
10
4.6135337
20
-10.2561916
40
11.5738643
50
100.4681085
51
100.5366633
0
ARC
8
DEFAULT_255_2_778
10
2.3791519
20
1.8501958
40
0.7369914
50
280.2819402
51
282.1722961
0
ARC
8
DEFAULT_255_2_778
10
-4.0471489
20
-20.4525792
40
25.0489114
50
61.9716412
51
63.6115681
0
ARC
8
DEFAULT_255_2_778
10
7.1134907
20
1.6576293
40
0.2871825
50
100.5094965
51
106.2251884
0
ARC
8
DEFAULT_255_2_778
10
3.3842041
20
20.5558743
40
18.975527
50
281.1729318
51
281.2147189
0
ARC
8
DEFAULT_255_2_778
10
7.0123959
20
2.2632402
40
0.3265552
50
280.9963353
51
283.918891
0
ARC
8
DEFAULT_255_2_778
10
5.8691367
20
-10.8272584
40
13.8784941
50
81.6801208
51
84.1506083
0
ARC
8
DEFAULT_255_2_778
10
8.1912716
20
-3.9710048
40
7.9559787
50
97.7569215
51
100.9556266
0
ARC
8
DEFAULT_255_2_778
10
6.6584638
20
3.8965322
40
0.0955587
50
277.8699063
51
281.2416935
0
ARC
8
DEFAULT_255_2_778
10
6.4310776
20
5.1545718
40
1.3739693
50
280.3146837
51
280.5356397
0
ARC
8
DEFAULT_255_2_778
10
6.074822
20
7.0758808
40
3.3280281
50
280.5174571
51
280.6128357
0
ARC
8
DEFAULT_255_2_778
10
5.383762
20
10.7671998
40
7.0834774
50
280.6080051
51
280.6503836
0
ARC
8
DEFAULT_255_2_778
10
4.2571742
20
16.7575578
40
13.1788518
50
280.6506817
51
280.6749906
0
ARC
8
DEFAULT_255_2_778
10
19.0850971
20
-61.75149
40
66.7181945
50
100.6485444
51
100.6994419
0
ARC
8
DEFAULT_255_2_778
10
9.9900458
20
-13.3760128
40
17.4951638
50
100.2487828
51
100.6504818
0
ARC
8
DEFAULT_255_2_778
10
9.1067273
20
-8.5171714
40
12.5566863
50
100.1387547
51
100.2272147
0
ARC
8
DEFAULT_255_2_778
10
8.8214258
20
-6.9188715
40
10.9331227
50
99.9452892
51
100.1414091
0
ARC
8
DEFAULT_255_2_778
10
8.0092391
20
-2.2332309
40
6.1776287
50
98.7916582
51
100.0312131
0
ARC
8
DEFAULT_255_2_778
10
7.4385764
20
1.4387318
40
2.4615892
50
97.5334899
51
98.7281657
0
ARC
8
DEFAULT_255_2_778
10
5.9948399
20
1.0581508
40
0.1270992
50
145.536658
51
157.7576327
0
ARC
8
DEFAULT_255_2_778
10
6.8508812
20
0.6663074
40
1.0684652
50
155.6844154
51
156.0418137
0
ARC
8
DEFAULT_255_2_778
10
5.5100294
20
1.2569613
40
0.3967361
50
333.2633476
51
336.7227655
0
ARC
8
DEFAULT_255_2_778
10
6.4684341
20
0.845212
40
0.6578963
50
156.0617924
51
158.4211857
0
ARC
8
DEFAULT_255_2_778
10
-13.4776171
20
9.4698126
40
21.0729592
50
336.6338368
51
336.6694271
0
ARC
8
DEFAULT_255_2_778
10
3.0522575
20
2.3394456
40
3.0707681
50
336.6868972
51
336.7052913
0
ARC
8
DEFAULT_255_2_778
10
4.7000531
20
1.635605
40
1.2789653
50
336.4735543
51
337.8877354
0
ARC
8
DEFAULT_255_2_778
10
-19.6509068
20
-21.2203677
40
34.0125733
50
39.9225956
51
41.0919921
0
ARC
8
DEFAULT_255_2_778
10
5.8520831
20
0.6451427
40
0.4835215
50
75.6956352
51
80.768074
0
ARC
8
DEFAULT_255_2_778
10
11.4818953
20
32.2659684
40
31.6346196
50
259.8877555
51
259.891573
0
ARC
8
DEFAULT_255_2_778
10
6.0232261
20
1.6962761
40
0.5814261
50
256.8598273
51
260.5316512
0
ARC
8
DEFAULT_255_2_778
10
4.0552398
20
0.4211738
40
0.4549182
50
55.6313594
51
60.6892379
0
ARC
8
DEFAULT_255_2_778
10
4.8507827
20
1.815675
40
1.150563
50
238.9168525
51
240.1403278
0
ARC
8
DEFAULT_255_2_778
10
4.3966021
20
1.0626639
40
0.271185
50
234.6876341
51
238.9597903
0
ARC
8
DEFAULT_255_2_778
10
3.9588039
20
1.2583893
40
0.5028797
50
298.3744066
51
303.9776602
0
ARC
8
DEFAULT_255_2_778
10
5.1742281
20
-0.9303198
40
2.0007015
50
119.2124175
51
119.7596085
0
ARC
8
DEFAULT_255_2_778
10
4.4296707
20
0.3711474
40
0.5013077
50
119.7181307
51
121.9151251
0
ARC
8
DEFAULT_255_2_778
10
4.3885032
20
0.4488665
40
0.3873747
50
117.3707877
51
122.8019474
0
ARC
8
DEFAULT_255_2_778
10
4.0395108
20
1.1212923
40
0.3702223
50
297.4910191
51
302.907751
0
ARC
8
DEFAULT_255_2_778
10
4.4032731
20
1.0366429
40
0.2785669
50
234.2823205
51
241.8530024
0
ARC
8
DEFAULT_255_2_778
10
4.1196259
20
0.5124518
40
0.3174524
50
55.6279702
51
61.3433515
0
LINE
8
DEFAULT_255_2_778
10
2.5610481
20
1.0787735
11
2.5687481
21
1.0874735
0
LINE
8
DEFAULT_255_2_778
10
2.5403481
20
1.1543735
11
2.4424481
21
1.1353735
0
LINE
8
DEFAULT_255_2_778
10
2.0030481
20
0.5818735
11
2.4541481
21
1.1128735
0
LINE
8
DEFAULT_255_2_778
10
2.5345481
20
1.1297735
11
2.5353481
21
1.1303735
0
LINE
8
DEFAULT_255_2_778
10
7.7230481
20
1.6224735
11
7.7436481
21
1.5848735
0
LINE
8
DEFAULT_255_2_778
10
7.7436481
20
1.5848735
11
7.7571481
21
1.5899735
0
LINE
8
DEFAULT_255_2_778
10
7.7571481
20
1.5899735
11
7.7235481
21
1.6584735
0
LINE
8
DEFAULT_255_2_778
10
7.0859481
20
1.9862735
11
7.0213481
21
1.9693735
0
LINE
8
DEFAULT_255_2_778
10
7.0213481
20
1.9693735
11
7.0332481
21
1.9333735
0
LINE
8
DEFAULT_255_2_778
10
7.0909481
20
1.9462735
11
7.7227481
21
1.6227735
0
LINE
8
DEFAULT_255_2_778
10
7.7227481
20
1.6227735
11
7.7230481
21
1.6224735
0
LINE
8
DEFAULT_255_2_778
10
7.8725481
20
2.8778735
11
7.9241481
21
2.8397735
0
LINE
8
DEFAULT_255_2_778
10
7.9241481
20
2.8397735
11
7.9381481
21
2.8588735
0
LINE
8
DEFAULT_255_2_778
10
7.9381481
20
2.8588735
11
7.8773481
21
2.9051735
0
LINE
8
DEFAULT_255_2_778
10
7.2835481
20
2.9789735
11
7.2483481
21
2.9429735
0
LINE
8
DEFAULT_255_2_778
10
7.2483481
20
2.9429735
11
7.2602481
21
2.9310735
0
LINE
8
DEFAULT_255_2_778
10
7.2602481
20
2.9310735
11
7.2809481
21
2.9506735
0
LINE
8
DEFAULT_255_2_778
10
7.2809481
20
2.9506735
11
7.8725481
21
2.8768735
0
LINE
8
DEFAULT_255_2_778
10
7.8725481
20
2.8768735
11
7.8725481
21
2.8778735
0
LINE
8
DEFAULT_255_2_778
10
7.1735481
20
3.8555735
11
7.1777481
21
3.8864735
0
LINE
8
DEFAULT_255_2_778
10
7.1777481
20
3.8864735
11
7.1174481
21
3.9121735
0
LINE
8
DEFAULT_255_2_778
10
6.6792481
20
3.8399735
11
6.6715481
21
3.8018735
0
LINE
8
DEFAULT_255_2_778
10
7.1158481
20
3.8790735
11
7.1735481
21
3.8555735
0
LINE
8
DEFAULT_255_2_778
10
5.8643481
20
1.0784735
11
5.8566481
21
1.0871735
0
LINE
8
DEFAULT_255_2_778
10
5.8849481
20
1.1541735
11
5.9828481
21
1.1350735
0
LINE
8
DEFAULT_255_2_778
10
6.4337481
20
0.6072735
11
6.4234481
21
0.5826735
0
LINE
8
DEFAULT_255_2_778
10
6.4234481
20
0.5826735
11
5.9715481
21
1.1136735
0
LINE
8
DEFAULT_255_2_778
10
5.8910481
20
1.1300735
11
5.8900481
21
1.1300735
0
LINE
8
DEFAULT_255_2_778
10
4.2974481
20
0.7744735
11
4.3120481
21
0.1884735
0
LINE
8
DEFAULT_255_2_778
10
4.3120481
20
0.1884735
11
4.3120481
21
0.7966735
0
LINE
8
DEFAULT_255_2_778
10
4.1646481
20
0.7966735
11
4.1646481
21
0.1884735
0
LINE
8
DEFAULT_255_2_778
10
4.1646481
20
0.1884735
11
4.1786481
21
0.7744735
0
LINE
8
DEFAULT_255_2_778
10
4.2988481
20
0.7744735
11
4.2974481
21
0.7744735
0
ARC
8
DEFAULT_255_2_778
10
2.6639211
20
2.6645271
40
1.4039032
50
144.0313948
51
167.4236458
0
ARC
8
DEFAULT_255_2_778
10
2.9923929
20
2.4019283
40
1.8240889
50
121.8938655
51
143.4155388
0
ARC
8
DEFAULT_255_2_778
10
3.6185035
20
1.4171163
40
2.9910473
50
108.3729486
51
122.1096117
0
ARC
8
DEFAULT_255_2_778
10
4.0499918
20
0.2049861
40
4.2774826
50
102.0220808
51
108.7403488
0
ARC
8
DEFAULT_255_2_778
10
4.2181707
20
-0.5536983
40
5.054561
50
97.2880247
51
102.0953645
0
ARC
8
DEFAULT_255_2_778
10
4.2493715
20
-0.7734888
40
5.2765348
50
94.110127
51
97.3213252
0
ARC
8
DEFAULT_255_2_778
10
4.2343068
20
-0.5493407
40
5.0518835
50
91.3254924
51
94.1219165
0
ARC
8
DEFAULT_255_2_778
10
4.2243012
20
-0.16686
40
4.6692739
50
90.0073501
51
91.3113157
0
ARC
8
DEFAULT_255_2_778
10
4.2215678
20
-0.3165926
40
4.8190067
50
87.4114418
51
89.9746232
0
ARC
8
DEFAULT_255_2_778
10
4.20491
20
-0.7021861
40
5.2049593
50
84.5976151
51
87.4199615
0
ARC
8
DEFAULT_255_2_778
10
4.2020262
20
-0.7469252
40
5.2497712
50
80.9661601
51
84.6122527
0
ARC
8
DEFAULT_255_2_778
10
4.2489077
20
-0.4550435
40
4.9541489
50
77.8722696
51
80.9715876
0
ARC
8
DEFAULT_255_2_778
10
4.5633775
20
0.8013807
40
3.6599569
50
62.1967836
51
78.5530648
0
ARC
8
DEFAULT_255_2_778
10
5.2872118
20
2.1962619
40
2.0885111
50
44.2396685
51
61.9127829
0
ARC
8
DEFAULT_255_2_778
10
5.7450145
20
2.6452593
40
1.4472821
50
14.404847
51
44.1492909
0
ARC
8
DEFAULT_255_2_778
10
5.7458265
20
2.6506459
40
1.4451644
50
12.6696771
51
14.2060077
0
ARC
8
DEFAULT_255_2_778
10
5.7481084
20
2.6511573
40
1.4428258
50
8.9828423
51
12.6697402
0
ARC
8
DEFAULT_255_2_778
10
5.8593053
20
2.6687012
40
1.3302535
50
4.8673572
51
8.9842794
0
ARC
8
DEFAULT_255_2_778
10
5.9534726
20
2.6766881
40
1.235748
50
0.1795649
51
4.868837
0
ARC
8
DEFAULT_255_2_778
10
6.0221087
20
2.677429
40
1.1671101
50
359.9964617
51
0.1537531
0
ARC
8
DEFAULT_255_2_778
10
6.0786429
20
2.6734921
40
1.1105827
50
339.2742999
51
0.1993918
0
ARC
8
DEFAULT_255_2_778
10
5.8900141
20
2.7669108
40
1.3202257
50
312.7885359
51
338.3794526
0
ARC
8
DEFAULT_255_2_778
10
5.3380025
20
3.3345792
40
2.1118866
50
300.9694358
51
313.3172674
0
ARC
8
DEFAULT_255_2_778
10
4.7314506
20
4.3456658
40
3.2909546
50
290.5185902
51
300.9659067
0
ARC
8
DEFAULT_255_2_778
10
4.2706916
20
5.5243399
40
4.5563903
50
284.7440214
51
290.7498317
0
ARC
8
DEFAULT_255_2_778
10
4.0926364
20
6.1769793
40
5.2328586
50
280.35643
51
284.8107557
0
ARC
8
DEFAULT_255_2_778
10
4.0876238
20
6.1911002
40
5.2476511
50
277.3662783
51
280.3825513
0
ARC
8
DEFAULT_255_2_778
10
4.139606
20
5.784356
40
4.837599
50
274.8313824
51
277.3733407
0
ARC
8
DEFAULT_255_2_778
10
4.1940295
20
5.1317082
40
4.1826866
50
272.2772403
51
274.8414949
0
ARC
8
DEFAULT_255_2_778
10
4.223449
20
4.4001749
40
3.4505621
50
270.0390748
51
272.2717803
0
ARC
8
DEFAULT_255_2_778
10
4.2291654
20
4.4521605
40
3.5025485
50
267.2939821
51
269.9449834
0
ARC
8
DEFAULT_255_2_778
10
4.2639082
20
5.2098916
40
4.2610751
50
264.913424
51
267.308362
0
ARC
8
DEFAULT_255_2_778
10
4.3196655
20
5.8383522
40
4.8920043
50
262.187617
51
264.9155578
0
ARC
8
DEFAULT_255_2_778
10
4.3708052
20
6.2179508
40
5.2750311
50
258.9765802
51
262.1977583
0
ARC
8
DEFAULT_255_2_778
10
4.3564661
20
6.1548724
40
5.2103751
50
255.1381419
51
258.9987205
0
ARC
8
DEFAULT_255_2_778
10
4.0138629
20
4.9961893
40
4.0027232
50
242.2214433
51
255.6241449
0
ARC
8
DEFAULT_255_2_778
10
3.2743715
20
3.5624929
40
2.389649
50
230.5246573
51
241.8878505
0
ARC
8
DEFAULT_255_2_778
10
2.7276081
20
2.9071455
40
1.5361944
50
212.9588884
51
230.7264802
0
ARC
8
DEFAULT_255_2_778
10
2.3814499
20
2.6782017
40
1.1211988
50
183.1131856
51
212.7659816
0
ARC
8
DEFAULT_255_2_778
10
2.4339175
20
2.6806527
40
1.1737223
50
179.9908772
51
183.0935598
0
ARC
8
DEFAULT_255_2_778
10
2.4938899
20
2.680285
40
1.2336949
50
175.2756436
51
179.9742419
0
ARC
8
DEFAULT_255_2_778
10
2.5857409
20
2.6727585
40
1.3258538
50
171.2375639
51
175.2784154
0
ARC
8
DEFAULT_255_2_778
10
2.6932139
20
2.6562297
40
1.4345904
50
167.6048367
51
171.2390138
0
ARC
8
DEFAULT_255_2_778
10
2.739497
20
2.646773
40
1.4818246
50
167.3924455
51
167.6318442
0
ARC
8
DEFAULT_255_2_778
10
2.715966
20
2.6923361
40
1.3459184
50
143.8442832
51
167.7280544
0
ARC
8
DEFAULT_255_2_778
10
3.0426928
20
2.4291
40
1.7651383
50
121.4229285
51
143.2022747
0
ARC
8
DEFAULT_255_2_778
10
3.6644938
20
1.432696
40
2.9396097
50
107.6792598
51
121.639915
0
ARC
8
DEFAULT_255_2_778
10
4.0667551
20
0.2706784
40
4.1690196
50
102.0687886
51
108.0966736
0
ARC
8
DEFAULT_255_2_778
10
4.2187592
20
-0.4200014
40
4.8762173
50
97.3009866
51
102.1185264
0
ARC
8
DEFAULT_255_2_778
10
4.2490592
20
-0.6329293
40
5.0912703
50
94.1187771
51
97.334693
0
ARC
8
DEFAULT_255_2_778
10
4.234122
20
-0.4113457
40
4.8691863
50
91.3291751
51
94.1307375
0
ARC
8
DEFAULT_255_2_778
10
4.2242718
20
-0.0351658
40
4.4928795
50
90.007264
51
91.3148729
0
ARC
8
DEFAULT_255_2_778
10
4.2215825
20
-0.1622778
40
4.6199919
50
87.3965229
51
89.9737127
0
ARC
8
DEFAULT_255_2_778
10
4.2047796
20
-0.5486908
40
5.0067693
50
84.5749204
51
87.4052967
0
ARC
8
DEFAULT_255_2_778
10
4.2014331
20
-0.5989407
40
5.0571107
50
80.7304094
51
84.5910008
0
ARC
8
DEFAULT_255_2_778
10
4.2476994
20
-0.3161759
40
4.7705859
50
77.8442609
51
80.7317825
0
ARC
8
DEFAULT_255_2_778
10
4.5502913
20
0.8876801
40
3.5302587
50
62.1798596
51
78.5309952
0
ARC
8
DEFAULT_255_2_778
10
5.2546065
20
2.243401
40
2.0025579
50
44.157102
51
61.8993738
0
ARC
8
DEFAULT_255_2_778
10
5.7018205
20
2.680181
40
1.3774401
50
13.5408836
51
44.0814684
0
ARC
8
DEFAULT_255_2_778
10
5.6996877
20
2.6844226
40
1.3785281
50
12.3137276
51
13.3487367
0
ARC
8
DEFAULT_255_2_778
10
5.6954231
20
2.6818363
40
1.3832472
50
8.6789734
51
12.3807173
0
ARC
8
DEFAULT_255_2_778
10
5.802226
20
2.6980861
40
1.2752152
50
4.4646684
51
8.681337
0
ARC
8
DEFAULT_255_2_778
10
5.8901532
20
2.7050143
40
1.1870155
50
0.0233468
51
4.4616501
0
ARC
8
DEFAULT_255_2_778
10
6.0075623
20
2.7016811
40
1.0696131
50
339.038216
51
0.2044582
0
ARC
8
DEFAULT_255_2_778
10
5.8229767
20
2.7939925
40
1.2751663
50
312.501571
51
338.1320099
0
ARC
8
DEFAULT_255_2_778
10
5.2769779
20
3.3630476
40
2.0636688
50
300.261909
51
313.0036298
0
ARC
8
DEFAULT_255_2_778
10
4.6608073
20
4.4211613
40
3.2881157
50
289.3242268
51
300.2438824
0
ARC
8
DEFAULT_255_2_778
10
4.2472639
20
5.5288237
40
4.4702837
50
284.7147318
51
289.6280491
0
ARC
8
DEFAULT_255_2_778
10
4.098175
20
6.0851217
40
5.046207
50
280.2492024
51
284.7476108
0
ARC
8
DEFAULT_255_2_778
10
4.0931445
20
6.0997974
40
5.0615441
50
277.2866131
51
280.2756794
0
ARC
8
DEFAULT_255_2_778
10
4.1422835
20
5.7110248
40
4.6696786
50
274.7758567
51
277.2935699
0
ARC
8
DEFAULT_255_2_778
10
4.1950861
20
5.0671534
40
4.0236464
50
272.1046783
51
274.7899273
0
ARC
8
DEFAULT_255_2_778
10
4.2217756
20
4.365014
40
3.3210008
50
270.033238
51
272.0894047
0
ARC
8
DEFAULT_255_2_778
10
4.2268871
20
4.4541312
40
3.410119
50
267.3278842
51
269.9464876
0
ARC
8
DEFAULT_255_2_778
10
4.2597172
20
5.1793176
40
4.1360477
50
264.9703748
51
267.3419315
0
ARC
8
DEFAULT_255_2_778
10
4.3134166
20
5.7891028
40
4.7481928
50
262.1147596
51
264.9699859
0
ARC
8
DEFAULT_255_2_778
10
4.3608969
20
6.1401041
40
5.1023893
50
258.7784751
51
262.1273617
0
ARC
8
DEFAULT_255_2_778
10
4.3409319
20
6.0482438
40
5.0084003
50
255.2429037
51
258.7980039
0
ARC
8
DEFAULT_255_2_778
10
4.0129589
20
4.9329153
40
3.8464616
50
242.3148114
51
255.7353049
0
ARC
8
DEFAULT_255_2_778
10
3.2919976
20
3.5331493
40
2.2720127
50
230.0538351
51
242.0139947
0
ARC
8
DEFAULT_255_2_778
10
2.7490958
20
2.8940947
40
1.4335152
50
211.0083766
51
230.2895861
0
ARC
8
DEFAULT_255_2_778
10
2.4445572
20
2.702484
40
1.073812
50
182.8268841
51
210.6166886
0
ARC
8
DEFAULT_255_2_778
10
2.5051336
20
2.70641
40
1.1345088
50
179.9921677
51
182.8740389
0
ARC
8
DEFAULT_255_2_778
10
2.5623432
20
2.7060261
40
1.1917185
50
175.2930625
51
179.9740844
0
ARC
8
DEFAULT_255_2_778
10
2.6501795
20
2.6988876
40
1.2798443
50
171.4043771
51
175.2972437
0
ARC
8
DEFAULT_255_2_778
10
2.7537107
20
2.6831872
40
1.384559
50
167.6672477
51
171.4022955
0
LINE
8
DEFAULT_255_2_778
10
1.2934022
20
2.9702136
11
1.2937022
21
2.9702136
0
LINE
8
DEFAULT_255_2_778
10
1.4011022
20
2.9789136
11
1.4008022
21
2.9784136
0
ARC
8
DEFAULT_255_2_778
10
2.7147595
20
2.6208576
40
1.4461941
50
145.8369908
51
167.485301
0
ARC
8
DEFAULT_255_2_778
10
3.0042855
20
2.3937552
40
1.8134667
50
121.157346
51
145.0366362
0
ARC
8
DEFAULT_255_2_778
10
3.6239978
20
1.403874
40
2.9812454
50
107.7402494
51
121.5064342
0
ARC
8
DEFAULT_255_2_778
10
4.0570092
20
0.1268869
40
4.329511
50
100.2241338
51
108.0488616
0
ARC
8
DEFAULT_255_2_778
10
4.2169855
20
-0.7013942
40
5.1730461
50
95.5834011
51
100.3395068
0
ARC
8
DEFAULT_255_2_778
10
4.241047
20
-0.9176063
40
5.3905744
50
92.4402362
51
95.6143427
0
ARC
8
DEFAULT_255_2_778
10
4.2341251
20
-0.7408223
40
5.213656
50
90.0131751
51
92.4469556
0
ARC
8
DEFAULT_255_2_778
10
4.2314388
20
-0.7596512
40
5.232485
50
87.2027939
51
89.9837123
0
ARC
8
DEFAULT_255_2_778
10
4.2248096
20
-0.9168571
40
5.3898272
50
83.8127868
51
87.2139617
0
ARC
8
DEFAULT_255_2_778
10
4.2533191
20
-0.672856
40
5.1441751
50
79.6515889
51
83.8355705
0
ARC
8
DEFAULT_255_2_778
10
4.5332904
20
0.6308257
40
3.8116304
50
64.3524915
51
80.2713979
0
ARC
8
DEFAULT_255_2_778
10
5.2157902
20
2.0758168
40
2.2136234
50
47.2727911
51
64.0888799
0
ARC
8
DEFAULT_255_2_778
10
5.7048279
20
2.6010988
40
1.4959416
50
15.1337805
51
47.3813748
0
ARC
8
DEFAULT_255_2_778
10
5.7032136
20
2.607776
40
1.4957725
50
12.6064695
51
14.8707364
0
ARC
8
DEFAULT_255_2_778
10
5.7556343
20
2.6177431
40
1.4424413
50
8.9858807
51
12.6745576
0
ARC
8
DEFAULT_255_2_778
10
5.8666291
20
2.6352549
40
1.3300736
50
4.8693032
51
8.9875872
0
ARC
8
DEFAULT_255_2_778
10
5.9607577
20
2.6432466
40
1.2356063
50
0.1799158
51
4.8705541
0
ARC
8
DEFAULT_255_2_778
10
6.0289105
20
2.6439941
40
1.1674516
50
359.9964621
51
0.1537339
0
ARC
8
DEFAULT_255_2_778
10
6.0860715
20
2.6400564
40
1.1102974
50
339.271172
51
0.1994824
0
ARC
8
DEFAULT_255_2_778
10
5.8991535
20
2.732504
40
1.3179932
50
312.9275939
51
338.388467
0
ARC
8
DEFAULT_255_2_778
10
5.3494873
20
3.2958424
40
2.104925
50
301.0228997
51
313.4393056
0
ARC
8
DEFAULT_255_2_778
10
4.7410556
20
4.3079095
40
3.2858013
50
290.5286298
51
301.019459
0
ARC
8
DEFAULT_255_2_778
10
4.2784645
20
5.4904051
40
4.555462
50
284.7379777
51
290.761855
0
ARC
8
DEFAULT_255_2_778
10
4.0999167
20
6.1449696
40
5.2339169
50
280.3522588
51
284.8053329
0
ARC
8
DEFAULT_255_2_778
10
4.0948948
20
6.1591233
40
5.2487433
50
277.3629661
51
280.3784226
0
ARC
8
DEFAULT_255_2_778
10
4.1467502
20
5.7531944
40
4.839516
50
274.8291611
51
277.3699959
0
ARC
8
DEFAULT_255_2_778
10
4.2011632
20
5.1004692
40
4.1845273
50
272.2760961
51
274.8391542
0
ARC
8
DEFAULT_255_2_778
10
4.2305579
20
4.3695931
40
3.4530604
50
270.0392971
51
272.2703747
0
ARC
8
DEFAULT_255_2_778
10
4.2362622
20
4.4323019
40
3.51577
50
267.3069153
51
269.9456343
0
ARC
8
DEFAULT_255_2_778
10
4.2708024
20
5.1890412
40
4.2732963
50
264.9354574
51
267.3210477
0
ARC
8
DEFAULT_255_2_778
10
4.3260168
20
5.8141291
40
4.900818
50
262.2178104
51
264.9375917
0
ARC
8
DEFAULT_255_2_778
10
4.3764351
20
6.1899968
40
5.2800511
50
259.0141953
51
262.2280266
0
ARC
8
DEFAULT_255_2_778
10
4.3613848
20
6.1230147
40
5.2114287
50
255.1820789
51
259.0362933
0
ARC
8
DEFAULT_255_2_778
10
4.0184999
20
4.9598788
40
3.9994273
50
242.2664527
51
255.6693383
0
ARC
8
DEFAULT_255_2_778
10
3.2798397
20
3.5250093
40
2.3856912
50
230.5610024
51
241.9319622
0
ARC
8
DEFAULT_255_2_778
10
2.7340779
20
2.8700093
40
1.5331446
50
212.9784412
51
230.7627977
0
ARC
8
DEFAULT_255_2_778
10
2.3891398
20
2.6416325
40
1.1194803
50
183.1103277
51
212.7828369
0
ARC
8
DEFAULT_255_2_778
10
2.4423985
20
2.6441928
40
1.1727995
50
179.9908311
51
183.0940491
0
ARC
8
DEFAULT_255_2_778
10
2.5028244
20
2.6438172
40
1.2332256
50
175.2662876
51
179.9738318
0
ARC
8
DEFAULT_255_2_778
10
2.5953806
20
2.6362037
40
1.3260945
50
171.2215325
51
175.2684758
0
ARC
8
DEFAULT_255_2_778
10
2.703002
20
2.6196158
40
1.4349867
50
167.5828649
51
171.2227699
0
ARC
8
DEFAULT_255_2_778
10
2.8001056
20
2.5988497
40
1.5342843
50
167.3735937
51
167.6052552
0
ARC
8
DEFAULT_255_2_778
10
2.7252605
20
2.6569309
40
1.3458948
50
143.8433959
51
167.7267471
0
ARC
8
DEFAULT_255_2_778
10
3.0520849
20
2.3936195
40
1.7652382
50
121.4235305
51
143.2015275
0
ARC
8
DEFAULT_255_2_778
10
3.673916
20
1.3971997
40
2.939739
50
107.6805533
51
121.6406073
0
ARC
8
DEFAULT_255_2_778
10
4.0761352
20
0.2353927
40
4.1689361
50
102.0699288
51
108.0979217
0
ARC
8
DEFAULT_255_2_778
10
4.2280636
20
-0.4548715
40
4.8757115
50
97.3020805
51
102.1196585
0
ARC
8
DEFAULT_255_2_778
10
4.2583071
20
-0.6673366
40
5.0902983
50
94.1195388
51
97.3357782
0
ARC
8
DEFAULT_255_2_778
10
4.2433561
20
-0.4456005
40
4.8680613
50
91.3295174
51
94.1315033
0
ARC
8
DEFAULT_255_2_778
10
4.2335223
20
-0.0714701
40
4.4938037
50
90.0076
51
91.3148502
0
ARC
8
DEFAULT_255_2_778
10
4.2308011
20
-0.197981
40
4.620315
50
87.3964493
51
89.9736461
0
ARC
8
DEFAULT_255_2_778
10
4.2139884
20
-0.5843929
40
5.0070917
50
84.5746777
51
87.405116
0
ARC
8
DEFAULT_255_2_778
10
4.2106337
20
-0.6347056
40
5.0574966
50
80.7300652
51
84.5907346
0
ARC
8
DEFAULT_255_2_778
10
4.2569615
20
-0.3516105
40
4.7706358
50
77.8437228
51
80.7315071
0
ARC
8
DEFAULT_255_2_778
10
4.5595449
20
0.8521194
40
3.5304333
50
62.1800768
51
78.5305305
0
ARC
8
DEFAULT_255_2_778
10
5.2639233
20
2.2079682
40
2.00259
50
44.1576838
51
61.8996516
0
ARC
8
DEFAULT_255_2_778
10
5.7111955
20
2.6448082
40
1.3773886
50
13.5390383
51
44.0822072
0
ARC
8
DEFAULT_255_2_778
10
5.7091114
20
2.6490572
40
1.3784278
50
12.314008
51
13.3470513
0
ARC
8
DEFAULT_255_2_778
10
5.7046817
20
2.6464389
40
1.3833149
50
8.6789782
51
12.3808346
0
ARC
8
DEFAULT_255_2_778
10
5.8116482
20
2.6627069
40
1.2751183
50
4.4643288
51
8.6816426
0
ARC
8
DEFAULT_255_2_778
10
5.8994268
20
2.6696155
40
1.1870684
50
0.0232359
51
4.4616716
0
ARC
8
DEFAULT_255_2_778
10
6.0168493
20
2.6662767
40
1.0696528
50
339.0368971
51
0.2046255
0
ARC
8
DEFAULT_255_2_778
10
5.832257
20
2.7586009
40
1.2752171
50
312.4983886
51
338.1305114
0
ARC
8
DEFAULT_255_2_778
10
5.286227
20
3.327754
40
2.0638121
50
300.258089
51
313.0004289
0
ARC
8
DEFAULT_255_2_778
10
4.6700615
20
4.3860208
40
3.2883886
50
289.3198897
51
300.2400648
0
ARC
8
DEFAULT_255_2_778
10
4.2565703
20
5.4937957
40
4.4706434
50
284.7101196
51
289.6237257
0
ARC
8
DEFAULT_255_2_778
10
4.1075659
20
6.0499635
40
5.046419
50
280.2457807
51
284.7429717
0
ARC
8
DEFAULT_255_2_778
10
4.1025248
20
6.0647168
40
5.0618343
50
277.2839071
51
280.2722273
0
ARC
8
DEFAULT_255_2_778
10
4.1516129
20
5.6762434
40
4.6702721
50
274.7737609
51
277.2907907
0
ARC
8
DEFAULT_255_2_778
10
4.2043283
20
5.033077
40
4.02495
50
272.1037284
51
274.7878923
0
ARC
8
DEFAULT_255_2_778
10
4.2309962
20
4.3312883
40
3.3226554
50
270.0332817
51
272.0884129
0
ARC
8
DEFAULT_255_2_778
10
4.2361076
20
4.4185225
40
3.4098905
50
267.3277958
51
269.9465444
0
ARC
8
DEFAULT_255_2_778
10
4.2689412
20
5.1437421
40
4.1358525
50
264.9703635
51
267.3418315
0
ARC
8
DEFAULT_255_2_778
10
4.322695
20
5.753983
40
4.7484563
50
262.1151439
51
264.9698048
0
ARC
8
DEFAULT_255_2_778
10
4.3701737
20
6.1049357
40
5.1026043
50
258.7795471
51
262.1276617
0
ARC
8
DEFAULT_255_2_778
10
4.3503947
20
6.0140501
40
5.0096075
50
255.2457014
51
258.7991737
0
ARC
8
DEFAULT_255_2_778
10
4.0226271
20
4.8992824
40
3.8482651
50
242.3219185
51
255.7378859
0
ARC
8
DEFAULT_255_2_778
10
3.3013949
20
3.4985997
40
2.272877
50
230.0652033
51
242.0214541
0
ARC
8
DEFAULT_255_2_778
10
2.7580337
20
2.8587632
40
1.4334863
50
211.0218511
51
230.3016279
0
ARC
8
DEFAULT_255_2_778
10
2.4528643
20
2.6667138
40
1.0730145
50
182.5788514
51
210.6316707
0
ARC
8
DEFAULT_255_2_778
10
2.5145302
20
2.6706123
40
1.134794
50
179.9935148
51
182.6353951
0
ARC
8
DEFAULT_255_2_778
10
2.5705228
20
2.6701903
40
1.1907865
50
175.2474625
51
179.9735173
0
ARC
8
DEFAULT_255_2_778
10
2.6585107
20
2.6629856
40
1.2790688
50
171.3879152
51
175.252394
0
ARC
8
DEFAULT_255_2_778
10
2.7612373
20
2.6473782
40
1.3829743
50
167.6771126
51
171.385896
0
LINE
8
DEFAULT_255_2_778
10
1.3029263
20
2.9342335
11
1.3029263
21
2.9342335
0
LINE
8
DEFAULT_255_2_778
10
1.4101263
20
2.9425335
11
1.4101263
21
2.9430335
0
ARC
8
DEFAULT_255_2_778
10
7.3440354
20
3.3295334
40
0.5744396
50
217.1136168
51
254.1924394
0
ARC
8
DEFAULT_255_2_778
10
5.9706937
20
2.3779216
40
1.0971426
50
33.4651109
51
37.8863285
0
ARC
8
DEFAULT_255_2_778
10
3.6206297
20
0.5482541
40
4.0754785
50
37.8984561
51
40.36051
0
ARC
8
DEFAULT_255_2_778
10
-2.6055275
20
-4.6651655
40
12.1960446
50
40.081074
51
40.1830262
0
ARC
8
DEFAULT_255_2_778
10
145.8417616
20
121.0571116
40
182.3359409
50
220.2295697
51
220.2670399
0
ARC
8
DEFAULT_255_2_778
10
9.9221405
20
6.0823133
40
4.3096881
50
218.9063257
51
220.2953425
0
ARC
8
DEFAULT_255_2_778
10
5.995425
20
2.9014544
40
0.7437697
50
39.6066976
51
51.2618686
0
ARC
8
DEFAULT_255_2_778
10
5.3695728
20
2.1521279
40
1.7199972
50
50.61982
51
54.3034712
0
ARC
8
DEFAULT_255_2_778
10
4.8806716
20
1.4872896
40
2.545211
50
54.0982136
51
54.2252006
0
ARC
8
DEFAULT_255_2_778
10
4.7628806
20
1.3237254
40
2.7467748
50
54.2263147
51
54.3504312
0
ARC
8
DEFAULT_255_2_778
10
4.6036772
20
1.1016005
40
3.0200608
50
54.3521786
51
54.463172
0
ARC
8
DEFAULT_255_2_778
10
4.6098144
20
1.109912
40
3.0097302
50
54.4662797
51
54.5794108
0
ARC
8
DEFAULT_255_2_778
10
4.5227649
20
0.9874671
40
3.1599645
50
54.5799101
51
54.6891628
0
ARC
8
DEFAULT_255_2_778
10
4.3162835
20
0.6957909
40
3.5173293
50
54.6907533
51
54.7870904
0
ARC
8
DEFAULT_255_2_778
10
4.3028017
20
0.6767008
40
3.5407
50
54.7869744
51
54.8808868
0
ARC
8
DEFAULT_255_2_778
10
4.2857522
20
0.6528747
40
3.5699968
50
54.8770492
51
54.9684323
0
ARC
8
DEFAULT_255_2_778
10
3.9585707
20
0.1864902
40
4.1397004
50
54.9657976
51
55.0431024
0
ARC
8
DEFAULT_255_2_778
10
3.6640989
20
-0.2350803
40
4.653933
50
55.0455506
51
55.1129908
0
ARC
8
DEFAULT_255_2_778
10
3.5820806
20
-0.3530293
40
4.7975956
50
55.1151878
51
55.1793391
0
ARC
8
DEFAULT_255_2_778
10
3.2306512
20
-0.8584972
40
5.4132257
50
55.1806452
51
55.2363883
0
ARC
8
DEFAULT_255_2_778
10
3.3629863
20
-0.6674842
40
5.1808499
50
55.2341854
51
55.2912802
0
ARC
8
DEFAULT_255_2_778
10
2.7141458
20
-1.6041295
40
6.3202789
50
55.2907907
51
55.3366625
0
ARC
8
DEFAULT_255_2_778
10
2.2064817
20
-2.3381163
40
7.2127248
50
55.335865
51
55.3752567
0
ARC
8
DEFAULT_255_2_778
10
9.3478617
20
8.0808317
40
5.4188349
50
234.4384652
51
235.8347808
0
ARC
8
DEFAULT_255_2_778
10
6.4791637
20
4.0757624
40
0.4923965
50
226.3688372
51
234.9510502
0
ARC
8
DEFAULT_255_2_778
10
6.2115896
20
3.7933355
40
0.1033541
50
213.3489315
51
225.6985535
0
ARC
8
DEFAULT_255_2_778
10
8.0067517
20
4.9735122
40
2.2517079
50
206.8926778
51
213.3229939
0
ARC
8
DEFAULT_255_2_778
10
5.8817669
20
3.9049631
40
0.1270618
50
23.1999607
51
89.9639475
0
ARC
8
DEFAULT_255_2_778
10
5.8818614
20
3.9045496
40
0.1274753
50
90.0065244
51
98.2116879
0
ARC
8
DEFAULT_255_2_778
10
5.8774965
20
3.80119
40
0.229945
50
93.451258
51
106.6467917
0
ARC
8
DEFAULT_255_2_778
10
5.8983628
20
3.7435779
40
0.2911409
50
107.3331485
51
111.5088088
0
ARC
8
DEFAULT_255_2_778
10
9.3839145
20
-5.2613098
40
9.9470703
50
111.1702975
51
111.2135139
0
ARC
8
DEFAULT_255_2_778
10
5.713524
20
4.1810964
40
0.1836826
50
274.9202749
51
292.7723758
0
ARC
8
DEFAULT_255_2_778
10
5.7092146
20
4.2269302
40
0.2297175
50
273.4039081
51
275.0106637
0
ARC
8
DEFAULT_255_2_778
10
5.7020861
20
4.8559766
40
0.8586099
50
270.0021812
51
271.3859928
0
LINE
8
DEFAULT_255_2_778
10
5.7021188
20
3.9973668
11
5.7015927
21
3.9973669
0
ARC
8
DEFAULT_255_2_778
10
5.7020244
20
4.854096
40
0.8567292
50
261.4365779
51
269.9711293
0
ARC
8
DEFAULT_255_2_778
10
5.4673582
20
3.5620129
40
0.4576134
50
76.4654848
51
87.8966032
0
ARC
8
DEFAULT_255_2_778
10
5.3177382
20
4.115801
40
0.1923621
50
280.1679786
51
329.8960734
0
ARC
8
DEFAULT_255_2_778
10
5.2520928
20
4.3981023
40
0.4820449
50
269.0920095
51
281.9248205
0
ARC
8
DEFAULT_255_2_778
10
5.2446549
20
4.0138127
40
0.097695
50
255.2939414
51
269.8821678
0
ARC
8
DEFAULT_255_2_778
10
5.2685477
20
3.9550681
40
0.0604082
50
216.2854835
51
253.3387375
0
ARC
8
DEFAULT_255_2_778
10
5.3809609
20
4.2286779
40
0.3559649
50
248.6259774
51
257.8096861
0
ARC
8
DEFAULT_255_2_778
10
5.4519978
20
4.5223571
40
0.6580641
50
257.16346
51
263.0133621
0
ARC
8
DEFAULT_255_2_778
10
5.3955098
20
4.048135
40
0.1804995
50
262.5007831
51
268.2678981
0
ARC
8
DEFAULT_255_2_778
10
5.3757568
20
3.6826703
40
0.1855991
50
76.6398719
51
85.5819838
0
ARC
8
DEFAULT_255_2_778
10
5.0053127
20
1.9279526
40
1.9789405
50
76.1311425
51
77.9441754
0
ARC
8
DEFAULT_255_2_778
10
3.9276785
20
-2.5493864
40
6.5841158
50
76.3134397
51
76.366118
0
ARC
8
DEFAULT_255_2_778
10
7.3978189
20
11.5892507
40
7.9741635
50
256.1247695
51
256.5942162
0
ARC
8
DEFAULT_255_2_778
10
5.6495846
20
4.2527935
40
0.4322854
50
256.5505213
51
258.953187
0
ARC
8
DEFAULT_255_2_778
10
5.5717042
20
3.6033182
40
0.2252542
50
90.0005662
51
91.2592419
0
ARC
8
DEFAULT_255_2_778
10
5.5716194
20
3.6033758
40
0.2251966
50
53.3788385
51
89.9789899
0
ARC
8
DEFAULT_255_2_778
10
5.3719863
20
3.2107619
40
0.6635296
50
52.523153
51
59.7801199
0
ARC
8
DEFAULT_255_2_778
10
5.1589597
20
2.9285335
40
1.0171234
50
47.1134191
51
52.6730765
0
ARC
8
DEFAULT_255_2_778
10
5.1146588
20
2.8627966
40
1.0955067
50
26.4491549
51
47.7555734
0
ARC
8
DEFAULT_255_2_778
10
5.5987231
20
3.1171195
40
0.5489666
50
14.3360576
51
25.1862724
0
ARC
8
DEFAULT_255_2_778
10
5.7204491
20
3.1514562
40
0.4225406
50
12.0014761
51
13.9120397
0
ARC
8
DEFAULT_255_2_778
10
6.4022563
20
3.3092749
40
0.2774662
50
194.6034519
51
211.1975726
0
ARC
8
DEFAULT_255_2_778
10
7.2960207
20
3.8413583
40
1.3176173
50
210.8573092
51
217.3445686
0
ARC
8
DEFAULT_255_2_778
10
13.9579484
20
8.725078
40
9.5776741
50
216.395711
51
216.4973301
0
ARC
8
DEFAULT_255_2_778
10
4.7606679
20
1.8811538
40
1.8868035
50
32.7244376
51
37.4483838
0
ARC
8
DEFAULT_255_2_778
10
6.093901
20
2.7358044
40
0.3031624
50
18.0757033
51
33.0540338
0
ARC
8
DEFAULT_255_2_778
10
6.2587795
20
2.7948368
40
0.1282009
50
12.8817949
51
15.8577287
0
ARC
8
DEFAULT_255_2_778
10
6.4652444
20
3.7974935
40
0.9774783
50
257.7769107
51
265.2178104
0
ARC
8
DEFAULT_255_2_778
10
6.5447158
20
4.1981503
40
1.3858965
50
256.2516851
51
258.0727865
0
ARC
8
DEFAULT_255_2_778
10
6.6985553
20
4.786622
40
1.9940922
50
250.0915532
51
255.976503
0
ARC
8
DEFAULT_255_2_778
10
6.8876991
20
5.3375537
40
2.5765243
50
249.6947218
51
250.3086384
0
ARC
8
DEFAULT_255_2_778
10
6.9802012
20
5.5834774
40
2.8392661
50
247.1853245
51
249.6662112
0
ARC
8
DEFAULT_255_2_778
10
6.9834918
20
5.5949025
40
2.8510737
50
245.6637782
51
247.2133983
0
ARC
8
DEFAULT_255_2_778
10
6.73319
20
5.0426875
40
2.2447798
50
244.6290244
51
245.6764933
0
ARC
8
DEFAULT_255_2_778
10
6.2243605
20
3.9716826
40
1.0590492
50
243.8765964
51
244.675158
0
ARC
8
DEFAULT_255_2_778
10
5.2758152
20
2.051842
40
1.0829954
50
66.1710222
51
88.2253495
0
ARC
8
DEFAULT_255_2_778
10
5.8831273
20
9.6093936
40
6.5004477
50
264.0318614
51
264.9360981
0
ARC
8
DEFAULT_255_2_778
10
5.7711094
20
8.5470277
40
5.4321929
50
262.7776016
51
264.0418897
0
ARC
8
DEFAULT_255_2_778
10
5.6425123
20
7.5324728
40
4.4095205
50
261.4711654
51
262.7779376
0
ARC
8
DEFAULT_255_2_778
10
5.5583217
20
6.9616318
40
3.8325065
50
260.9956659
51
261.4502325
0
ARC
8
DEFAULT_255_2_778
10
5.4366271
20
6.217835
40
3.0788318
50
258.6488233
51
261.0660822
0
ARC
8
DEFAULT_255_2_778
10
5.242323
20
5.2520586
40
2.0937034
50
255.9733575
51
258.660245
0
ARC
8
DEFAULT_255_2_778
10
5.0757322
20
4.5860582
40
1.4071841
50
253.0193111
51
255.9816241
0
ARC
8
DEFAULT_255_2_778
10
5.1352761
20
4.7601998
40
1.591135
50
251.3272323
51
252.8000101
0
ARC
8
DEFAULT_255_2_778
10
4.8029022
20
3.7883213
40
0.5640123
50
245.9958456
51
251.705065
0
ARC
8
DEFAULT_255_2_778
10
-0.8036354
20
-8.0315121
40
12.5182715
50
64.5616418
51
64.7600156
0
ARC
8
DEFAULT_255_2_778
10
4.4770913
20
3.1582641
40
0.1451195
50
66.7876825
51
86.2246712
0
ARC
8
DEFAULT_255_2_778
10
4.4511372
20
2.9189767
40
0.3857299
50
84.718002
51
87.783727
0
ARC
8
DEFAULT_255_2_778
10
4.2567998
20
3.3926433
40
0.189805
50
312.5507211
51
332.3013653
0
ARC
8
DEFAULT_255_2_778
10
5.2434753
20
2.3012055
40
1.2815155
50
132.0493632
51
147.0453494
0
ARC
8
DEFAULT_255_2_778
10
4.0460521
20
3.0866331
40
0.1506932
50
281.6003138
51
324.1221403
0
ARC
8
DEFAULT_255_2_778
10
4.4011804
20
2.5007373
40
0.5092093
50
89.6864876
51
97.21198
0
ARC
8
DEFAULT_255_2_778
10
4.4012862
20
2.1866956
40
0.8232478
50
84.9105229
51
89.8134416
0
ARC
8
DEFAULT_255_2_778
10
4.3510638
20
1.6627631
40
1.3495746
50
78.8262153
51
84.7599975
0
ARC
8
DEFAULT_255_2_778
10
4.285456
20
1.2981747
40
1.7199771
50
78.2611425
51
79.0356739
0
ARC
8
DEFAULT_255_2_778
10
4.2692748
20
1.2207713
40
1.7990536
50
76.1202726
51
78.2581178
0
ARC
8
DEFAULT_255_2_778
10
4.3300662
20
1.4639577
40
1.5483852
50
74.7839233
51
76.1454261
0
ARC
8
DEFAULT_255_2_778
10
4.5281099
20
2.1896025
40
0.796201
50
73.8631492
51
74.8305628
0
ARC
8
DEFAULT_255_2_778
10
4.2608133
20
0.9986779
40
2.0158593
50
68.7220468
51
75.971874
0
ARC
8
DEFAULT_255_2_778
10
5.0958327
20
3.1428474
40
0.2851666
50
248.7233664
51
249.6868209
0
ARC
8
DEFAULT_255_2_778
10
5.1705849
20
3.3443488
40
0.5000868
50
249.6694293
51
250.2915088
0
ARC
8
DEFAULT_255_2_778
10
5.2629355
20
3.6018383
40
0.7736367
50
250.2836345
51
250.673125
0
ARC
8
DEFAULT_255_2_778
10
5.3579499
20
3.8724672
40
1.0604604
50
250.6680772
51
250.9279204
0
ARC
8
DEFAULT_255_2_778
10
5.4693093
20
4.1941453
40
1.4008685
50
250.9223568
51
251.1293308
0
ARC
8
DEFAULT_255_2_778
10
5.5996946
20
4.5753234
40
1.8037295
50
251.1264224
51
251.2941743
0
ARC
8
DEFAULT_255_2_778
10
5.8429429
20
5.2942733
40
2.5627147
50
251.2980772
51
251.3788908
0
ARC
8
DEFAULT_255_2_778
10
5.8326522
20
5.26415
40
2.5308824
50
251.3819097
51
251.4654835
0
ARC
8
DEFAULT_255_2_778
10
5.9363852
20
5.5728298
40
2.856526
50
251.4608544
51
251.5362993
0
ARC
8
DEFAULT_255_2_778
10
6.0498345
20
5.9120001
40
3.2141671
50
251.5328612
51
251.601031
0
ARC
8
DEFAULT_255_2_778
10
6.422705
20
7.0321368
40
4.3947342
50
251.5976528
51
251.6482436
0
ARC
8
DEFAULT_255_2_778
10
6.6173904
20
7.6201612
40
5.0141491
50
251.6523054
51
251.6972189
0
ARC
8
DEFAULT_255_2_778
10
6.5661438
20
7.4655462
40
4.8512626
50
251.6983885
51
251.7453325
0
ARC
8
DEFAULT_255_2_778
10
7.1073147
20
9.1042517
40
6.5770152
50
251.7398817
51
251.7748454
0
ARC
8
DEFAULT_255_2_778
10
6.9793631
20
8.7158781
40
6.1681071
50
251.7754794
51
251.8130722
0
ARC
8
DEFAULT_255_2_778
10
7.8284904
20
11.2992909
40
8.8874892
50
251.8106381
51
251.8369126
0
ARC
8
DEFAULT_255_2_778
10
7.5498914
20
10.449226
40
7.9929347
50
251.8349958
51
251.8643825
0
ARC
8
DEFAULT_255_2_778
10
7.9430298
20
11.6468857
40
9.2534686
50
251.8593301
51
251.8848348
0
ARC
8
DEFAULT_255_2_778
10
10.0233092
20
18.0063271
40
15.9445116
50
251.8854142
51
251.9002714
0
ARC
8
DEFAULT_255_2_778
10
7.9979263
20
11.8081875
40
9.4238437
50
251.8976774
51
251.922885
0
ARC
8
DEFAULT_255_2_778
10
9.1196587
20
15.2398798
40
13.0342168
50
251.9162015
51
251.9344615
0
ARC
8
DEFAULT_255_2_778
10
-75.6947818
20
-245.2079808
40
260.8755828
50
71.9473586
51
71.9636291
0
ARC
8
DEFAULT_255_2_778
10
0.6678985
20
-10.9290613
40
14.4656178
50
71.4239501
51
71.9579111
0
ARC
8
DEFAULT_255_2_778
10
2.6834604
20
-4.9344121
40
8.1411964
50
70.3712819
51
71.4301458
0
ARC
8
DEFAULT_255_2_778
10
3.8746533
20
-1.6095761
40
4.609422
50
68.264004
51
70.4344327
0
ARC
8
DEFAULT_255_2_778
10
4.445281
20
-0.1588252
40
3.0505071
50
67.6814989
51
68.1287517
0
ARC
8
DEFAULT_255_2_778
10
4.803023
20
0.7002646
40
2.1199251
50
65.0687382
51
67.8084977
0
ARC
8
DEFAULT_255_2_778
10
5.2487343
20
1.6558824
40
1.0654775
50
61.0004955
51
65.1416115
0
ARC
8
DEFAULT_255_2_778
10
5.5384447
20
2.1759047
40
0.470203
50
54.4609301
51
61.1564418
0
ARC
8
DEFAULT_255_2_778
10
6.0398639
20
2.8863613
40
0.3993938
50
235.1702009
51
242.4798926
0
ARC
8
DEFAULT_255_2_778
10
6.5344883
20
3.8109129
40
1.4479225
50
242.0264509
51
245.2571523
0
ARC
8
DEFAULT_255_2_778
10
7.4338167
20
5.7448199
40
3.5807061
50
245.1397638
51
246.9348027
0
ARC
8
DEFAULT_255_2_778
10
8.6804182
20
8.6571537
40
6.7486209
50
246.8842156
51
247.9585983
0
ARC
8
DEFAULT_255_2_778
10
9.7386214
20
11.25646
40
9.5550718
50
247.9261954
51
248.3890558
0
ARC
8
DEFAULT_255_2_778
10
10.72671
20
13.7587374
40
12.24537
50
248.4029152
51
249.285017
0
ARC
8
DEFAULT_255_2_778
10
10.6417018
20
13.5222849
40
11.9941354
50
249.2653106
51
249.8343413
0
ARC
8
DEFAULT_255_2_778
10
9.3288506
20
9.9471073
40
8.1855302
50
249.8335158
51
250.268488
0
ARC
8
DEFAULT_255_2_778
10
7.9318949
20
6.0467862
40
4.0425865
50
250.2420461
51
250.9099848
0
ARC
8
DEFAULT_255_2_778
10
4.5411254
20
-2.6990858
40
5.3423587
50
61.3195322
51
67.2188304
0
ARC
8
DEFAULT_255_2_778
10
7.316402
20
2.2496609
40
0.3364962
50
231.0910545
51
239.2833335
0
ARC
8
DEFAULT_255_2_778
10
7.8252009
20
3.0806169
40
1.3108273
50
238.7164193
51
242.1820217
0
ARC
8
DEFAULT_255_2_778
10
8.7392144
20
4.7964892
40
3.2549505
50
242.0473794
51
243.9900936
0
ARC
8
DEFAULT_255_2_778
10
9.867309
20
7.0953553
40
5.8156856
50
243.9336874
51
245.1677758
0
ARC
8
DEFAULT_255_2_778
10
10.6031107
20
8.6754582
40
7.5587049
50
245.1360426
51
245.7552969
0
ARC
8
DEFAULT_255_2_778
10
10.7692259
20
9.040327
40
7.959605
50
245.7435194
51
247.0445359
0
ARC
8
DEFAULT_255_2_778
10
9.7959861
20
6.7362681
40
5.4584305
50
247.0188035
51
248.2184611
0
ARC
8
DEFAULT_255_2_778
10
8.7295863
20
4.0628363
40
2.5801604
50
248.1793331
51
249.7942254
0
ARC
8
DEFAULT_255_2_778
10
8.1918478
20
2.6030476
40
1.0244788
50
249.8190896
51
251.657866
0
ARC
8
DEFAULT_255_2_778
10
6.6055774
20
2.4000873
40
1.4796848
50
328.6662411
51
359.9990417
0
ARC
8
DEFAULT_255_2_778
10
6.6061126
20
2.4000639
40
1.4791495
50
359.9999469
51
3.8377116
0
ARC
8
DEFAULT_255_2_778
10
6.6052135
20
2.399992
40
1.4800513
50
3.8381605
51
8.5141084
0
ARC
8
DEFAULT_255_2_778
10
7.4962085
20
2.7506376
40
0.4871344
50
90.8532936
51
102.719275
0
ARC
8
DEFAULT_255_2_778
10
7.2751478
20
3.1385842
40
0.0189655
50
148.0582581
51
180.1154054
0
ARC
8
DEFAULT_255_2_778
10
7.279054
20
3.1386854
40
0.022872
50
180.3493886
51
195.3398684
0
ARC
8
DEFAULT_255_2_778
10
7.3198147
20
3.1569521
40
0.0673603
50
201.1618734
51
232.7247631
0
ARC
8
DEFAULT_255_2_778
10
7.397546
20
3.2419474
40
0.1823672
50
229.4628887
51
237.6233425
0
ARC
8
DEFAULT_255_2_778
10
7.3487307
20
3.1648207
40
0.0910904
50
237.5772499
51
239.0280636
0
ARC
8
DEFAULT_255_2_778
10
7.2629995
20
2.513045
40
0.5749873
50
84.7198362
51
86.1253211
0
ARC
8
DEFAULT_255_2_778
10
7.2445696
20
2.2910906
40
0.7976984
50
80.9881639
51
84.8687918
0
ARC
8
DEFAULT_255_2_778
10
7.2777678
20
2.5082561
40
0.5780147
50
79.3788662
51
80.8664281
0
ARC
8
DEFAULT_255_2_778
10
7.3537243
20
2.8631839
40
0.2153661
50
62.6422808
51
81.8370478
0
ARC
8
DEFAULT_255_2_778
10
7.4423224
20
3.0321427
40
0.0246119
50
6.9431733
51
65.0749679
0
ARC
8
DEFAULT_255_2_778
10
7.6654343
20
3.4348114
40
0.4463505
50
243.5688594
51
257.5024963
0
ARC
8
DEFAULT_255_2_778
10
7.8553321
20
4.2499186
40
1.2832691
50
257.1001497
51
264.5440986
0
ARC
8
DEFAULT_255_2_778
10
8.0499766
20
6.1302654
40
3.1736396
50
264.2736518
51
267.2867781
0
ARC
8
DEFAULT_255_2_778
10
9.40202
20
33.3202036
40
30.3971651
50
267.1672021
51
267.3227127
0
ARC
8
DEFAULT_255_2_778
10
6.4788139
20
2.3769766
40
1.6110716
50
21.0718221
51
26.2810372
0
ARC
8
DEFAULT_255_2_778
10
7.855549
20
3.236371
40
0.0203649
50
260.5585231
51
268.044111
0
ARC
8
DEFAULT_255_2_778
10
7.872188
20
3.3490031
40
0.1342166
50
259.7926372
51
261.439042
0
ARC
8
DEFAULT_255_2_778
10
7.5784908
20
1.7669877
40
1.4748321
50
79.4547291
51
80.6169986
0
ARC
8
DEFAULT_255_2_778
10
7.6542533
20
2.2006455
40
1.0346326
50
80.8411782
51
83.0945017
0
ARC
8
DEFAULT_255_2_778
10
7.6118336
20
1.8450724
40
1.3927265
50
83.120802
51
85.8089005
0
ARC
8
DEFAULT_255_2_778
10
7.5722605
20
1.3073244
40
1.9319286
50
85.8039515
51
88.3859808
0
ARC
8
DEFAULT_255_2_778
10
7.554493
20
0.7362301
40
2.5032974
50
88.3476462
51
90.0284242
0
ARC
8
DEFAULT_255_2_778
10
7.5537243
20
0.3043554
40
2.9351717
50
90.009236
51
90.9374165
0
ARC
8
DEFAULT_255_2_778
10
7.556894
20
0.0856119
40
3.1539378
50
90.9299782
51
91.2343226
0
ARC
8
DEFAULT_255_2_778
10
6.4817354
20
1.6001953
40
0.0407998
50
42.4213987
51
60.4401293
0
ARC
8
DEFAULT_255_2_778
10
6.4315762
20
1.5191927
40
0.1360539
50
58.8947175
51
71.7158004
0
ARC
8
DEFAULT_255_2_778
10
6.3754928
20
1.3542273
40
0.3102892
50
71.4393493
51
81.1192803
0
ARC
8
DEFAULT_255_2_778
10
6.3265804
20
1.0577166
40
0.6108015
50
80.8799553
51
87.4676258
0
ARC
8
DEFAULT_255_2_778
10
6.3081711
20
0.7384562
40
0.9305734
50
87.2037813
51
89.7116713
0
ARC
8
DEFAULT_255_2_778
10
6.3098904
20
1.6341182
40
0.0350253
50
85.1463561
51
138.8310484
0
ARC
8
DEFAULT_255_2_778
10
6.3225878
20
1.6303511
40
0.0473862
50
145.5238393
51
183.6246241
0
ARC
8
DEFAULT_255_2_778
10
6.4465892
20
1.6327105
40
0.1713765
50
181.7906444
51
197.0211799
0
ARC
8
DEFAULT_255_2_778
10
6.6812951
20
1.697356
40
0.4147821
50
196.0693103
51
201.8150725
0
ARC
8
DEFAULT_255_2_778
10
6.9701178
20
1.8119366
40
0.7255017
50
201.7396757
51
205.8526142
0
ARC
8
DEFAULT_255_2_778
10
7.2604872
20
1.9511824
40
1.0475307
50
205.7810784
51
208.8517613
0
ARC
8
DEFAULT_255_2_778
10
7.2342179
20
1.9355258
40
1.0169677
50
208.7933361
51
210.1290244
0
ARC
8
DEFAULT_255_2_778
10
6.8277123
20
1.6990001
40
0.5466584
50
210.073953
51
211.0039401
0
ARC
8
DEFAULT_255_2_778
10
6.539525
20
1.6933631
40
0.3296657
50
236.8294267
51
244.2644452
0
ARC
8
DEFAULT_255_2_778
10
6.7866384
20
2.1974067
40
0.8910209
50
244.0241621
51
248.3054294
0
ARC
8
DEFAULT_255_2_778
10
7.0246215
20
2.77763
40
1.5181328
50
248.054768
51
249.1675087
0
ARC
8
DEFAULT_255_2_778
10
7.3548224
20
3.6645014
40
2.4644653
50
249.3253798
51
252.2449811
0
ARC
8
DEFAULT_255_2_778
10
7.589116
20
4.3731443
40
3.2108098
50
252.1194463
51
252.273018
0
ARC
8
DEFAULT_255_2_778
10
7.6467605
20
4.5535208
40
3.4001734
50
252.2732512
51
254.9141273
0
ARC
8
DEFAULT_255_2_778
10
7.2531183
20
3.081906
40
1.8768256
50
254.8244992
51
257.1808636
0
ARC
8
DEFAULT_255_2_778
10
6.9454373
20
1.7177033
40
0.4783662
50
256.8611613
51
261.4786418
0
ARC
8
DEFAULT_255_2_778
10
6.7935596
20
0.6978398
40
0.5527445
50
76.9112278
51
81.5740388
0
ARC
8
DEFAULT_255_2_778
10
6.355176
20
-1.2237856
40
2.5237366
50
74.7542952
51
77.0968811
0
ARC
8
DEFAULT_255_2_778
10
5.9835938
20
-2.6442357
40
3.9919361
50
74.9445963
51
74.9698021
0
ARC
8
DEFAULT_255_2_778
10
5.7120865
20
-3.6512057
40
5.0348667
50
74.6658797
51
74.9374906
0
ARC
8
DEFAULT_255_2_778
10
5.1890174
20
-5.544279
40
6.9988721
50
73.8238735
51
74.6345292
0
ARC
8
DEFAULT_255_2_778
10
5.0779433
20
-5.9375646
40
7.4075322
50
73.5594406
51
73.8462205
0
ARC
8
DEFAULT_255_2_778
10
6.0130678
20
-2.7714835
40
4.1062405
50
73.3755228
51
73.5709538
0
ARC
8
DEFAULT_255_2_778
10
6.9299392
20
-0.6308383
40
1.8124015
50
73.5769737
51
81.8187199
0
ARC
8
DEFAULT_255_2_778
10
5.8119478
20
2.8948517
40
2.4190679
50
314.3229078
51
321.4476688
0
ARC
8
DEFAULT_255_2_778
10
6.9311881
20
-35.5771656
40
36.9724561
50
88.8026767
51
88.8186093
0
ARC
8
DEFAULT_255_2_778
10
7.8806707
20
12.1673505
40
10.7815445
50
267.9867659
51
269.0051457
0
ARC
8
DEFAULT_255_2_778
10
7.6039592
20
4.684967
40
3.2940869
50
262.1301009
51
268.2247463
0
ARC
8
DEFAULT_255_2_778
10
7.4891092
20
3.7257766
40
2.3282711
50
261.5566225
51
261.6977711
0
ARC
8
DEFAULT_255_2_778
10
7.3316926
20
2.875953
40
1.4648711
50
243.7263282
51
262.766452
0
ARC
8
DEFAULT_255_2_778
10
6.5862617
20
1.5242787
40
0.1042214
50
21.4657122
51
81.9871547
0
ARC
8
DEFAULT_255_2_778
10
6.556485
20
1.4110482
40
0.2209223
50
78.431232
51
90.348884
0
ARC
8
DEFAULT_255_2_778
10
6.55532
20
1.3548022
40
0.2771643
50
90.0372632
51
95.7617643
0
ARC
8
DEFAULT_255_2_778
10
6.5539615
20
1.3685976
40
0.2633022
50
95.7689992
51
96.6241642
0
ARC
8
DEFAULT_255_2_778
10
6.5477472
20
1.4185537
40
0.2129633
50
96.5138617
51
99.4041896
0
ARC
8
DEFAULT_255_2_778
10
6.5268072
20
1.545166
40
0.0846309
50
99.4242153
51
100.7276175
0
LINE
8
DEFAULT_255_2_778
10
7.7313539
20
2.690318
11
7.2510539
21
2.761518
0
LINE
8
DEFAULT_255_2_778
10
7.2510539
20
2.761518
11
7.1875539
21
2.776818
0
LINE
8
DEFAULT_255_2_778
10
5.7580539
20
3.020818
11
5.7133539
21
3.042518
0
LINE
8
DEFAULT_255_2_778
10
4.4660539
20
3.304418
11
4.4248539
21
3.304418
0
LINE
8
DEFAULT_255_2_778
10
4.0763539
20
2.939018
11
4.3372539
21
3.005918
0
LINE
8
DEFAULT_255_2_778
10
8.0689539
20
2.619118
11
7.7313539
21
2.690318
0
LINE
8
DEFAULT_255_2_778
10
7.3889539
20
3.225818
11
7.2590539
21
3.148618
0
LINE
8
DEFAULT_255_2_778
10
7.9233539
20
3.090318
11
7.8548539
21
3.216018
0
LINE
8
DEFAULT_255_2_778
10
7.4889539
20
3.238818
11
7.4889539
21
3.237718
0
LINE
8
DEFAULT_255_2_778
10
7.4423539
20
1.107618
11
7.5021539
21
1.164218
0
LINE
8
DEFAULT_255_2_778
10
6.5110539
20
1.628318
11
6.5118539
21
1.627718
0
ARC
8
DEFAULT_255_2_778
10
5.565873
20
6.3110753
40
0.0395373
50
179.6952489
51
192.8107773
0
ARC
8
DEFAULT_255_2_778
10
5.7022298
20
6.2878086
40
0.1774532
50
151.8050698
51
172.3975129
0
ARC
8
DEFAULT_255_2_778
10
5.3228203
20
6.4734752
40
0.2451584
50
335.4590873
51
348.8122938
0
ARC
8
DEFAULT_255_2_778
10
5.649966
20
6.6670892
40
0.2562725
50
249.6728049
51
250.2387634
0
ARC
8
DEFAULT_255_2_778
10
5.6888915
20
6.7689466
40
0.3653104
50
246.1513676
51
249.4974423
0
ARC
8
DEFAULT_255_2_778
10
5.772082
20
6.9605251
40
0.5741686
50
245.43877
51
246.2882731
0
ARC
8
DEFAULT_255_2_778
10
6.2970953
20
6.6360168
40
0.7888527
50
187.2773557
51
194.5146437
0
ARC
8
DEFAULT_255_2_778
10
6.311419
20
6.6408907
40
0.8036841
50
182.6634946
51
187.4926747
0
ARC
8
DEFAULT_255_2_778
10
6.174738
20
6.63386
40
0.6668243
50
180.0334764
51
182.6057932
0
ARC
8
DEFAULT_255_2_778
10
5.8883789
20
6.64265
40
0.3805757
50
163.1311967
51
181.3821284
0
ARC
8
DEFAULT_255_2_778
10
5.6959645
20
6.6950442
40
0.1813263
50
153.6915363
51
161.3312952
0
ARC
8
DEFAULT_255_2_778
10
5.3520467
20
6.8911313
40
0.2151464
50
327.4606374
51
359.9832182
0
ARC
8
DEFAULT_255_2_778
10
5.3527122
20
6.8910663
40
0.2144809
50
0.0005428
51
4.0058621
0
ARC
8
DEFAULT_255_2_778
10
5.3527512
20
6.8910647
40
0.2144422
50
4.0070068
51
8.3507183
0
ARC
8
DEFAULT_255_2_778
10
2.8800444
20
6.0488275
40
2.8233581
50
18.0195355
51
28.9181181
0
ARC
8
DEFAULT_255_2_778
10
71.5429579
20
41.3480027
40
74.3830479
50
207.1184518
51
207.1424894
0
ARC
8
DEFAULT_255_2_778
10
9.37596
20
9.5546838
40
4.5580864
50
204.0734205
51
207.6153118
0
ARC
8
DEFAULT_255_2_778
10
5.6820212
20
7.8667156
40
0.4980869
50
179.9755091
51
200.116491
0
ARC
8
DEFAULT_255_2_778
10
5.6861993
20
7.8669233
40
0.5022651
50
177.4798065
51
179.9993985
0
ARC
8
DEFAULT_255_2_778
10
5.4832862
20
8.1549696
40
0.4000704
50
213.8581392
51
221.6658682
0
ARC
8
DEFAULT_255_2_778
10
5.7361738
20
8.3297047
40
0.7074374
50
210.9334962
51
214.1991132
0
ARC
8
DEFAULT_255_2_778
10
6.2863382
20
8.6492007
40
1.3436121
50
204.6281437
51
210.5601231
0
ARC
8
DEFAULT_255_2_778
10
7.1264868
20
9.0463023
40
2.2728427
50
202.3114312
51
204.9020391
0
ARC
8
DEFAULT_255_2_778
10
7.5421623
20
9.2188395
40
2.722901
50
198.9430853
51
202.3495723
0
ARC
8
DEFAULT_255_2_778
10
7.049369
20
9.0493952
40
2.2017902
50
197.4944191
51
198.9354714
0
ARC
8
DEFAULT_255_2_778
10
7.3039761
20
7.435505
40
2.5397334
50
157.9853336
51
160.7043239
0
ARC
8
DEFAULT_255_2_778
10
7.9326254
20
7.2174615
40
3.2051206
50
160.738964
51
165.5927945
0
ARC
8
DEFAULT_255_2_778
10
7.2271101
20
7.3924021
40
2.4782727
50
165.4517339
51
168.8619575
0
ARC
8
DEFAULT_255_2_778
10
5.6535183
20
7.6967841
40
0.8755378
50
168.5133328
51
173.8978241
0
ARC
8
DEFAULT_255_2_778
10
4.9796054
20
7.7707007
40
0.1975947
50
174.4370619
51
179.4467677
0
ARC
8
DEFAULT_255_2_778
10
5.2729255
20
7.7806375
40
0.4909712
50
180.9370068
51
204.5791327
0
ARC
8
DEFAULT_255_2_778
10
5.8256075
20
8.0023005
40
1.086143
50
203.0855501
51
205.2815995
0
ARC
8
DEFAULT_255_2_778
10
8.9779108
20
9.5232846
40
4.5861728
50
205.6446231
51
206.8877147
0
ARC
8
DEFAULT_255_2_778
10
3.8761029
20
6.9214628
40
1.140836
50
17.869864
51
27.5552522
0
ARC
8
DEFAULT_255_2_778
10
4.2878032
20
7.0646195
40
0.7051392
50
4.5995727
51
17.0639925
0
ARC
8
DEFAULT_255_2_778
10
4.2511067
20
7.0619671
40
0.7419303
50
359.9696908
51
4.5764946
0
ARC
8
DEFAULT_255_2_778
10
4.1677271
20
7.0624641
40
0.8253101
50
354.4690036
51
359.938249
0
ARC
8
DEFAULT_255_2_778
10
4.0285275
20
7.0759362
40
0.9651601
50
349.714962
51
354.469432
0
ARC
8
DEFAULT_255_2_778
10
3.9028043
20
7.0976346
40
1.0927379
50
348.0143136
51
349.7725138
0
ARC
8
DEFAULT_255_2_778
10
0.4639052
20
5.7225521
40
4.490509
50
7.8411263
51
10.2305438
0
ARC
8
DEFAULT_255_2_778
10
-4.9735965
20
4.9821201
40
9.9781891
50
6.7825395
51
7.7934024
0
ARC
8
DEFAULT_255_2_778
10
-157.7617929
20
-13.5789497
40
163.8896479
50
6.9130638
51
6.9177217
0
ARC
8
DEFAULT_255_2_778
10
12.4067047
20
7.0030124
40
7.5191866
50
186.5343989
51
188.9094309
0
ARC
8
DEFAULT_255_2_778
10
9.072568
20
6.5007397
40
4.1475389
50
189.1878647
51
192.2878353
0
ARC
8
DEFAULT_255_2_778
10
9.1474146
20
6.5175897
40
4.224257
50
192.2950912
51
193.0658522
0
ARC
8
DEFAULT_255_2_778
10
4.2852115
20
4.7981967
40
1.0690161
50
15.3848894
51
45.6482161
0
ARC
8
DEFAULT_255_2_778
10
6.6111328
20
5.4387313
40
1.3434918
50
195.406645
51
198.3607029
0
ARC
8
DEFAULT_255_2_778
10
6.8421878
20
5.5124733
40
1.5860154
50
198.2597706
51
202.7167012
0
ARC
8
DEFAULT_255_2_778
10
6.6542088
20
5.4353764
40
1.3828466
50
202.7778823
51
203.7972656
0
ARC
8
DEFAULT_255_2_778
10
6.1248236
20
5.1831067
40
0.796865
50
202.5594794
51
217.9957997
0
ARC
8
DEFAULT_255_2_778
10
5.6698196
20
4.8241905
40
0.2173638
50
217.2725051
51
247.2207372
0
ARC
8
DEFAULT_255_2_778
10
5.6260093
20
4.7382465
40
0.1213694
50
250.5825808
51
251.7098091
0
ARC
8
DEFAULT_255_2_778
10
5.5790854
20
4.5922408
40
0.032011
50
56.2318145
51
73.9793573
0
ARC
8
DEFAULT_255_2_778
10
5.5937295
20
4.6134016
40
0.0062941
50
5.2907194
51
59.982247
0
ARC
8
DEFAULT_255_2_778
10
5.5922298
20
4.6149151
40
0.0078228
50
303.6076625
51
353.148915
0
ARC
8
DEFAULT_255_2_778
10
5.581601
20
4.626373
40
0.0233837
50
304.4304123
51
309.7700992
0
ARC
8
DEFAULT_255_2_778
10
5.5456977
20
4.6908493
40
0.0971059
50
282.8563502
51
300.3902245
0
ARC
8
DEFAULT_255_2_778
10
5.4683518
20
4.9808971
40
0.3972413
50
276.2003145
51
284.4242451
0
ARC
8
DEFAULT_255_2_778
10
5.439443
20
5.2081815
40
0.6263324
50
269.9665933
51
276.5837893
0
ARC
8
DEFAULT_255_2_778
10
5.4385605
20
5.1799823
40
0.5981333
50
265.2244662
51
270.0495527
0
ARC
8
DEFAULT_255_2_778
10
5.4075947
20
4.9317353
40
0.3483192
50
242.8966292
51
266.9010717
0
ARC
8
DEFAULT_255_2_778
10
5.3228169
20
4.7561476
40
0.1534558
50
219.2724876
51
241.2052914
0
ARC
8
DEFAULT_255_2_778
10
4.306252
20
3.8973221
40
1.1773502
50
40.3120239
51
50.9408025
0
ARC
8
DEFAULT_255_2_778
10
33.3739311
20
37.7175001
40
43.4183611
50
229.2424895
51
229.2777866
0
ARC
8
DEFAULT_255_2_778
10
5.5851555
20
5.5351691
40
0.8995955
50
216.1430448
51
231.7207887
0
ARC
8
DEFAULT_255_2_778
10
5.1928907
20
5.2239945
40
0.3997884
50
211.5835595
51
213.285714
0
ARC
8
DEFAULT_255_2_778
10
5.862587
20
5.6377304
40
1.1869795
50
207.881813
51
211.6658357
0
ARC
8
DEFAULT_255_2_778
10
9.4518519
20
7.5344156
40
5.2465652
50
206.0906398
51
207.8598597
0
ARC
8
DEFAULT_255_2_778
10
39.5636889
20
22.485253
40
38.8656919
50
206.3501839
51
206.3624535
0
ARC
8
DEFAULT_255_2_778
10
-2.1717079
20
1.8507025
40
7.6921631
50
26.0974063
51
27.3172692
0
ARC
8
DEFAULT_255_2_778
10
3.3763263
20
4.7154753
40
1.4481576
50
27.3488785
51
30.5063279
0
ARC
8
DEFAULT_255_2_778
10
1.7507002
20
4.3608944
40
2.8778791
50
11.4051922
51
13.6984159
0
ARC
8
DEFAULT_255_2_778
10
2.7769096
20
4.5666364
40
1.8312496
50
7.9763476
51
11.4442915
0
ARC
8
DEFAULT_255_2_778
10
3.4237391
20
4.6558268
40
1.1783023
50
2.345006
51
8.0458519
0
ARC
8
DEFAULT_255_2_778
10
3.6630208
20
4.668446
40
0.9387089
50
0.0144337
51
2.1729995
0
ARC
8
DEFAULT_255_2_778
10
3.737828
20
4.668249
40
0.8639017
50
351.3526156
51
0.0287477
0
ARC
8
DEFAULT_255_2_778
10
3.6240064
20
4.684137
40
0.9788193
50
350.2935712
51
351.4349236
0
ARC
8
DEFAULT_255_2_778
10
2.9204061
20
4.8232594
40
1.6959041
50
343.9929628
51
349.6684112
0
ARC
8
DEFAULT_255_2_778
10
-1.0017817
20
5.8808237
40
5.7580163
50
344.5972307
51
344.6398089
0
ARC
8
DEFAULT_255_2_778
10
-0.8290851
20
5.8337501
40
5.5790197
50
344.549107
51
344.5922409
0
ARC
8
DEFAULT_255_2_778
10
-1.7792917
20
6.0966569
40
6.5649267
50
344.510874
51
344.5468523
0
ARC
8
DEFAULT_255_2_778
10
-1.110999
20
5.9117103
40
5.8715146
50
344.4690349
51
344.508516
0
ARC
8
DEFAULT_255_2_778
10
-3.0297118
20
6.445043
40
7.862972
50
344.4393316
51
344.4682648
0
ARC
8
DEFAULT_255_2_778
10
-2.0726807
20
6.178201
40
6.8694365
50
344.4095811
51
344.4420809
0
ARC
8
DEFAULT_255_2_778
10
-4.0136479
20
6.7198004
40
8.8845501
50
344.3847899
51
344.4094479
0
ARC
8
DEFAULT_255_2_778
10
-3.7376832
20
6.6430108
40
8.598101
50
344.3576065
51
344.3826072
0
ARC
8
DEFAULT_255_2_778
10
26.9204909
20
-2.0075819
40
23.2571637
50
164.2005126
51
164.5146832
0
ARC
8
DEFAULT_255_2_778
10
10.5131198
20
2.5520148
40
6.2280395
50
164.6384288
51
165.0775264
0
ARC
8
DEFAULT_255_2_778
10
4.4475223
20
4.1673807
40
0.0489841
50
329.8095593
51
346.3352087
0
ARC
8
DEFAULT_255_2_778
10
4.4756932
20
4.1498496
40
0.0158491
50
271.5565269
51
333.378643
0
ARC
8
DEFAULT_255_2_778
10
4.4819659
20
4.1750826
40
0.0414897
50
222.18176
51
261.9053001
0
ARC
8
DEFAULT_255_2_778
10
4.6198447
20
4.3236098
40
0.244021
50
214.9274792
51
226.2890581
0
ARC
8
DEFAULT_255_2_778
10
5.0686051
20
4.6472472
40
0.797289
50
210.1557997
51
215.5318669
0
ARC
8
DEFAULT_255_2_778
10
6.0514649
20
5.223013
40
1.9363731
50
206.7707198
51
210.2771314
0
ARC
8
DEFAULT_255_2_778
10
7.3292249
20
5.8760756
40
3.3713396
50
204.911794
51
206.8987676
0
ARC
8
DEFAULT_255_2_778
10
7.947966
20
6.1672302
40
4.0551538
50
202.6017534
51
204.9603579
0
ARC
8
DEFAULT_255_2_778
10
6.6560937
20
5.6321552
40
2.6568587
50
200.6878827
51
202.6560228
0
ARC
8
DEFAULT_255_2_778
10
5.1017144
20
5.0479967
40
0.9963412
50
197.655925
51
200.8394223
0
ARC
8
DEFAULT_255_2_778
10
4.2997115
20
4.7962353
40
0.1557932
50
188.719814
51
198.886361
0
ARC
8
DEFAULT_255_2_778
10
4.1680037
20
4.774749
40
0.0223864
50
180.8712214
51
185.4658662
0
ARC
8
DEFAULT_255_2_778
10
3.0687871
20
4.8090233
40
1.077389
50
358.1588666
51
359.9998978
0
ARC
8
DEFAULT_255_2_778
10
3.0629812
20
4.8087684
40
1.0831949
50
0.0133813
51
16.9139902
0
ARC
8
DEFAULT_255_2_778
10
4.6363847
20
5.3695315
40
0.5905668
50
180.2754749
51
204.5766572
0
ARC
8
DEFAULT_255_2_778
10
5.2929062
20
5.4176106
40
1.2481206
50
179.9498984
51
182.3380992
0
ARC
8
DEFAULT_255_2_778
10
6.3085027
20
5.4041337
40
2.2637636
50
175.9400511
51
179.6312735
0
ARC
8
DEFAULT_255_2_778
10
2.1388422
20
5.536612
40
2.0915077
50
22.3580804
51
25.1912876
0
ARC
8
DEFAULT_255_2_778
10
-7.0022584
20
1.2442805
40
12.1902116
50
25.1596176
51
25.9050375
0
ARC
8
DEFAULT_255_2_778
10
17.0214637
20
12.8631732
40
14.4957309
50
205.5078539
51
205.730784
0
ARC
8
DEFAULT_255_2_778
10
9.7878234
20
9.4151325
40
6.4823351
50
204.7433125
51
205.5353434
0
ARC
8
DEFAULT_255_2_778
10
6.2111315
20
7.7843314
40
2.5514841
50
200.3545377
51
205.1016472
0
ARC
8
DEFAULT_255_2_778
10
4.6755815
20
7.2157318
40
0.914042
50
192.2708639
51
200.4179954
0
ARC
8
DEFAULT_255_2_778
10
4.2166302
20
7.1115576
40
0.443456
50
186.1422984
51
191.7215308
0
ARC
8
DEFAULT_255_2_778
10
6.0928603
20
7.2852871
40
2.3276726
50
179.62387
51
185.4525451
0
ARC
8
DEFAULT_255_2_778
10
11.3861059
20
7.2689815
40
7.6209334
50
178.3431283
51
179.7625296
0
ARC
8
DEFAULT_255_2_778
10
-112.4349693
20
10.3707162
40
116.239046
50
358.5795817
51
358.5863028
0
ARC
8
DEFAULT_255_2_778
10
-3.3368503
20
7.7034763
40
7.1083748
50
358.3835862
51
359.7956724
0
ARC
8
DEFAULT_255_2_778
10
1.6523132
20
7.7001204
40
2.1192803
50
359.4053769
51
7.4881834
0
ARC
8
DEFAULT_255_2_778
10
-2.4162601
20
10.0034959
40
6.4942801
50
340.2608622
51
341.8111733
0
ARC
8
DEFAULT_255_2_778
10
2.9394306
20
8.0493628
40
0.7938893
50
317.9476716
51
342.4616499
0
ARC
8
DEFAULT_255_2_778
10
8.7624666
20
2.3574519
40
7.3496414
50
135.404559
51
141.2185686
0
ARC
8
DEFAULT_255_2_778
10
3.1668699
20
6.8613618
40
0.1667292
50
143.3405866
51
161.2160383
0
ARC
8
DEFAULT_255_2_778
10
3.1804746
20
6.8584583
40
0.1805516
50
161.733913
51
168.2873803
0
ARC
8
DEFAULT_255_2_778
10
3.4207826
20
6.8104387
40
0.4256077
50
168.5247843
51
171.8183331
0
ARC
8
DEFAULT_255_2_778
10
2.6907764
20
6.9070012
40
0.3108213
50
338.7109456
51
353.3501994
0
ARC
8
DEFAULT_255_2_778
10
2.6477518
20
6.9325936
40
0.3602958
50
325.6582453
51
337.4028685
0
ARC
8
DEFAULT_255_2_778
10
2.4996529
20
7.0267617
40
0.5357334
50
324.8733821
51
326.2778397
0
ARC
8
DEFAULT_255_2_778
10
4.8853657
20
5.3385464
40
2.3868872
50
144.6799605
51
145.9596399
0
ARC
8
DEFAULT_255_2_778
10
3.1499019
20
6.5052881
40
0.2957283
50
145.0568608
51
152.5371273
0
ARC
8
DEFAULT_255_2_778
10
2.9326741
20
6.6176325
40
0.0511721
50
151.9823271
51
175.0290375
0
ARC
8
DEFAULT_255_2_778
10
2.9317545
20
6.6187271
40
0.0501713
50
176.1835179
51
180.0925396
0
ARC
8
DEFAULT_255_2_778
10
3.0602256
20
6.6230641
40
0.1786972
50
181.4166914
51
185.9621226
0
ARC
8
DEFAULT_255_2_778
10
2.6427411
20
6.583491
40
0.2406728
50
0.8670378
51
5.0085113
0
ARC
8
DEFAULT_255_2_778
10
2.6546227
20
6.5840777
40
0.2287841
50
359.9968227
51
0.7651563
0
ARC
8
DEFAULT_255_2_778
10
2.5952466
20
6.5850578
40
0.288162
50
354.5289663
51
359.8025898
0
ARC
8
DEFAULT_255_2_778
10
2.4257576
20
6.6003775
40
0.4583404
50
351.5477904
51
354.6426738
0
ARC
8
DEFAULT_255_2_778
10
2.7951399
20
6.5456772
40
0.0849301
50
318.7767141
51
351.4214968
0
ARC
8
DEFAULT_255_2_778
10
2.7271971
20
6.6176803
40
0.1837226
50
275.1735791
51
315.8492625
0
ARC
8
DEFAULT_255_2_778
10
2.7449265
20
6.5621586
40
0.1274576
50
247.1439723
51
269.4774064
0
ARC
8
DEFAULT_255_2_778
10
2.7930867
20
6.6610394
40
0.2373559
50
209.125486
51
245.7022581
0
ARC
8
DEFAULT_255_2_778
10
3.0072215
20
6.7290415
40
0.4597031
50
179.8545285
51
203.5302706
0
ARC
8
DEFAULT_255_2_778
10
2.9881958
20
6.7620464
40
0.4418245
50
180.5897379
51
184.1323074
0
ARC
8
DEFAULT_255_2_778
10
2.9438663
20
6.7612394
40
0.3974891
50
180.0015057
51
180.5391819
0
ARC
8
DEFAULT_255_2_778
10
2.828501
20
6.7665021
40
0.2821729
50
159.9755879
51
181.070779
0
ARC
8
DEFAULT_255_2_778
10
2.8549019
20
6.7331231
40
0.3191888
50
123.8626136
51
155.9656217
0
ARC
8
DEFAULT_255_2_778
10
-1.4583441
20
12.2563714
40
6.6895559
50
308.183821
51
308.5385682
0
ARC
8
DEFAULT_255_2_778
10
2.4215491
20
7.4042384
40
0.4770816
50
307.1296597
51
323.0221939
0
ARC
8
DEFAULT_255_2_778
10
2.530392
20
7.3127777
40
0.3352025
50
324.32059
51
325.1032655
0
ARC
8
DEFAULT_255_2_778
10
1.6164744
20
7.9209917
40
1.4329433
50
326.0630918
51
334.9268868
0
ARC
8
DEFAULT_255_2_778
10
-1.2873474
20
9.2920758
40
4.6441756
50
334.7872515
51
337.9097869
0
ARC
8
DEFAULT_255_2_778
10
-557.5660207
20
239.9653526
40
606.8534126
50
337.4808837
51
337.4856954
0
ARC
8
DEFAULT_255_2_778
10
6.4882816
20
6.2110191
40
3.719013
50
153.5317142
51
158.1917581
0
ARC
8
DEFAULT_255_2_778
10
4.091785
20
7.4033133
40
1.0423063
50
142.4074266
51
153.4874692
0
ARC
8
DEFAULT_255_2_778
10
3.7208599
20
7.6787548
40
0.5804214
50
135.6063185
51
141.6148389
0
ARC
8
DEFAULT_255_2_778
10
4.375694
20
8.5283262
40
0.9154133
50
157.4721979
51
181.5597829
0
ARC
8
DEFAULT_255_2_778
10
3.9861535
20
8.671231
40
0.5011427
50
116.8922947
51
155.5001749
0
ARC
8
DEFAULT_255_2_778
10
4.061191
20
8.5416724
40
0.6506843
50
111.6130939
51
117.6250717
0
ARC
8
DEFAULT_255_2_778
10
4.2292433
20
8.0682356
40
1.1528776
50
107.1518039
51
110.7111685
0
ARC
8
DEFAULT_255_2_778
10
-2.6639357
20
29.6516209
40
21.504595
50
287.7421868
51
287.75108
0
ARC
8
DEFAULT_255_2_778
10
3.8368294
20
9.4740863
40
0.3082838
50
280.3911372
51
320.4716753
0
ARC
8
DEFAULT_255_2_778
10
3.9184102
20
9.3703476
40
0.1815212
50
329.3744488
51
359.3564135
0
ARC
8
DEFAULT_255_2_778
10
3.9002689
20
9.3770162
40
0.1998408
50
357.5026843
51
0.0004127
0
ARC
8
DEFAULT_255_2_778
10
3.8966835
20
9.3768285
40
0.2034262
50
0.053272
51
22.7234175
0
ARC
8
DEFAULT_255_2_778
10
3.902246
20
9.2253371
40
0.2934005
50
51.6426223
51
65.0090562
0
ARC
8
DEFAULT_255_2_778
10
4.3979106
20
10.2466027
40
0.8418428
50
242.9635731
51
243.7975944
0
ARC
8
DEFAULT_255_2_778
10
4.0552525
20
9.5857576
40
0.0975778
50
220.5597081
51
245.7948696
0
ARC
8
DEFAULT_255_2_778
10
4.0946763
20
9.5976644
40
0.1362847
50
195.8321822
51
213.5681599
0
ARC
8
DEFAULT_255_2_778
10
4.6325429
20
9.7705363
40
0.7011838
50
191.2125723
51
197.4317462
0
ARC
8
DEFAULT_255_2_778
10
5.9236229
20
10.0358959
40
2.0192406
50
188.0365873
51
191.4748871
0
ARC
8
DEFAULT_255_2_778
10
7.1147256
20
10.2132941
40
3.2234595
50
185.7477162
51
188.1989291
0
ARC
8
DEFAULT_255_2_778
10
5.8640145
20
10.0901743
40
1.966708
50
184.0030592
51
185.8280057
0
ARC
8
DEFAULT_255_2_778
10
4.4002966
20
9.9900315
40
0.4995755
50
180.777518
51
184.2649249
0
ARC
8
DEFAULT_255_2_778
10
3.9782544
20
9.9839112
40
0.0774901
50
175.9176964
51
180.4871529
0
ARC
8
DEFAULT_255_2_778
10
3.9185275
20
9.9881384
40
0.0176138
50
169.3002589
51
175.8023324
0
ARC
8
DEFAULT_255_2_778
10
4.7929489
20
9.8189901
40
0.9082448
50
156.7876506
51
169.0567271
0
ARC
8
DEFAULT_255_2_778
10
4.3805718
20
10.0007662
40
0.4576267
50
134.1381701
51
157.3544553
0
ARC
8
DEFAULT_255_2_778
10
4.2879769
20
10.0834608
40
0.3339152
50
88.1888562
51
132.6170224
0
ARC
8
DEFAULT_255_2_778
10
4.2983505
20
9.9346403
40
0.4825689
50
87.141032
51
89.9786446
0
ARC
8
DEFAULT_255_2_778
10
4.3207224
20
9.9388623
40
0.4777494
50
53.9889071
51
89.7964251
0
ARC
8
DEFAULT_255_2_778
10
4.3871424
20
10.0646723
40
0.3375376
50
11.7463674
51
50.5508942
0
ARC
8
DEFAULT_255_2_778
10
4.1655741
20
10.008097
40
0.566077
50
359.4861221
51
12.7872934
0
ARC
8
DEFAULT_255_2_778
10
3.9796994
20
10.0031946
40
0.751929
50
358.1110103
51
359.9867026
0
ARC
8
DEFAULT_255_2_778
10
4.0870072
20
10.0138862
40
0.6451888
50
344.6102014
51
356.8478354
0
ARC
8
DEFAULT_255_2_778
10
2.440637
20
10.4292678
40
2.3430437
50
343.6389435
51
345.5011778
0
ARC
8
DEFAULT_255_2_778
10
-9.4454451
20
13.8598728
40
14.71428
50
343.804248
51
343.8589405
0
ARC
8
DEFAULT_255_2_778
10
5.9486616
20
9.356421
40
1.325367
50
162.4637049
51
170.0159904
0
ARC
8
DEFAULT_255_2_778
10
5.0669143
20
9.5208545
40
0.4285603
50
171.2289402
51
179.6331848
0
ARC
8
DEFAULT_255_2_778
10
4.8530269
20
9.5136676
40
0.2148936
50
177.3513259
51
229.7032909
0
ARC
8
DEFAULT_255_2_778
10
4.9221263
20
9.5994997
40
0.32506
50
230.1984248
51
246.165847
0
ARC
8
DEFAULT_255_2_778
10
5.0099717
20
9.7867831
40
0.5318897
50
245.6623165
51
252.8261915
0
ARC
8
DEFAULT_255_2_778
10
5.1286043
20
10.1689514
40
0.9320473
50
252.795462
51
256.6814797
0
ARC
8
DEFAULT_255_2_778
10
5.6079895
20
12.2695758
40
3.0866566
50
257.004782
51
258.0392593
0
ARC
8
DEFAULT_255_2_778
10
4.8938494
20
8.8793535
40
0.3779835
50
69.6268656
51
78.6392952
0
ARC
8
DEFAULT_255_2_778
10
4.9276239
20
8.9886122
40
0.2638783
50
51.9374947
51
68.2425928
0
ARC
8
DEFAULT_255_2_778
10
4.7254698
20
8.7239335
40
0.5969159
50
45.4611411
51
52.322991
0
ARC
8
DEFAULT_255_2_778
10
4.410991
20
8.3922402
40
1.0539458
50
44.8246933
51
45.9229472
0
ARC
8
DEFAULT_255_2_778
10
4.7105046
20
8.7258356
40
0.6068806
50
13.0449211
51
42.4194427
0
ARC
8
DEFAULT_255_2_778
10
3.5491081
20
8.4061175
40
1.8111423
50
6.1102039
51
14.6054446
0
ARC
8
DEFAULT_255_2_778
10
0.1699021
20
7.985046
40
5.2163038
50
5.6214175
51
6.7581937
0
ARC
8
DEFAULT_255_2_778
10
3.6508337
20
7.0484679
40
2.1616878
50
26.8236757
51
30.8112296
0
ARC
8
DEFAULT_255_2_778
10
4.2659414
20
7.3584386
40
1.4728933
50
21.1723061
51
26.8605293
0
ARC
8
DEFAULT_255_2_778
10
4.5798361
20
7.4809404
40
1.1359429
50
12.9669216
51
21.1288183
0
ARC
8
DEFAULT_255_2_778
10
4.4382062
20
7.4512755
40
1.2806209
50
8.3379113
51
12.8384436
0
ARC
8
DEFAULT_255_2_778
10
2.887333
20
7.2376306
40
2.8461144
50
5.1309668
51
8.0660004
0
ARC
8
DEFAULT_255_2_778
10
13.2144533
20
8.1891533
40
7.5247599
50
185.314688
51
186.3096583
0
ARC
8
DEFAULT_255_2_778
10
8.6037815
20
7.6857134
40
2.8866956
50
186.4353217
51
188.880688
0
ARC
8
DEFAULT_255_2_778
10
8.2964909
20
7.639969
40
2.5760279
50
188.9305702
51
191.6698513
0
ARC
8
DEFAULT_255_2_778
10
8.3742389
20
7.6556705
40
2.655345
50
191.6623127
51
192.0724663
0
ARC
8
DEFAULT_255_2_778
10
3.8595038
20
6.5397626
40
1.9983446
50
2.1665429
51
16.2903579
0
ARC
8
DEFAULT_255_2_778
10
5.6191048
20
6.6072844
40
0.2374507
50
359.9744
51
1.936589
0
ARC
8
DEFAULT_255_2_778
10
5.4511687
20
6.6127539
40
0.405425
50
349.0789694
51
359.2120124
0
ARC
8
DEFAULT_255_2_778
10
5.1867427
20
6.6596977
40
0.6739677
50
341.1696301
51
349.4193119
0
ARC
8
DEFAULT_255_2_778
10
5.3349895
20
6.5940439
40
0.5126636
50
319.363606
51
342.7669771
0
ARC
8
DEFAULT_255_2_778
10
5.611684
20
6.3532432
40
0.1458908
50
275.8365904
51
320.3589988
0
LINE
8
DEFAULT_255_2_778
10
5.6252199
20
6.2095086
11
5.5273199
21
6.3023086
0
LINE
8
DEFAULT_255_2_778
10
4.9717199
20
6.8707086
11
4.8830199
21
6.5201086
0
LINE
8
DEFAULT_255_2_778
10
4.6240199
20
5.4506086
11
4.5467199
21
5.0424086
0
LINE
8
DEFAULT_255_2_778
10
4.0504199
20
5.5644086
11
4.0731199
21
6.3322086
0
LINE
8
DEFAULT_255_2_778
10
3.3061199
20
8.0848086
11
3.4606199
21
8.5034086
0
LINE
8
DEFAULT_255_2_778
10
5.3611199
20
8.4960086
11
5.5074199
21
8.1557086
0
LINE
8
DEFAULT_255_2_778
10
5.6265199
20
6.2081086
11
5.6252199
21
6.2095086
0
ARC
8
DEFAULT_255_2_778
10
1.3701393
20
6.6929991
40
1.4636086
50
354.3841336
51
355.8538613
0
ARC
8
DEFAULT_255_2_778
10
-5.5881884
20
7.1834715
40
8.4391985
50
355.9482504
51
356.146032
0
ARC
8
DEFAULT_255_2_778
10
3.0891867
20
6.6061009
40
0.2574606
50
166.9728503
51
177.7427042
0
ARC
8
DEFAULT_255_2_778
10
2.9701403
20
6.6295866
40
0.1362416
50
164.080071
51
165.3100478
0
ARC
8
DEFAULT_255_2_778
10
3.0258583
20
6.6089736
40
0.1955293
50
147.2030891
51
162.7498025
0
ARC
8
DEFAULT_255_2_778
10
3.7043776
20
6.1961568
40
0.98971
50
145.0646518
51
148.3909152
0
ARC
8
DEFAULT_255_2_778
10
5.310796
20
5.099737
40
2.9345921
50
145.273105
51
145.476125
0
ARC
8
DEFAULT_255_2_778
10
2.6401464
20
6.9536884
40
0.3164933
50
324.8489661
51
338.7756385
0
ARC
8
DEFAULT_255_2_778
10
2.5273599
20
6.9870633
40
0.4338209
50
340.0594835
51
348.8868743
0
ARC
8
DEFAULT_255_2_778
10
4.5055546
20
6.5611755
40
1.5897899
50
167.1609852
51
167.5672961
0
ARC
8
DEFAULT_255_2_778
10
3.226584
20
6.8604029
40
0.2764068
50
150.7165202
51
168.7247401
0
ARC
8
DEFAULT_255_2_778
10
3.2342906
20
6.8526901
40
0.2869162
50
145.1183839
51
150.1258931
0
ARC
8
DEFAULT_255_2_778
10
8.7509759
20
2.6786358
40
7.20455
50
137.090781
51
142.9767923
0
ARC
8
DEFAULT_255_2_778
10
3.1983264
20
7.8493051
40
0.3828464
50
316.0862599
51
324.0280044
0
ARC
8
DEFAULT_255_2_778
10
2.8472866
20
8.1062459
40
0.8178707
50
323.9056808
51
329.3247843
0
ARC
8
DEFAULT_255_2_778
10
2.4570151
20
8.3444621
40
1.2750768
50
329.0651402
51
330.5742632
0
ARC
8
DEFAULT_255_2_778
10
1.8530991
20
8.6772639
40
1.9645995
50
330.773536
51
334.8027844
0
ARC
8
DEFAULT_255_2_778
10
1.0826666
20
9.0474733
40
2.8193435
50
334.6608785
51
336.4255679
0
ARC
8
DEFAULT_255_2_778
10
0.7959953
20
9.1741044
40
3.1327347
50
336.3997564
51
339.781178
0
ARC
8
DEFAULT_255_2_778
10
1.7953115
20
8.8088978
40
2.0687808
50
339.7072918
51
342.5517133
0
ARC
8
DEFAULT_255_2_778
10
2.9021511
20
8.4616642
40
0.9087531
50
342.5124039
51
345.8736201
0
ARC
8
DEFAULT_255_2_778
10
3.8381047
20
8.2228754
40
0.0572623
50
141.9809052
51
162.7327812
0
ARC
8
DEFAULT_255_2_778
10
3.800877
20
8.2525853
40
0.0096468
50
97.7153143
51
144.8101805
0
ARC
8
DEFAULT_255_2_778
10
3.7970887
20
8.2528385
40
0.0096344
50
0.2024221
51
75.0021778
0
ARC
8
DEFAULT_255_2_778
10
13.891436
20
9.1942499
40
10.128555
50
185.3329331
51
186.2810762
0
ARC
8
DEFAULT_255_2_778
10
-7.1478404
20
6.8459719
40
11.0413888
50
5.224824
51
6.4489889
0
ARC
8
DEFAULT_255_2_778
10
0.8734294
20
7.5792722
40
2.9866696
50
0.2387623
51
5.2285795
0
ARC
8
DEFAULT_255_2_778
10
1.5858542
20
7.5911695
40
2.2742189
50
357.7522295
51
0.0138238
0
ARC
8
DEFAULT_255_2_778
10
26.050816
20
6.7061572
40
22.2067572
50
177.9462726
51
178.139656
0
ARC
8
DEFAULT_255_2_778
10
13.9289731
20
7.0982452
40
10.078575
50
178.13036
51
178.5584017
0
ARC
8
DEFAULT_255_2_778
10
9.4074786
20
7.2124096
40
5.5556394
50
178.5622862
51
179.1419646
0
ARC
8
DEFAULT_255_2_778
10
7.3619671
20
7.242769
40
3.5099027
50
179.1374658
51
179.9691652
0
ARC
8
DEFAULT_255_2_778
10
5.795894
20
7.2394778
40
1.943836
50
179.8473149
51
182.5024318
0
ARC
8
DEFAULT_255_2_778
10
4.8517694
20
7.1962931
40
0.9987281
50
182.3922033
51
187.9152185
0
ARC
8
DEFAULT_255_2_778
10
4.5717625
20
7.159508
40
0.7163263
50
188.085143
51
195.0005944
0
ARC
8
DEFAULT_255_2_778
10
4.8538542
20
7.2440871
40
1.010734
50
195.4928385
51
202.9324905
0
ARC
8
DEFAULT_255_2_778
10
6.3890158
20
7.8707209
40
2.6688121
50
202.4803045
51
204.0843516
0
ARC
8
DEFAULT_255_2_778
10
8.2208779
20
8.6796686
40
4.6713276
50
203.9736795
51
204.0201241
0
ARC
8
DEFAULT_255_2_778
10
7.7740651
20
8.4804717
40
4.1821231
50
204.0191865
51
204.0706317
0
ARC
8
DEFAULT_255_2_778
10
8.7880447
20
8.9333098
40
5.2926263
50
204.069512
51
204.1098212
0
ARC
8
DEFAULT_255_2_778
10
9.6173533
20
9.3046116
40
6.2012615
50
204.1112
51
204.1453109
0
ARC
8
DEFAULT_255_2_778
10
9.5646974
20
9.2814253
40
6.1437279
50
204.1488661
51
204.1830015
0
ARC
8
DEFAULT_255_2_778
10
8.7809135
20
8.9294892
40
5.284556
50
204.1833071
51
204.2226491
0
ARC
8
DEFAULT_255_2_778
10
9.6481216
20
9.3194723
40
6.2354169
50
204.2212429
51
204.2542944
0
ARC
8
DEFAULT_255_2_778
10
9.5849124
20
9.2907647
40
6.1659943
50
204.2523613
51
204.2854905
0
ARC
8
DEFAULT_255_2_778
10
8.7535703
20
8.9153728
40
5.2538272
50
204.2827074
51
204.3212427
0
ARC
8
DEFAULT_255_2_778
10
10.7993265
20
9.8395025
40
7.4986288
50
204.3179152
51
204.3446722
0
ARC
8
DEFAULT_255_2_778
10
12.9076888
20
10.7932499
40
9.8126786
50
204.3436384
51
204.3639003
0
ARC
8
DEFAULT_255_2_778
10
12.8218379
20
10.7556812
40
9.718975
50
204.3709342
51
204.3912045
0
ARC
8
DEFAULT_255_2_778
10
10.8384619
20
9.8559468
40
7.5410627
50
204.3884206
51
204.4143042
0
ARC
8
DEFAULT_255_2_778
10
13.1315237
20
10.8970499
40
10.059401
50
204.415517
51
204.4347401
0
ARC
8
DEFAULT_255_2_778
10
16.7951532
20
12.5628896
40
14.0839759
50
204.4394234
51
204.4530245
0
ARC
8
DEFAULT_255_2_778
10
10.8550586
20
9.8609027
40
7.5582228
50
204.4474399
51
204.4725442
0
ARC
8
DEFAULT_255_2_778
10
17.6350172
20
12.9463246
40
15.0072271
50
204.4709443
51
204.483467
0
ARC
8
DEFAULT_255_2_778
10
10.6514734
20
9.7659764
40
7.3336035
50
204.4820648
51
204.507444
0
ARC
8
DEFAULT_255_2_778
10
17.7904998
20
13.0190542
40
15.1788703
50
204.5023463
51
204.5205875
0
ARC
8
DEFAULT_255_2_778
10
22.2394551
20
15.0491934
40
20.0691329
50
204.5224123
51
204.5360048
0
ARC
8
DEFAULT_255_2_778
10
-619.8112554
20
-278.8587027
40
686.0547817
50
24.5892502
51
24.5983889
0
ARC
8
DEFAULT_255_2_778
10
-9.9588601
20
0.2223461
40
15.3788734
50
24.0733266
51
24.5648083
0
ARC
8
DEFAULT_255_2_778
10
6.8113479
20
6.2441134
40
2.7404766
50
171.9267142
51
174.7373795
0
ARC
8
DEFAULT_255_2_778
10
6.3192017
20
6.3133531
40
2.2434842
50
169.7090683
51
171.9123279
0
ARC
8
DEFAULT_255_2_778
10
5.337747
20
6.5108511
40
1.2426807
50
158.3913225
51
170.5845479
0
ARC
8
DEFAULT_255_2_778
10
4.5529577
20
6.8239192
40
0.397759
50
138.165057
51
158.6873647
0
ARC
8
DEFAULT_255_2_778
10
4.4057186
20
6.945713
40
0.2069553
50
130.2052534
51
136.0988371
0
ARC
8
DEFAULT_255_2_778
10
7.3065225
20
6.3166789
40
3.1348199
50
165.458513
51
169.605423
0
ARC
8
DEFAULT_255_2_778
10
9.0855088
20
5.9907282
40
4.9434206
50
169.6097581
51
173.1596922
0
ARC
8
DEFAULT_255_2_778
10
12.1722347
20
5.6235952
40
8.0519021
50
173.1818725
51
176.2449399
0
ARC
8
DEFAULT_255_2_778
10
15.9750851
20
5.3522172
40
11.864381
50
176.139943
51
176.9553945
0
ARC
8
DEFAULT_255_2_778
10
21.1535288
20
5.0790097
40
17.0500264
50
176.9628642
51
177.5310743
0
ARC
8
DEFAULT_255_2_778
10
21.7323586
20
5.0444124
40
17.6298119
50
177.4997754
51
177.5194763
0
ARC
8
DEFAULT_255_2_778
10
30.063885
20
4.6820604
40
25.9692141
50
177.5163305
51
177.529296
0
ARC
8
DEFAULT_255_2_778
10
57.3803247
20
3.5061763
40
53.310951
50
177.5322852
51
177.5384083
0
ARC
8
DEFAULT_255_2_778
10
28.9816879
20
4.7269238
40
24.8860888
50
177.538199
51
177.5530267
0
ARC
8
DEFAULT_255_2_778
10
42.1176354
20
4.1650543
40
38.0340472
50
177.5522418
51
177.5615998
0
ARC
8
DEFAULT_255_2_778
10
30.0436825
20
4.6795269
40
25.9491383
50
177.5623003
51
177.5764721
0
ARC
8
DEFAULT_255_2_778
10
35.1961862
20
4.4594899
40
31.106338
50
177.5728587
51
177.5849888
0
ARC
8
DEFAULT_255_2_778
10
-817.6695998
20
40.0812397
40
822.5030356
50
357.6026602
51
357.6091923
0
ARC
8
DEFAULT_255_2_778
10
-5.3015121
20
6.0665609
40
9.423146
50
357.1626281
51
357.6278817
0
ARC
8
DEFAULT_255_2_778
10
0.334908
20
5.791465
40
3.7800208
50
356.860486
51
357.0981919
0
ARC
8
DEFAULT_255_2_778
10
1.4536943
20
5.7299432
40
2.6595443
50
356.5515976
51
356.8638552
0
ARC
8
DEFAULT_255_2_778
10
1.7528135
20
5.7332021
40
2.3612582
50
354.493859
51
356.0360839
0
ARC
8
DEFAULT_255_2_778
10
47.3715577
20
1.5002678
40
43.4534664
50
174.7098738
51
174.7402132
0
ARC
8
DEFAULT_255_2_778
10
6.2668089
20
5.2715386
40
2.1761166
50
174.4044687
51
177.298986
0
ARC
8
DEFAULT_255_2_778
10
5.1281727
20
5.3306944
40
1.035972
50
177.599461
51
179.9317932
0
ARC
8
DEFAULT_255_2_778
10
4.563814
20
5.318932
40
0.4717915
50
178.4215682
51
196.3300486
0
ARC
8
DEFAULT_255_2_778
10
4.3224676
20
5.2555903
40
0.2224842
50
198.1518413
51
207.6121208
0
ARC
8
DEFAULT_255_2_778
10
2.7809683
20
4.9032454
40
1.3672615
50
0.0222596
51
10.5027088
0
ARC
8
DEFAULT_255_2_778
10
2.8008858
20
4.9037666
40
1.347344
50
358.9966116
51
0.000423
0
ARC
8
DEFAULT_255_2_778
10
3.3290782
20
3.7983612
40
0.7878162
50
304.2903149
51
339.9659702
0
ARC
8
DEFAULT_255_2_778
10
4.6237852
20
1.6199191
40
1.7485381
50
119.1182312
51
120.752925
0
ARC
8
DEFAULT_255_2_778
10
4.0503238
20
2.5935217
40
0.6186315
50
121.2176438
51
122.2169487
0
ARC
8
DEFAULT_255_2_778
10
3.8299319
20
2.924997
40
0.2209098
50
119.6896647
51
139.8456735
0
ARC
8
DEFAULT_255_2_778
10
3.6930341
20
3.0419477
40
0.0408771
50
141.399175
51
176.7395865
0
ARC
8
DEFAULT_255_2_778
10
3.6793564
20
3.0467412
40
0.0272454
50
185.1985409
51
226.9152969
0
ARC
8
DEFAULT_255_2_778
10
3.7373455
20
3.100421
40
0.1062135
50
223.847381
51
238.2685268
0
ARC
8
DEFAULT_255_2_778
10
3.7861838
20
3.1720572
40
0.1928664
50
237.1212069
51
238.8852304
0
ARC
8
DEFAULT_255_2_778
10
3.871356
20
3.3254877
40
0.3682915
50
239.8758157
51
250.2193554
0
ARC
8
DEFAULT_255_2_778
10
3.9918789
20
3.6481356
40
0.7127017
50
249.8800239
51
259.4824561
0
ARC
8
DEFAULT_255_2_778
10
3.9962443
20
3.658178
40
0.7233764
50
259.2876888
51
263.9162974
0
ARC
8
DEFAULT_255_2_778
10
3.9832825
20
3.5297827
40
0.5943311
50
263.8470155
51
269.8516991
0
ARC
8
DEFAULT_255_2_778
10
3.9887623
20
3.2803612
40
0.344979
50
268.8343052
51
287.3995955
0
ARC
8
DEFAULT_255_2_778
10
4.051852
20
3.0866423
40
0.1412765
50
286.4772231
51
325.0312506
0
ARC
8
DEFAULT_255_2_778
10
5.2364854
20
2.3140674
40
1.2731003
50
131.9995122
51
147.095197
0
ARC
8
DEFAULT_255_2_778
10
4.2548936
20
3.3997155
40
0.1905307
50
312.9128199
51
333.0008756
0
ARC
8
DEFAULT_255_2_778
10
4.285663
20
3.3811064
40
0.154689
50
333.9685033
51
0.7184231
0
ARC
8
DEFAULT_255_2_778
10
4.0304375
20
3.3622603
40
0.4104291
50
2.9029261
51
19.054697
0
ARC
8
DEFAULT_255_2_778
10
-27.1716574
20
-5.8614772
40
32.9468885
50
16.5005597
51
16.5313648
0
ARC
8
DEFAULT_255_2_778
10
4.895787
20
3.6780022
40
0.5098044
50
182.1600212
51
198.8561995
0
ARC
8
DEFAULT_255_2_778
10
4.6712008
20
3.6589898
40
0.284856
50
174.1603125
51
180.0407112
0
ARC
8
DEFAULT_255_2_778
10
6.7955968
20
3.3723071
40
2.4283778
50
161.5702633
51
172.5309704
0
ARC
8
DEFAULT_255_2_778
10
-10.5353394
20
8.6719485
40
15.6956132
50
343.2175429
51
343.5299989
0
ARC
8
DEFAULT_255_2_778
10
2.3380965
20
4.9001348
40
2.2812718
50
342.7076737
51
350.613458
0
ARC
8
DEFAULT_255_2_778
10
3.696908
20
4.6896345
40
0.9064297
50
349.7327459
51
357.826033
0
ARC
8
DEFAULT_255_2_778
10
3.6967795
20
4.6896422
40
0.9065585
50
357.8258492
51
0.0004156
0
ARC
8
DEFAULT_255_2_778
10
3.6943732
20
4.6895082
40
0.9089649
50
0.0088642
51
22.7334353
0
ARC
8
DEFAULT_255_2_778
10
1.566741
20
3.8568678
40
3.4781209
50
23.0482304
51
29.6874753
0
ARC
8
DEFAULT_255_2_778
10
-11.1723357
20
-2.3185932
40
17.6317442
50
25.2960561
51
25.3075528
0
ARC
8
DEFAULT_255_2_778
10
-11.184892
20
-2.3235969
40
17.6452347
50
25.2820936
51
25.293324
0
ARC
8
DEFAULT_255_2_778
10
-5.3060245
20
0.452685
40
11.1437869
50
25.2665607
51
25.2839467
0
ARC
8
DEFAULT_255_2_778
10
-10.7608973
20
-2.1235447
40
17.1764145
50
25.2596245
51
25.2714385
0
ARC
8
DEFAULT_255_2_778
10
-5.5358447
20
0.3414137
40
11.3991144
50
25.2435275
51
25.2614858
0
ARC
8
DEFAULT_255_2_778
10
-5.0967534
20
0.5468662
40
10.9143364
50
25.2332961
51
25.2510099
0
ARC
8
DEFAULT_255_2_778
10
28.0906418
20
16.1519287
40
25.7588366
50
205.1622633
51
205.3314562
0
ARC
8
DEFAULT_255_2_778
10
6.7713814
20
6.0542146
40
2.1691276
50
205.1924544
51
207.198419
0
ARC
8
DEFAULT_255_2_778
10
5.7367027
20
5.5269482
40
1.0078627
50
207.4234337
51
208.6821474
0
ARC
8
DEFAULT_255_2_778
10
5.4210116
20
5.351044
40
0.6464892
50
208.4336367
51
215.4122205
0
ARC
8
DEFAULT_255_2_778
10
5.537125
20
5.4424003
40
0.7940914
50
215.9297939
51
222.8338447
0
ARC
8
DEFAULT_255_2_778
10
6.446347
20
6.2721421
40
2.0249933
50
222.5598488
51
224.8934279
0
ARC
8
DEFAULT_255_2_778
10
8.4878683
20
8.2901144
40
4.8955277
50
224.7610311
51
225.4716961
0
ARC
8
DEFAULT_255_2_778
10
4.2164923
20
3.9349309
40
1.2046861
50
33.1658941
51
45.9016995
0
ARC
8
DEFAULT_255_2_778
10
3.77655
20
3.6861674
40
1.7093551
50
31.3135641
51
32.0784895
0
ARC
8
DEFAULT_255_2_778
10
4.6369529
20
4.1665696
40
0.7255378
50
1.8927262
51
34.2165581
0
ARC
8
DEFAULT_255_2_778
10
4.7688212
20
4.190598
40
0.5932737
50
357.2730814
51
359.9937125
0
ARC
8
DEFAULT_255_2_778
10
4.8205865
20
4.4581144
40
0.616415
50
325.8923016
51
331.3291506
0
ARC
8
DEFAULT_255_2_778
10
5.0933965
20
4.2722021
40
0.2862836
50
315.3332103
51
326.0832915
0
ARC
8
DEFAULT_255_2_778
10
5.0921997
20
4.2791535
40
0.2920504
50
306.3872632
51
314.5283217
0
ARC
8
DEFAULT_255_2_778
10
4.8880464
20
4.5452107
40
0.627379
50
306.6562378
51
306.9820733
0
ARC
8
DEFAULT_255_2_778
10
6.329404
20
2.5557867
40
1.8293786
50
125.6724932
51
127.6414846
0
ARC
8
DEFAULT_255_2_778
10
5.6598992
20
3.4374262
40
0.7224227
50
128.2988141
51
130.4374577
0
ARC
8
DEFAULT_255_2_778
10
5.2410675
20
3.972113
40
0.0520031
50
163.0514961
51
177.0685264
0
ARC
8
DEFAULT_255_2_778
10
5.2414396
20
3.9720927
40
0.0523758
50
177.0671497
51
179.994304
0
ARC
8
DEFAULT_255_2_778
10
5.2402752
20
3.9719588
40
0.0512116
50
179.8444146
51
219.083168
0
ARC
8
DEFAULT_255_2_778
10
5.2407206
20
3.9726325
40
0.0519827
50
219.3500501
51
269.8418619
0
ARC
8
DEFAULT_255_2_778
10
5.2405791
20
3.9713129
40
0.050663
50
269.9978153
51
275.3729496
0
ARC
8
DEFAULT_255_2_778
10
5.2528853
20
4.4183714
40
0.4975564
50
269.1291438
51
281.3940956
0
ARC
8
DEFAULT_255_2_778
10
5.3143297
20
4.1314905
40
0.2042217
50
280.3957422
51
310.9055156
0
ARC
8
DEFAULT_255_2_778
10
5.2338503
20
4.18677
40
0.299714
50
315.6188854
51
341.5553401
0
ARC
8
DEFAULT_255_2_778
10
8.3763361
20
2.9767531
40
3.0680248
50
156.8173557
51
158.6854267
0
ARC
8
DEFAULT_255_2_778
10
6.2652006
20
3.8722992
40
0.7748496
50
150.9815046
51
156.2374694
0
ARC
8
DEFAULT_255_2_778
10
6.2404253
20
3.8703752
40
0.7542424
50
144.8582319
51
149.9406739
0
ARC
8
DEFAULT_255_2_778
10
15.5470544
20
-2.5599628
40
12.0662706
50
145.117005
51
145.3265623
0
ARC
8
DEFAULT_255_2_778
10
4.4279338
20
5.19415
40
1.4895819
50
325.0472132
51
327.1341013
0
ARC
8
DEFAULT_255_2_778
10
5.3420698
20
4.6134155
40
0.4066944
50
325.9654687
51
339.5241806
0
ARC
8
DEFAULT_255_2_778
10
5.5911707
20
4.5183822
40
0.1401007
50
340.2973898
51
358.8187825
0
ARC
8
DEFAULT_255_2_778
10
5.6496395
20
4.5164915
40
0.0816081
50
359.2997376
51
56.3313085
0
ARC
8
DEFAULT_255_2_778
10
5.5919576
20
4.4379736
40
0.1789895
50
54.898117
51
72.1029019
0
ARC
8
DEFAULT_255_2_778
10
5.5522333
20
4.3327498
40
0.2913804
50
71.0280549
51
73.3905927
0
ARC
8
DEFAULT_255_2_778
10
5.7099324
20
4.8853491
40
0.2833222
50
211.9853605
51
254.773752
0
ARC
8
DEFAULT_255_2_778
10
-4.7867618
20
-1.3904025
40
11.9464357
50
30.847963
51
30.8726551
0
ARC
8
DEFAULT_255_2_778
10
-9.8251695
20
-4.4019008
40
17.8162462
50
30.8708291
51
30.8869931
0
ARC
8
DEFAULT_255_2_778
10
-7.6381937
20
-3.093784
40
15.2679069
50
30.8872733
51
30.9056899
0
ARC
8
DEFAULT_255_2_778
10
-8.028816
20
-3.3277911
40
15.7232585
50
30.9062269
51
30.9236902
0
ARC
8
DEFAULT_255_2_778
10
-8.534623
20
-3.6313308
40
16.313154
50
30.9253063
51
30.9417451
0
ARC
8
DEFAULT_255_2_778
10
-3.9383123
20
-0.8751204
40
10.9537915
50
30.9380441
51
30.9619574
0
ARC
8
DEFAULT_255_2_778
10
-10.0954912
20
-4.5681991
40
18.1336023
50
30.959341
51
30.9734524
0
ARC
8
DEFAULT_255_2_778
10
-7.855726
20
-3.2231668
40
15.521006
50
30.9713709
51
30.9901459
0
ARC
8
DEFAULT_255_2_778
10
-9.4470231
20
-4.1787963
40
17.3771994
50
30.9897338
51
31.0060573
0
ARC
8
DEFAULT_255_2_778
10
-6.0719012
20
-2.1492899
40
13.4388821
50
31.0022463
51
31.0242535
0
ARC
8
DEFAULT_255_2_778
10
-10.3656151
20
-4.7304382
40
18.4487029
50
31.0209277
51
31.0370239
0
ARC
8
DEFAULT_255_2_778
10
-13.7546823
20
-6.7706013
40
22.4044633
50
31.0388302
51
31.0521149
0
ARC
8
DEFAULT_255_2_778
10
-7.9558631
20
-3.2779749
40
15.635066
50
31.0484678
51
31.0669423
0
ARC
8
DEFAULT_255_2_778
10
-9.6594798
20
-4.3023371
40
17.6229356
50
31.0614143
51
31.0773248
0
ARC
8
DEFAULT_255_2_778
10
179.7627441
20
109.992303
40
203.6100746
50
211.0893013
51
211.1086729
0
ARC
8
DEFAULT_255_2_778
10
8.3216177
20
6.6283003
40
3.4197392
50
209.7709945
51
211.2649155
0
ARC
8
DEFAULT_255_2_778
10
6.3063472
20
5.4732795
40
1.0969441
50
206.7341917
51
209.6703906
0
ARC
8
DEFAULT_255_2_778
10
6.1050174
20
5.3695727
40
0.8704857
50
202.8859209
51
206.5991158
0
ARC
8
DEFAULT_255_2_778
10
6.6092315
20
5.5785611
40
1.416288
50
199.761389
51
202.7422809
0
ARC
8
DEFAULT_255_2_778
10
8.3033892
20
6.1970305
40
3.2197951
50
199.094989
51
199.9259177
0
ARC
8
DEFAULT_255_2_778
10
11.7994951
20
7.4086641
40
6.9199048
50
198.649135
51
199.1054799
0
ARC
8
DEFAULT_255_2_778
10
4.5458947
20
4.9358696
40
0.7439423
50
20.4563307
51
52.9698325
0
ARC
8
DEFAULT_255_2_778
10
6.2629554
20
6.10301
40
1.3924957
50
186.1689114
51
204.3092776
0
ARC
8
DEFAULT_255_2_778
10
14.3356782
20
4.1461273
40
9.843304
50
165.7969006
51
165.826357
0
ARC
8
DEFAULT_255_2_778
10
13.2083723
20
4.4313594
40
8.680473
50
165.7626087
51
165.7963563
0
ARC
8
DEFAULT_255_2_778
10
15.9098156
20
3.7459171
40
11.4675194
50
165.7372361
51
165.7626286
0
ARC
8
DEFAULT_255_2_778
10
13.3458827
20
4.3973161
40
8.8221323
50
165.7023866
51
165.7349381
0
ARC
8
DEFAULT_255_2_778
10
14.3995761
20
4.1296129
40
9.9093004
50
165.6784726
51
165.7070546
0
ARC
8
DEFAULT_255_2_778
10
14.8903374
20
4.0042153
40
10.4158289
50
165.6510789
51
165.6778988
0
ARC
8
DEFAULT_255_2_778
10
14.5646787
20
4.0879104
40
10.0795876
50
165.6258871
51
165.6532238
0
ARC
8
DEFAULT_255_2_778
10
15.1469083
20
3.9394236
40
10.6804529
50
165.6042013
51
165.6296497
0
ARC
8
DEFAULT_255_2_778
10
15.8515024
20
3.7585955
40
11.407881
50
165.5808235
51
165.6043267
0
ARC
8
DEFAULT_255_2_778
10
15.4985038
20
3.849713
40
11.0433124
50
165.5586653
51
165.5826172
0
ARC
8
DEFAULT_255_2_778
10
-3062.7326759
20
802.8149043
40
3169.1850912
50
345.4493781
51
345.451799
0
ARC
8
DEFAULT_255_2_778
10
2.0197044
20
7.4754795
40
2.9141246
50
345.2472817
51
348.0139629
0
ARC
8
DEFAULT_255_2_778
10
4.0166799
20
7.0578157
40
0.8739707
50
347.6100893
51
358.2532261
0
ARC
8
DEFAULT_255_2_778
10
4.2498578
20
7.0432589
40
0.6405008
50
358.9189795
51
359.9982436
0
ARC
8
DEFAULT_255_2_778
10
4.2198495
20
7.0405451
40
0.6705144
50
0.2302229
51
14.271331
0
ARC
8
DEFAULT_255_2_778
10
3.7629546
20
6.9277867
40
1.1411109
50
14.103
51
20.511591
0
ARC
8
DEFAULT_255_2_778
10
2.8805363
20
6.6040443
40
2.0810319
50
20.3469723
51
23.5161652
0
ARC
8
DEFAULT_255_2_778
10
1.9481159
20
6.2060351
40
3.0948293
50
23.3849172
51
24.1796167
0
ARC
8
DEFAULT_255_2_778
10
5.4365012
20
7.7743344
40
0.7298812
50
179.9893943
51
204.3263019
0
ARC
8
DEFAULT_255_2_778
10
5.4965285
20
7.7743943
40
0.7899084
50
179.8419988
51
179.9945381
0
ARC
8
DEFAULT_255_2_778
10
6.6448779
20
7.6159842
40
1.944896
50
157.1261345
51
175.2637467
0
ARC
8
DEFAULT_255_2_778
10
5.0850696
20
8.3075308
40
0.2409247
50
120.3808152
51
164.4858346
0
ARC
8
DEFAULT_255_2_778
10
6.1218595
20
8.8374343
40
1.2025648
50
195.5341351
51
199.5960405
0
ARC
8
DEFAULT_255_2_778
10
7.2000067
20
9.2175781
40
2.3457638
50
199.5112871
51
202.897875
0
ARC
8
DEFAULT_255_2_778
10
7.643065
20
9.3992003
40
2.8245809
50
202.7948463
51
203.7977747
0
ARC
8
DEFAULT_255_2_778
10
7.3872873
20
9.2822757
40
2.5433731
50
203.7127483
51
207.469178
0
ARC
8
DEFAULT_255_2_778
10
6.4144625
20
8.7742134
40
1.4458723
50
207.3880765
51
211.7180151
0
ARC
8
DEFAULT_255_2_778
10
5.7122323
20
8.3382097
40
0.6193012
50
211.5612089
51
218.0889891
0
ARC
8
DEFAULT_255_2_778
10
5.4174637
20
8.1079033
40
0.2452308
50
218.2232833
51
225.8409719
0
ARC
8
DEFAULT_255_2_778
10
5.8691804
20
7.9244539
40
0.6226027
50
179.308071
51
179.9984089
0
ARC
8
DEFAULT_255_2_778
10
5.8742952
20
7.9247724
40
0.6277175
50
180.027494
51
197.4369928
0
ARC
8
DEFAULT_255_2_778
10
9.4827424
20
9.5527872
40
4.5825548
50
203.3477331
51
207.4083637
0
ARC
8
DEFAULT_255_2_778
10
-23.1278507
20
-6.9376026
40
31.9606198
50
26.7323597
51
26.7409264
0
ARC
8
DEFAULT_255_2_778
10
2.9748781
20
6.1114205
40
2.779431
50
17.5510382
51
28.5324795
0
ARC
8
DEFAULT_255_2_778
10
5.3900463
20
6.8806905
40
0.244769
50
3.2561373
51
16.3447626
0
ARC
8
DEFAULT_255_2_778
10
5.4373849
20
6.8849426
40
0.1972715
50
0.0084291
51
2.804099
0
ARC
8
DEFAULT_255_2_778
10
5.4152056
20
6.8878012
40
0.2194689
50
338.9317887
51
359.2612725
0
ARC
8
DEFAULT_255_2_778
10
4.1010357
20
7.3796441
40
1.6226538
50
337.4145696
51
339.406779
0
ARC
8
DEFAULT_255_2_778
10
6.2549872
20
6.493411
40
0.706531
50
158.142958
51
160.4899632
0
ARC
8
DEFAULT_255_2_778
10
6.2791279
20
6.6354296
40
0.6964696
50
172.2480623
51
179.3093309
0
ARC
8
DEFAULT_255_2_778
10
6.2816529
20
6.6353648
40
0.6989953
50
179.3065105
51
179.9999758
0
ARC
8
DEFAULT_255_2_778
10
6.2848743
20
6.6354727
40
0.7022167
50
180.0087816
51
190.7682623
0
ARC
8
DEFAULT_255_2_778
10
4.4629345
20
6.7658767
40
1.2037595
50
340.283694
51
346.4367458
0
ARC
8
DEFAULT_255_2_778
10
5.6869918
20
6.3860189
40
0.0945832
50
196.1107487
51
245.4696263
0
ARC
8
DEFAULT_255_2_778
10
5.6315098
20
6.3549726
40
0.05734
50
286.4248301
51
316.6959614
0
ARC
8
DEFAULT_255_2_778
10
5.5560395
20
6.4358347
40
0.167872
50
314.277945
51
323.7743748
0
ARC
8
DEFAULT_255_2_778
10
5.3419683
20
6.5871387
40
0.4300012
50
324.3676693
51
335.2796064
0
ARC
8
DEFAULT_255_2_778
10
5.0560486
20
6.7275925
40
0.7484983
50
334.6661624
51
340.57275
0
ARC
8
DEFAULT_255_2_778
10
5.1855392
20
6.6873488
40
0.6130162
50
340.0944498
51
349.4889294
0
ARC
8
DEFAULT_255_2_778
10
5.5447986
20
6.6202761
40
0.2475499
50
349.5836095
51
359.1246389
0
ARC
8
DEFAULT_255_2_778
10
5.6579108
20
6.616577
40
0.1344089
50
359.9647251
51
2.1726532
0
ARC
8
DEFAULT_255_2_778
10
3.9918307
20
6.5495803
40
1.8018352
50
2.2930428
51
17.5156713
0
ARC
8
DEFAULT_255_2_778
10
10.0056603
20
7.9344604
40
4.3773958
50
189.7379023
51
191.0979054
0
ARC
8
DEFAULT_255_2_778
10
10.8511672
20
8.0765359
40
5.2347521
50
188.3913496
51
189.7052667
0
ARC
8
DEFAULT_255_2_778
10
30.803523
20
10.9823323
40
25.397586
50
188.0227952
51
188.307806
0
ARC
8
DEFAULT_255_2_778
10
-3.3439847
20
6.1446372
40
9.0909231
50
8.1770763
51
8.2268294
0
ARC
8
DEFAULT_255_2_778
10
2.6610257
20
7.0274576
40
3.0214178
50
7.9525378
51
10.4836303
0
ARC
8
DEFAULT_255_2_778
10
4.0150832
20
7.2707835
40
1.6457048
50
10.7312702
51
12.2368844
0
ARC
8
DEFAULT_255_2_778
10
4.3495823
20
7.3457445
40
1.3029194
50
12.1331288
51
20.5447274
0
ARC
8
DEFAULT_255_2_778
10
4.0474008
20
7.2293154
40
1.626744
50
20.6495774
51
25.7735317
0
ARC
8
DEFAULT_255_2_778
10
3.2977245
20
6.869102
40
2.4584691
50
25.7364445
51
29.1498812
0
ARC
8
DEFAULT_255_2_778
10
2.5128742
20
6.4387086
40
3.353566
50
29.0402986
51
30.0213268
0
ARC
8
DEFAULT_255_2_778
10
3.204367
20
8.2393599
40
2.0805268
50
6.5718005
51
8.7921716
0
ARC
8
DEFAULT_255_2_778
10
3.3897441
20
8.2697044
40
1.8926907
50
8.7421374
51
12.6890911
0
ARC
8
DEFAULT_255_2_778
10
3.7581465
20
8.352433
40
1.5151138
50
12.6972349
51
16.4191851
0
ARC
8
DEFAULT_255_2_778
10
4.4388267
20
8.5760356
40
0.7992931
50
14.8361396
51
36.1225736
0
ARC
8
DEFAULT_255_2_778
10
4.8403135
20
8.8656735
40
0.3042555
50
36.6357766
51
70.6104341
0
ARC
8
DEFAULT_255_2_778
10
4.81176
20
8.7383751
40
0.4340841
50
72.6339887
51
79.1166384
0
ARC
8
DEFAULT_255_2_778
10
5.0498999
20
10.0026087
40
0.8523877
50
253.339674
51
259.4422237
0
ARC
8
DEFAULT_255_2_778
10
4.988635
20
9.7741613
40
0.6160031
50
252.3755007
51
252.7069802
0
ARC
8
DEFAULT_255_2_778
10
4.9551698
20
9.6824049
40
0.5184375
50
236.9485046
51
252.8300151
0
ARC
8
DEFAULT_255_2_778
10
4.8376866
20
9.505945
40
0.3064659
50
202.2944646
51
237.3658274
0
ARC
8
DEFAULT_255_2_778
10
4.8969147
20
9.5217781
40
0.3673562
50
179.0724656
51
201.074764
0
ARC
8
DEFAULT_255_2_778
10
5.2084792
20
9.5182065
40
0.6789392
50
165.9618452
51
179.1967202
0
ARC
8
DEFAULT_255_2_778
10
5.7147627
20
9.4028973
40
1.1981225
50
161.5047703
51
166.4851497
0
ARC
8
DEFAULT_255_2_778
10
3.6231436
20
10.0964362
40
1.0054896
50
341.835138
51
347.8492572
0
ARC
8
DEFAULT_255_2_778
10
3.9799309
20
10.0233947
40
0.6413319
50
347.5193254
51
359.3916185
0
ARC
8
DEFAULT_255_2_778
10
4.3576796
20
10.0392986
40
0.2645242
50
355.0741881
51
62.2128419
0
ARC
8
DEFAULT_255_2_778
10
4.3093946
20
9.9210335
40
0.3918582
50
64.0286758
51
82.698797
0
ARC
8
DEFAULT_255_2_778
10
4.2750935
20
9.7268822
40
0.5888686
50
81.7890983
51
85.1849259
0
ARC
8
DEFAULT_255_2_778
10
4.2942632
20
9.9560914
40
0.3588592
50
85.1629391
51
89.929837
0
ARC
8
DEFAULT_255_2_778
10
4.2917388
20
10.0704902
40
0.2444782
50
89.3053587
51
162.5575709
0
ARC
8
DEFAULT_255_2_778
10
4.975139
20
9.7677516
40
0.9907646
50
157.6957147
51
167.862244
0
ARC
8
DEFAULT_255_2_778
10
4.7903747
20
9.9888167
40
0.7839552
50
180.9314544
51
182.6182462
0
ARC
8
DEFAULT_255_2_778
10
6.7720268
20
10.0682041
40
2.7671878
50
182.385941
51
183.5105602
0
ARC
8
DEFAULT_255_2_778
10
6.7088283
20
10.0597284
40
2.7035928
50
183.4132864
51
186.1136543
0
ARC
8
DEFAULT_255_2_778
10
5.170275
20
9.8866395
40
1.1553853
50
185.7046811
51
192.0429413
0
ARC
8
DEFAULT_255_2_778
10
4.3070154
20
9.7002365
40
0.2722415
50
191.5828791
51
204.0021603
0
ARC
8
DEFAULT_255_2_778
10
4.1332165
20
9.6255114
40
0.0831104
50
205.6795162
51
213.8869748
0
ARC
8
DEFAULT_255_2_778
10
4.363641
20
9.9861412
40
0.5052471
50
233.6570719
51
240.2361031
0
ARC
8
DEFAULT_255_2_778
10
3.5337955
20
8.5416241
40
1.1606695
50
58.6757539
51
60.074503
0
ARC
8
DEFAULT_255_2_778
10
4.0884786
20
9.4382076
40
0.1066832
50
6.9396541
51
62.8230683
0
ARC
8
DEFAULT_255_2_778
10
3.856789
20
9.395941
40
0.3420673
50
359.1535202
51
9.2791398
0
ARC
8
DEFAULT_255_2_778
10
3.4981134
20
9.3915882
40
0.7007059
50
357.9787906
51
359.9427069
0
ARC
8
DEFAULT_255_2_778
10
3.3739622
20
9.395179
40
0.8249069
50
357.9153733
51
358.0336755
0
ARC
8
DEFAULT_255_2_778
10
3.9140355
20
9.3756354
40
0.2844801
50
284.1382137
51
357.8922417
0
ARC
8
DEFAULT_255_2_778
10
5.3510416
20
5.1949407
40
4.1373685
50
109.3008604
51
110.243962
0
ARC
8
DEFAULT_255_2_778
10
4.5584199
20
7.3547896
40
1.8366804
50
110.3589871
51
111.0181605
0
ARC
8
DEFAULT_255_2_778
10
4.0701212
20
8.5612573
40
0.5358457
50
108.5480167
51
128.6715426
0
ARC
8
DEFAULT_255_2_778
10
3.9767211
20
8.7101053
40
0.3618304
50
131.8539746
51
158.4503503
0
ARC
8
DEFAULT_255_2_778
10
4.2646944
20
8.5778181
40
0.6784841
50
156.9921784
51
162.0806698
0
ARC
8
DEFAULT_255_2_778
10
4.5221785
20
8.5169985
40
0.9424326
50
163.3789397
51
179.9987835
0
ARC
8
DEFAULT_255_2_778
10
4.5217025
20
8.5170147
40
0.9419566
50
179.9997673
51
181.3895438
0
ARC
8
DEFAULT_255_2_778
10
7.9470135
20
6.568676
40
4.7678567
50
156.3371724
51
162.1244432
0
ARC
8
DEFAULT_255_2_778
10
4.0150768
20
7.4469005
40
0.842307
50
135.9851991
51
148.5330262
0
ARC
8
DEFAULT_255_2_778
10
5.1556874
20
6.7450376
40
2.1815604
50
148.4479043
51
154.9385675
0
ARC
8
DEFAULT_255_2_778
10
11.3679047
20
3.7646709
40
9.0716336
50
154.5068959
51
155.4930151
0
LINE
8
DEFAULT_255_2_778
10
3.1135281
20
7.5276224
11
3.1109425
21
7.5219923
0
ARC
8
DEFAULT_255_2_778
10
-0.4626149
20
9.0978514
40
3.9055914
50
331.1615315
51
336.2035905
0
ARC
8
DEFAULT_255_2_778
10
2.0358329
20
7.7269777
40
1.0557723
50
319.6457096
51
330.931212
0
ARC
8
DEFAULT_255_2_778
10
2.3803082
20
7.4453562
40
0.6109682
50
313.3904899
51
318.8541176
0
ARC
8
DEFAULT_255_2_778
10
0.794321
20
9.1214156
40
2.9184625
50
313.3379924
51
313.4125098
0
ARC
8
DEFAULT_255_2_778
10
0.5436541
20
9.3872276
40
3.2838253
50
313.2692185
51
313.3360296
0
ARC
8
DEFAULT_255_2_778
10
0.5346726
20
9.3972009
40
3.2972434
50
313.1970599
51
313.2640721
0
ARC
8
DEFAULT_255_2_778
10
0.3537581
20
9.5903397
40
3.5618801
50
313.1314528
51
313.1919442
0
ARC
8
DEFAULT_255_2_778
10
0.0740151
20
9.88949
40
3.9714495
50
313.0732238
51
313.1261356
0
ARC
8
DEFAULT_255_2_778
10
0.2020888
20
9.7528314
40
3.7841572
50
313.0156235
51
313.0697889
0
ARC
8
DEFAULT_255_2_778
10
0.293028
20
9.6557361
40
3.6511256
50
312.9568761
51
313.0116424
0
ARC
8
DEFAULT_255_2_778
10
0.4310791
20
9.5069895
40
3.4481883
50
312.9057478
51
312.962327
0
ARC
8
DEFAULT_255_2_778
10
0.0530167
20
9.9129172
40
4.0029029
50
312.8663158
51
312.9138755
0
ARC
8
DEFAULT_255_2_778
10
-0.4845727
20
10.4922777
40
4.7932577
50
312.8262289
51
312.864991
0
ARC
8
DEFAULT_255_2_778
10
-1.5269795
20
11.6179699
40
6.3274658
50
312.7912376
51
312.8198985
0
ARC
8
DEFAULT_255_2_778
10
-1.400232
20
11.4816707
40
6.1413418
50
312.7584962
51
312.7873227
0
ARC
8
DEFAULT_255_2_778
10
-0.1581382
20
10.1378656
40
4.3114213
50
312.7230555
51
312.7631447
0
ARC
8
DEFAULT_255_2_778
10
5.4614844
20
4.0157323
40
3.9988951
50
132.3622004
51
133.5255769
0
ARC
8
DEFAULT_255_2_778
10
3.0285403
20
6.5723123
40
0.4696996
50
133.1125034
51
141.3859834
0
ARC
8
DEFAULT_255_2_778
10
2.7995962
20
6.7538073
40
0.1775477
50
141.0429511
51
181.6796509
0
ARC
8
DEFAULT_255_2_778
10
2.9020328
20
6.7474441
40
0.2799103
50
179.7627518
51
180.0002861
0
ARC
8
DEFAULT_255_2_778
10
3.02447
20
6.7510517
40
0.4023637
50
180.5139282
51
188.5862447
0
ARC
8
DEFAULT_255_2_778
10
3.4734623
20
6.8158218
40
0.8559991
50
188.3861436
51
192.5867511
0
ARC
8
DEFAULT_255_2_778
10
4.1135188
20
6.9530789
40
1.5105941
50
192.3773377
51
193.639108
0
ARC
8
DEFAULT_255_2_778
10
2.9300232
20
6.8014286
40
0.3504048
50
215.7162012
51
238.8418459
0
ARC
8
DEFAULT_255_2_778
10
2.7271946
20
6.627263
40
0.1275208
50
279.7193966
51
322.6919058
0
LINE
8
DEFAULT_255_2_778
10
4.1480231
20
4.8801725
11
4.1517231
21
3.9406725
0
LINE
8
DEFAULT_255_2_778
10
4.1517231
20
3.9406725
11
4.0692231
21
3.5284725
0
LINE
8
DEFAULT_255_2_778
10
4.5327231
20
5.0407725
11
4.5883231
21
5.5794725
0
LINE
8
DEFAULT_255_2_778
10
4.8785231
20
5.9533725
11
4.7920231
21
6.5563725
0
LINE
8
DEFAULT_255_2_778
10
5.5950231
20
6.5042725
11
5.6331231
21
6.4835725
0
LINE
8
DEFAULT_255_2_778
10
5.4165231
20
8.1165725
11
5.2712231
21
8.4774725
0
LINE
8
DEFAULT_255_2_778
10
3.5800231
20
8.4941725
11
3.5800231
21
8.4822725
0
LINE
8
DEFAULT_255_2_778
10
2.8286231
20
6.5499725
11
2.8267231
21
6.5497725
0
ENDSEC
0
EOF