0
SECTION
2
HEADER
9
$MEASUREMENT
70
1
0
ENDSEC
0
SECTION
2
TABLES
0
TABLE
2
LTYPE
0
LTYPE
72
65
70
64
2
CONTINUOUS
3
______
73
0
40
0
0
ENDTAB
0
TABLE
2
LAYER
0
LAYER
2
DEFAULT_255_2_778
70
0
62
255
6
CONTINUOUS
0
ENDTAB
0
ENDSEC
0
SECTION
2
ENTITIES
0
ARC
8
DEFAULT_255_2_778
10
4.7056093
20
0.9674762
40
1.5754256
50
176.7432482
51
202.3230116
0
ARC
8
DEFAULT_255_2_778
10
4.1472942
20
0.7916557
40
0.9934006
50
205.1745278
51
206.5854687
0
ARC
8
DEFAULT_255_2_778
10
3.6155801
20
0.5463816
40
0.4085621
50
209.1973888
51
245.850282
0
ARC
8
DEFAULT_255_2_778
10
3.8168452
20
0.9872133
40
0.8931604
50
245.6388333
51
272.1690837
0
ARC
8
DEFAULT_255_2_778
10
3.8585281
20
2.03415
40
1.9394731
50
269.7672678
51
269.9999991
0
ARC
8
DEFAULT_255_2_778
10
4.1663731
20
5.0634579
40
4.9783083
50
266.4547232
51
269.8465026
0
ARC
8
DEFAULT_255_2_778
10
4.1747871
20
2.9830234
40
2.8979376
50
269.5699513
51
279.695372
0
ARC
8
DEFAULT_255_2_778
10
4.6700315
20
0.184377
40
0.0583465
50
262.908258
51
313.8170517
0
ARC
8
DEFAULT_255_2_778
10
4.619165
20
0.5971278
40
0.4639163
50
281.3454084
51
300.9331539
0
ARC
8
DEFAULT_255_2_778
10
4.7136526
20
0.414731
40
0.259204
50
303.7438588
51
356.7596029
0
ARC
8
DEFAULT_255_2_778
10
4.2030562
20
0.4988385
40
0.7756985
50
352.6854566
51
0.4755645
0
ARC
8
DEFAULT_255_2_778
10
4.6581571
20
0.5670427
40
0.8268026
50
323.8556651
51
3.3721953
0
ARC
8
DEFAULT_255_2_778
10
4.8699673
20
0.5101834
40
0.6272188
50
278.5140362
51
316.6185548
0
ARC
8
DEFAULT_255_2_778
10
4.1545317
20
3.8510899
40
4.0428396
50
273.2221556
51
281.5330309
0
ARC
8
DEFAULT_255_2_778
10
4.0735472
20
5.0212419
40
5.2157155
50
269.9500717
51
273.3878695
0
ARC
8
DEFAULT_255_2_778
10
4.0723069
20
5.9543036
40
6.1487763
50
267.5655409
51
269.9692056
0
ARC
8
DEFAULT_255_2_778
10
7.9298372
20
48.8399759
40
49.2015925
50
265.1959858
51
265.1980999
0
ARC
8
DEFAULT_255_2_778
10
3.969065
20
2.752375
40
2.9454813
50
256.3673721
51
266.8910807
0
ARC
8
DEFAULT_255_2_778
10
3.4614085
20
0.7277078
40
0.8583549
50
236.7825315
51
257.4454034
0
ARC
8
DEFAULT_255_2_778
10
3.3903354
20
0.5897808
40
0.7042143
50
192.200322
51
235.4725525
0
ARC
8
DEFAULT_255_2_778
10
3.6935701
20
0.6891611
40
1.022137
50
191.2657303
51
194.053432
0
ARC
8
DEFAULT_255_2_778
10
5.2908489
20
1.0956228
40
2.6694496
50
180.0000645
51
193.1245012
0
ARC
8
DEFAULT_255_2_778
10
5.2901365
20
1.0956318
40
2.6687373
50
178.4378939
51
180.0002561
0
ARC
8
DEFAULT_255_2_778
10
5.2911828
20
1.0956092
40
2.6697837
50
176.0853396
51
178.4380215
0
ARC
8
DEFAULT_255_2_778
10
6.1963176
20
0.9743217
40
3.5815765
50
165.9143612
51
175.138086
0
ARC
8
DEFAULT_255_2_778
10
3.4733206
20
1.6795757
40
0.7691092
50
144.8093178
51
167.5049248
0
ARC
8
DEFAULT_255_2_778
10
3.418048
20
1.6914842
40
0.7174164
50
105.001618
51
143.0423238
0
ARC
8
DEFAULT_255_2_778
10
3.5705001
20
1.2647005
40
1.1696949
50
100.6949492
51
106.8037705
0
ARC
8
DEFAULT_255_2_778
10
3.9311179
20
-0.5014833
40
2.972241
50
89.2660757
51
101.2074374
0
ARC
8
DEFAULT_255_2_778
10
3.9525999
20
-3.7164592
40
6.1869953
50
87.0371083
51
89.8463693
0
ARC
8
DEFAULT_255_2_778
10
3.8191731
20
-6.7642245
40
9.2376152
50
87.1143031
51
87.1877537
0
ARC
8
DEFAULT_255_2_778
10
3.8228851
20
-4.1389108
40
6.6166906
50
83.1261187
51
86.0018579
0
ARC
8
DEFAULT_255_2_778
10
4.2828962
20
-0.2371357
40
2.6879249
50
77.0835466
51
82.9070617
0
ARC
8
DEFAULT_255_2_778
10
4.740634
20
1.664126
40
0.7327585
50
49.760746
51
78.7388406
0
ARC
8
DEFAULT_255_2_778
10
4.7894689
20
1.7503238
40
0.6356791
50
14.7788106
51
48.1017158
0
ARC
8
DEFAULT_255_2_778
10
4.5834322
20
1.6797309
40
0.8530516
50
11.2721789
51
15.8333706
0
ARC
8
DEFAULT_255_2_778
10
3.1772535
20
1.3294347
40
2.3016017
50
3.0519911
51
12.9819732
0
ARC
8
DEFAULT_255_2_778
10
-0.9915936
20
1.124523
40
6.4754689
50
359.4067565
51
2.8985899
0
ARC
8
DEFAULT_255_2_778
10
3.0312701
20
1.3539562
40
1.96336
50
0.0823127
51
12.6157568
0
ARC
8
DEFAULT_255_2_778
10
4.4906332
20
1.6837965
40
0.4672002
50
12.2312828
51
42.3215552
0
ARC
8
DEFAULT_255_2_778
10
4.5484836
20
1.709727
40
0.4074484
50
45.1038165
51
82.3866997
0
ARC
8
DEFAULT_255_2_778
10
4.5001976
20
1.5129462
40
0.6092814
50
80.3372145
51
80.5600616
0
ARC
8
DEFAULT_255_2_778
10
4.0965707
20
-0.5243855
40
2.6859869
50
79.1944916
51
89.9930703
0
LINE
8
DEFAULT_255_2_778
10
4.0968955
20
2.1616014
11
4.0952906
21
2.1616018
0
ARC
8
DEFAULT_255_2_778
10
4.0939905
20
-0.5233424
40
2.6849445
50
89.9722571
51
100.8076907
0
ARC
8
DEFAULT_255_2_778
10
3.6442692
20
1.6452704
40
0.4717773
50
96.5408705
51
147.1336786
0
ARC
8
DEFAULT_255_2_778
10
3.6328256
20
1.6768472
40
0.4454926
50
149.7470079
51
150.9631478
0
ARC
8
DEFAULT_255_2_778
10
4.2421315
20
1.4072757
40
1.1106804
50
154.0624951
51
183.0607148
0
ARC
8
DEFAULT_255_2_778
10
6.444935
20
1.3409702
40
3.3119069
50
179.8788707
51
180.0016149
0
LINE
8
DEFAULT_255_2_778
10
5.4835281
20
1.0569768
11
3.1327281
21
1.0569768
0
LINE
8
DEFAULT_255_2_778
10
4.9787281
20
0.5052768
11
4.9787281
21
0.6156768
0
LINE
8
DEFAULT_255_2_778
10
4.9787281
20
0.6156768
11
5.4835281
21
0.6156768
0
LINE
8
DEFAULT_255_2_778
10
5.4835281
20
1.0574768
11
5.4835281
21
1.0569768
0
LINE
8
DEFAULT_255_2_778
10
3.1330281
20
1.3408768
11
4.9946281
21
1.3567768
0
LINE
8
DEFAULT_255_2_778
10
4.9946281
20
1.3567768
11
4.9946281
21
1.3567768
0
ARC
8
DEFAULT_255_2_778
10
7.8123456
20
0.6340909
40
0.6534559
50
180.268784
51
190.0375639
0
ARC
8
DEFAULT_255_2_778
10
10.6719355
20
1.1569526
40
3.5604457
50
190.3022819
51
192.108093
0
ARC
8
DEFAULT_255_2_778
10
7.5545301
20
0.4710694
40
0.3689021
50
189.5090634
51
256.1687649
0
ARC
8
DEFAULT_255_2_778
10
7.655623
20
0.713917
40
0.6301533
50
252.5197391
51
253.305233
0
ARC
8
DEFAULT_255_2_778
10
7.8086576
20
1.2637174
40
1.2007954
50
253.847226
51
269.8635033
0
ARC
8
DEFAULT_255_2_778
10
7.7790622
20
-13.5976009
40
13.6605525
50
89.2144949
51
89.8878678
0
ARC
8
DEFAULT_255_2_778
10
8.1535989
20
13.7180008
40
13.6576169
50
269.2143862
51
269.8876836
0
ARC
8
DEFAULT_255_2_778
10
8.1487706
20
3.6973324
40
3.6369884
50
269.6542911
51
274.1051875
0
ARC
8
DEFAULT_255_2_778
10
8.2548485
20
2.1274783
40
2.0635787
50
274.2877903
51
279.9157631
0
ARC
8
DEFAULT_255_2_778
10
8.7331957
20
-0.3066343
40
0.4197836
50
99.8371591
51
107.0379543
0
ARC
8
DEFAULT_255_2_778
10
8.4000074
20
1.4821584
40
1.3998175
50
280.7653838
51
281.8967603
0
ARC
8
DEFAULT_255_2_778
10
8.650405
20
0.333722
40
0.2245818
50
279.7863402
51
301.5443623
0
ARC
8
DEFAULT_255_2_778
10
8.6644014
20
0.433083
40
0.3086281
50
289.5932516
51
1.6789389
0
ARC
8
DEFAULT_255_2_778
10
7.0315696
20
0.4657668
40
1.9414713
50
359.3022886
51
3.727236
0
ARC
8
DEFAULT_255_2_778
10
8.34345
20
0.5536888
40
0.6266551
50
3.5027688
51
17.4710254
0
ARC
8
DEFAULT_255_2_778
10
8.7115266
20
0.6813479
40
0.2374995
50
14.7524111
51
80.2622526
0
ARC
8
DEFAULT_255_2_778
10
8.4566026
20
-0.23118
40
1.1839698
50
75.5673714
51
86.6557339
0
ARC
8
DEFAULT_255_2_778
10
8.8095932
20
4.3608155
40
3.4218415
50
263.2027552
51
265.2404774
0
ARC
8
DEFAULT_255_2_778
10
7.9848974
20
5.0626
40
4.0781131
50
258.9308926
51
265.9193567
0
ARC
8
DEFAULT_255_2_778
10
8.0837729
20
5.5813267
40
4.6061736
50
257.2052924
51
258.9626839
0
ARC
8
DEFAULT_255_2_778
10
7.1547979
20
1.4973211
40
0.4178477
50
195.6643566
51
257.4069793
0
ARC
8
DEFAULT_255_2_778
10
7.5196059
20
1.6478363
40
0.8110759
50
193.934042
51
198.9457889
0
ARC
8
DEFAULT_255_2_778
10
7.6791939
20
1.6870082
40
0.9754007
50
179.8579619
51
193.9099341
0
ARC
8
DEFAULT_255_2_778
10
7.8989185
20
1.6815386
40
1.1951483
50
164.3109991
51
179.6218627
0
ARC
8
DEFAULT_255_2_778
10
7.1765066
20
1.8960582
40
0.4417828
50
109.1789706
51
165.7605821
0
ARC
8
DEFAULT_255_2_778
10
7.3726454
20
1.4919624
40
0.8894364
50
104.816369
51
112.5628191
0
ARC
8
DEFAULT_255_2_778
10
7.8640861
20
-0.2769993
40
2.7253478
50
92.3095204
51
105.2944062
0
ARC
8
DEFAULT_255_2_778
10
3.8483493
20
52.9345401
40
50.6392656
50
274.4237358
51
274.4309266
0
ARC
8
DEFAULT_255_2_778
10
8.104333
20
-4.6898627
40
7.1447615
50
90.1545589
51
92.7575769
0
ARC
8
DEFAULT_255_2_778
10
8.0852116
20
-2.6769537
40
5.1318265
50
89.7015904
51
90.0016979
0
ARC
8
DEFAULT_255_2_778
10
8.1437337
20
-0.5966187
40
3.0515874
50
77.5427133
51
90.5969752
0
ARC
8
DEFAULT_255_2_778
10
8.6791702
20
1.5412303
40
0.8508077
50
50.0669482
51
81.6995
0
ARC
8
DEFAULT_255_2_778
10
8.8586514
20
1.8551522
40
0.4989921
50
356.2816559
51
42.7120156
0
ARC
8
DEFAULT_255_2_778
10
8.1802383
20
1.8268792
40
1.1763618
50
354.6612309
51
359.8009134
0
ARC
8
DEFAULT_255_2_778
10
7.5273721
20
1.7196831
40
1.3346268
50
359.9030748
51
0.4864929
0
ARC
8
DEFAULT_255_2_778
10
8.6861107
20
1.7389473
40
0.176019
50
357.4171534
51
24.5659375
0
ARC
8
DEFAULT_255_2_778
10
8.3192973
20
1.8248003
40
0.5270521
50
358.6219839
51
14.7828053
0
ARC
8
DEFAULT_255_2_778
10
8.6323949
20
1.9074272
40
0.2032352
50
14.7818536
51
93.0973218
0
ARC
8
DEFAULT_255_2_778
10
8.5791061
20
1.5378437
40
0.5740829
50
85.773698
51
90.1206768
0
ARC
8
DEFAULT_255_2_778
10
8.0803698
20
-3.4786395
40
5.6126597
50
84.9144126
51
89.9133222
0
ARC
8
DEFAULT_255_2_778
10
8.088341
20
-2.8312415
40
4.9652554
50
89.9940034
51
91.5279337
0
ARC
8
DEFAULT_255_2_778
10
8.0713465
20
-2.3767425
40
4.5104674
50
91.4660765
51
97.4130814
0
ARC
8
DEFAULT_255_2_778
10
7.4970263
20
1.8951075
40
0.2010627
50
92.1746226
51
108.0107793
0
ARC
8
DEFAULT_255_2_778
10
7.5363407
20
1.7487532
40
0.3524889
50
106.7323672
51
116.493467
0
ARC
8
DEFAULT_255_2_778
10
7.4670295
20
1.7859599
40
0.2918284
50
107.536655
51
136.5013251
0
ARC
8
DEFAULT_255_2_778
10
7.4373689
20
1.8444734
40
0.2310881
50
141.9713872
51
180.571831
0
ARC
8
DEFAULT_255_2_778
10
7.7569844
20
1.8125496
40
0.5514879
50
176.9214696
51
180.0752406
0
ARC
8
DEFAULT_255_2_778
10
9.0751962
20
1.7962847
40
1.8697639
50
179.5237766
51
182.6090316
0
ARC
8
DEFAULT_255_2_778
10
7.7639258
20
1.7328688
40
0.5569781
50
182.232472
51
193.0792585
0
ARC
8
DEFAULT_255_2_778
10
7.6167035
20
1.6731852
40
0.4008378
50
189.5293447
51
213.9941755
0
ARC
8
DEFAULT_255_2_778
10
7.4760687
20
1.6020396
40
0.2452482
50
218.5883432
51
257.6645654
0
ARC
8
DEFAULT_255_2_778
10
7.5539549
20
1.8408801
40
0.4958479
50
254.76721
51
258.8297699
0
ARC
8
DEFAULT_255_2_778
10
7.735239
20
2.5381589
40
1.2157893
50
256.8137708
51
268.824489
0
ARC
8
DEFAULT_255_2_778
10
8.0313974
20
-3.8826112
40
5.2027389
50
82.152903
51
85.8865634
0
ARC
8
DEFAULT_255_2_778
10
8.0981129
20
-3.4376682
40
4.7528567
50
78.0405496
51
82.2173097
0
ARC
8
DEFAULT_255_2_778
10
8.9434793
20
0.6910475
40
0.5393358
50
13.3816138
51
75.0079988
0
ARC
8
DEFAULT_255_2_778
10
8.6749542
20
0.5895521
40
0.8248724
50
12.6521683
51
15.9242378
0
ARC
8
DEFAULT_255_2_778
10
8.4745073
20
0.5870628
40
1.0218395
50
359.9213061
51
10.3259544
0
ARC
8
DEFAULT_255_2_778
10
8.2275093
20
0.5962588
40
1.2688806
50
344.1416945
51
359.5213806
0
ARC
8
DEFAULT_255_2_778
10
8.9271343
20
0.388917
40
0.5392885
50
283.3723697
51
345.0205149
0
ARC
8
DEFAULT_255_2_778
10
8.8255415
20
0.6577698
40
0.825163
50
282.6463739
51
285.9186141
0
ARC
8
DEFAULT_255_2_778
10
8.336101
20
2.6713268
40
2.8972584
50
278.231068
51
283.3728095
0
ARC
8
DEFAULT_255_2_778
10
8.1942479
20
3.8441102
40
4.078362
50
269.5219944
51
277.844579
0
ARC
8
DEFAULT_255_2_778
10
8.1875812
20
8.9552823
40
9.189433
50
267.6276402
51
269.8294249
0
ARC
8
DEFAULT_255_2_778
10
8.1842451
20
4.9885373
40
5.2284251
50
262.1720204
51
265.8645214
0
ARC
8
DEFAULT_255_2_778
10
8.1145233
20
4.5210486
40
4.7557995
50
258.037686
51
262.2370832
0
ARC
8
DEFAULT_255_2_778
10
7.3013381
20
0.5425209
40
0.6957301
50
234.7362149
51
255.6407985
0
ARC
8
DEFAULT_255_2_778
10
7.2059634
20
0.3830238
40
0.5106344
50
188.9455136
51
233.1415068
0
ARC
8
DEFAULT_255_2_778
10
7.5728091
20
0.4720804
40
0.887405
50
183.3240832
51
190.9429694
0
ARC
8
DEFAULT_255_2_778
10
7.2225479
20
0.5344024
40
0.5476012
50
180.5508352
51
191.9919023
0
ARC
8
DEFAULT_255_2_778
10
7.0643286
20
0.5300965
40
0.3893578
50
165.7823122
51
180.1410661
0
ARC
8
DEFAULT_255_2_778
10
11.2279658
20
3.0832705
40
3.3055488
50
256.1574301
51
271.6092735
0
ARC
8
DEFAULT_255_2_778
10
10.6097953
20
0.6515344
40
0.7967506
50
233.5952505
51
257.4815914
0
ARC
8
DEFAULT_255_2_778
10
10.5904524
20
0.5916836
40
0.7373702
50
194.4147628
51
232.0446893
0
ARC
8
DEFAULT_255_2_778
10
10.9194114
20
0.7061851
40
1.0848651
50
190.6965855
51
195.9468626
0
ARC
8
DEFAULT_255_2_778
10
12.9258451
20
0.9908465
40
3.1106518
50
185.6481704
51
188.9889588
0
ARC
8
DEFAULT_255_2_778
10
13.7478446
20
1.0620627
40
3.9356825
50
179.8144246
51
185.5021472
0
ARC
8
DEFAULT_255_2_778
10
16.0421793
20
1.059929
40
6.2300145
50
176.8301419
51
179.8631442
0
ARC
8
DEFAULT_255_2_778
10
10.9824547
20
1.3957571
40
1.1607901
50
169.3565443
51
179.5721371
0
ARC
8
DEFAULT_255_2_778
10
14.5106727
20
0.721792
40
4.7527984
50
166.7080098
51
169.2273204
0
ARC
8
DEFAULT_255_2_778
10
10.7887716
20
1.5727418
40
0.9353644
50
143.6174178
51
165.0194347
0
ARC
8
DEFAULT_255_2_778
10
10.6176208
20
1.6808603
40
0.733585
50
105.3168707
51
142.4864925
0
ARC
8
DEFAULT_255_2_778
10
10.7147101
20
1.4015278
40
1.0288338
50
100.2239008
51
106.4225554
0
ARC
8
DEFAULT_255_2_778
10
11.1143523
20
-0.5496794
40
3.0203588
50
93.8651821
51
101.1148845
0
ARC
8
DEFAULT_255_2_778
10
11.3841384
20
-5.3717064
40
7.8498026
50
89.30907
51
93.4573428
0
ARC
8
DEFAULT_255_2_778
10
6.6577487
20
-59.6442216
40
62.3085384
50
85.5605665
51
85.5623726
0
ARC
8
DEFAULT_255_2_778
10
11.3098383
20
-0.9767265
40
3.4583261
50
77.4314352
51
87.1671828
0
ARC
8
DEFAULT_255_2_778
10
11.8852282
20
1.5657829
40
0.8515762
50
57.5155841
51
77.9920146
0
ARC
8
DEFAULT_255_2_778
10
11.9372981
20
1.6820163
40
0.7257998
50
12.6106188
51
56.0548007
0
ARC
8
DEFAULT_255_2_778
10
11.5751288
20
1.5611045
40
1.1063152
50
10.7587774
51
14.6269308
0
ARC
8
DEFAULT_255_2_778
10
9.618299
20
1.2146128
40
3.0935287
50
359.9055092
51
10.2977944
0
ARC
8
DEFAULT_255_2_778
10
9.1565384
20
1.216258
40
3.5552915
50
352.0775923
51
359.8912673
0
ARC
8
DEFAULT_255_2_778
10
9.2266234
20
1.2113401
40
3.4852009
50
345.3812721
51
351.9988629
0
ARC
8
DEFAULT_255_2_778
10
12.0301077
20
0.4736271
40
0.58632
50
316.5830614
51
345.9941497
0
ARC
8
DEFAULT_255_2_778
10
11.9237697
20
0.6132297
40
0.7600377
50
287.8861077
51
314.4478795
0
ARC
8
DEFAULT_255_2_778
10
11.6479082
20
1.3464342
40
1.5429819
50
276.4834927
51
289.272897
0
ARC
8
DEFAULT_255_2_778
10
11.5018099
20
2.6248751
40
2.8297434
50
269.5340357
51
276.499817
0
ARC
8
DEFAULT_255_2_778
10
11.3431714
20
0.3559333
40
0.5768775
50
268.2463462
51
283.5976887
0
LINE
8
DEFAULT_255_2_778
10
11.3255176
20
-0.2206741
11
11.3244353
21
-0.2206744
0
LINE
8
DEFAULT_255_2_778
10
11.3244353
20
-0.2206744
11
11.3210969
21
-0.2206746
0
ARC
8
DEFAULT_255_2_778
10
14.5772155
20
1.0467893
40
4.2663748
50
179.2595222
51
184.0106549
0
ARC
8
DEFAULT_255_2_778
10
12.3593583
20
0.9153916
40
2.0449001
50
184.6843956
51
187.0712056
0
ARC
8
DEFAULT_255_2_778
10
11.7914492
20
0.8379691
40
1.471796
50
186.8017213
51
195.7192107
0
ARC
8
DEFAULT_255_2_778
10
10.7560646
20
0.50955
40
0.3877974
50
190.448028
51
261.0424581
0
ARC
8
DEFAULT_255_2_778
10
10.7591025
20
0.5698147
40
0.4478459
50
261.8590474
51
265.2217251
0
ARC
8
DEFAULT_255_2_778
10
11.1937689
20
3.3892921
40
3.2996954
50
261.7764921
51
269.935455
0
ARC
8
DEFAULT_255_2_778
10
11.1900842
20
3.2131441
40
3.1235453
50
269.9994039
51
270.6706917
0
ARC
8
DEFAULT_255_2_778
10
11.2000392
20
2.9540123
40
2.864323
50
270.5322484
51
280.6928454
0
ARC
8
DEFAULT_255_2_778
10
11.6126247
20
0.9473954
40
0.8166677
50
278.3695741
51
292.7076117
0
ARC
8
DEFAULT_255_2_778
10
11.7813368
20
0.5408469
40
0.3765065
50
292.9061555
51
348.7416991
0
ARC
8
DEFAULT_255_2_778
10
11.300428
20
0.682909
40
0.877074
50
345.7719885
51
354.3871202
0
ARC
8
DEFAULT_255_2_778
10
7.8666499
20
1.2807599
40
4.3479121
50
356.2187348
51
359.8055537
0
ARC
8
DEFAULT_255_2_778
10
9.1701248
20
1.2671527
40
3.0444122
50
359.9783866
51
1.7718496
0
ARC
8
DEFAULT_255_2_778
10
9.801905
20
1.2943127
40
2.4121062
50
1.5910263
51
10.5420689
0
ARC
8
DEFAULT_255_2_778
10
11.3363067
20
1.594967
40
0.848727
50
9.5395663
51
21.4715842
0
ARC
8
DEFAULT_255_2_778
10
11.8132815
20
1.7816934
40
0.3365063
50
21.6119419
51
77.5208278
0
ARC
8
DEFAULT_255_2_778
10
11.6182408
20
1.2126618
40
0.9366731
50
73.3899178
51
79.1289345
0
ARC
8
DEFAULT_255_2_778
10
11.3228011
20
-0.5061373
40
2.6805625
50
79.8562626
51
90.2533599
0
ARC
8
DEFAULT_255_2_778
10
11.3389823
20
-1.9289241
40
4.1034189
50
90.3914473
51
98.2016797
0
ARC
8
DEFAULT_255_2_778
10
10.8079546
20
1.6602066
40
0.4754364
50
96.5651049
51
131.2230606
0
ARC
8
DEFAULT_255_2_778
10
10.7689795
20
1.7347598
40
0.3941754
50
134.1044828
51
170.5315161
0
ARC
8
DEFAULT_255_2_778
10
10.9355577
20
1.6909399
40
0.565914
50
168.9296281
51
171.966724
0
ARC
8
DEFAULT_255_2_778
10
11.791807
20
1.3650097
40
1.4733709
50
164.0445108
51
172.6904202
0
ARC
8
DEFAULT_255_2_778
10
13.3071089
20
1.2149918
40
2.9957682
50
173.5318561
51
180.9277564
0
ARC
8
DEFAULT_255_2_778
10
41.7729145
20
1.1174753
40
31.4612192
50
179.9107454
51
180.0181204
0
ARC
8
DEFAULT_255_2_778
10
21.9469048
20
3.2738084
40
3.4958631
50
256.5570513
51
271.4242738
0
ARC
8
DEFAULT_255_2_778
10
21.3056415
20
0.6469221
40
0.7919763
50
234.0029109
51
257.4978092
0
ARC
8
DEFAULT_255_2_778
10
21.2616797
20
0.5565633
40
0.6932553
50
191.6594203
51
232.5530613
0
ARC
8
DEFAULT_255_2_778
10
21.5552811
20
0.6452622
40
0.9991034
50
188.0804158
51
193.2386039
0
ARC
8
DEFAULT_255_2_778
10
23.6385451
20
0.9908465
40
3.1106518
50
185.6481704
51
188.9889588
0
ARC
8
DEFAULT_255_2_778
10
24.4605446
20
1.0620627
40
3.9356825
50
179.8144246
51
185.5021472
0
ARC
8
DEFAULT_255_2_778
10
26.7548793
20
1.059929
40
6.2300145
50
176.8301419
51
179.8631442
0
ARC
8
DEFAULT_255_2_778
10
21.6951547
20
1.3957571
40
1.1607901
50
169.3565443
51
179.5721371
0
ARC
8
DEFAULT_255_2_778
10
25.2233727
20
0.721792
40
4.7527984
50
166.7080098
51
169.2273204
0
ARC
8
DEFAULT_255_2_778
10
21.5014716
20
1.5727418
40
0.9353644
50
143.6174178
51
165.0194347
0
ARC
8
DEFAULT_255_2_778
10
21.3303208
20
1.6808603
40
0.733585
50
105.3168707
51
142.4864925
0
ARC
8
DEFAULT_255_2_778
10
21.4274101
20
1.4015278
40
1.0288338
50
100.2239008
51
106.4225554
0
ARC
8
DEFAULT_255_2_778
10
21.8543652
20
-0.7349522
40
3.207434
50
92.434057
51
100.955618
0
ARC
8
DEFAULT_255_2_778
10
22.1125914
20
-6.934853
40
9.4127092
50
89.5196911
51
92.4017126
0
ARC
8
DEFAULT_255_2_778
10
17.3704487
20
-59.6442217
40
62.3085385
50
85.5605665
51
85.5623726
0
ARC
8
DEFAULT_255_2_778
10
22.0223172
20
-0.9793185
40
3.4609258
50
77.4355853
51
87.1656486
0
ARC
8
DEFAULT_255_2_778
10
22.5980164
20
1.5660229
40
0.8513439
50
57.5100689
51
77.9878758
0
ARC
8
DEFAULT_255_2_778
10
22.6499291
20
1.6819984
40
0.7258712
50
12.6108012
51
56.0489409
0
ARC
8
DEFAULT_255_2_778
10
22.287829
20
1.5611046
40
1.1063151
50
10.7587773
51
14.6269307
0
ARC
8
DEFAULT_255_2_778
10
20.330999
20
1.2146128
40
3.0935287
50
359.9055092
51
10.2977944
0
ARC
8
DEFAULT_255_2_778
10
19.8692384
20
1.216258
40
3.5552915
50
352.0775923
51
359.8912673
0
ARC
8
DEFAULT_255_2_778
10
21.5170518
20
0.9647861
40
1.8886722
50
345.8989815
51
352.7435094
0
ARC
8
DEFAULT_255_2_778
10
15.2312799
20
2.4418114
40
8.3454762
50
346.0786465
51
346.577978
0
ARC
8
DEFAULT_255_2_778
10
29.2099706
20
-1.0493729
40
6.0626138
50
165.8375876
51
167.2907415
0
ARC
8
DEFAULT_255_2_778
10
22.7661864
20
0.4516359
40
0.5554752
50
287.5190337
51
342.4809727
0
ARC
8
DEFAULT_255_2_778
10
22.30557
20
1.5860134
40
1.7785824
50
274.0714484
51
290.6704819
0
ARC
8
DEFAULT_255_2_778
10
22.1284848
20
3.146067
40
3.3479201
50
275.1429755
51
275.1988765
0
ARC
8
DEFAULT_255_2_778
10
22.1103701
20
1.1158461
40
1.3424828
50
271.047262
51
283.712112
0
ARC
8
DEFAULT_255_2_778
10
22.1345558
20
0.6377079
40
0.8641202
50
266.5271381
51
270.0232753
0
ARC
8
DEFAULT_255_2_778
10
22.1318404
20
0.5908716
40
0.8172053
50
262.9610614
51
266.5182518
0
ARC
8
DEFAULT_255_2_778
10
25.6097153
20
1.04626
40
4.6016143
50
179.4712462
51
182.9859776
0
ARC
8
DEFAULT_255_2_778
10
22.962322
20
0.9147996
40
1.9509784
50
183.1805366
51
190.2202008
0
ARC
8
DEFAULT_255_2_778
10
22.4179806
20
0.8218006
40
1.3987822
50
190.4274644
51
195.7623052
0
ARC
8
DEFAULT_255_2_778
10
21.4529775
20
0.5120638
40
0.3875978
50
190.440515
51
261.0657995
0
ARC
8
DEFAULT_255_2_778
10
21.4559309
20
0.5721536
40
0.4474633
50
261.88717
51
265.2525305
0
ARC
8
DEFAULT_255_2_778
10
21.9048345
20
3.5793212
40
3.48712
50
261.9896425
51
269.8435791
0
ARC
8
DEFAULT_255_2_778
10
21.895315
20
3.2173557
40
3.1251415
50
269.9999897
51
270.6661183
0
ARC
8
DEFAULT_255_2_778
10
21.8974604
20
3.1209634
40
3.028731
50
270.6467346
51
280.4037042
0
ARC
8
DEFAULT_255_2_778
10
22.3319315
20
0.8974727
40
0.763773
50
278.4675836
51
294.0508465
0
ARC
8
DEFAULT_255_2_778
10
22.4744385
20
0.5673685
40
0.4042726
50
294.674163
51
352.383109
0
ARC
8
DEFAULT_255_2_778
10
22.0414634
20
0.6822999
40
0.8505417
50
348.5724215
51
353.3582508
0
ARC
8
DEFAULT_255_2_778
10
16.7885767
20
1.2858589
40
6.1379885
50
353.4333524
51
357.3491104
0
ARC
8
DEFAULT_255_2_778
10
18.4594675
20
1.1965105
40
4.4647695
50
357.5027675
51
359.9737404
0
ARC
8
DEFAULT_255_2_778
10
18.8973234
20
1.1959364
40
4.0269134
50
359.9790536
51
3.1900344
0
ARC
8
DEFAULT_255_2_778
10
21.4547868
20
1.4034344
40
1.4633042
50
0.6496343
51
18.9000528
0
ARC
8
DEFAULT_255_2_778
10
22.5662581
20
1.7939866
40
0.2854078
50
16.9986658
51
73.0013342
0
ARC
8
DEFAULT_255_2_778
10
22.0198965
20
-0.5253226
40
2.6817477
50
79.8585223
51
90.2528216
0
ARC
8
DEFAULT_255_2_778
10
22.0360845
20
-1.9469652
40
4.10346
50
90.3912608
51
98.201629
0
ARC
8
DEFAULT_255_2_778
10
21.5726681
20
1.3435153
40
0.7805981
50
98.9895019
51
111.4815222
0
ARC
8
DEFAULT_255_2_778
10
21.4144521
20
1.7543854
40
0.3403455
50
112.0262079
51
168.8565301
0
ARC
8
DEFAULT_255_2_778
10
22.2179496
20
1.4965506
40
1.1825663
50
164.1182755
51
169.8757871
0
ARC
8
DEFAULT_255_2_778
10
22.2730816
20
1.3980452
40
1.2571889
50
165.8948243
51
166.1153825
0
ARC
8
DEFAULT_255_2_778
10
22.9230477
20
1.282929
40
1.9162981
50
167.4375873
51
180.7695345
0
ARC
8
DEFAULT_255_2_778
10
33.6046249
20
1.1187661
40
12.598463
50
179.3704477
51
180.1352559
0
ARC
8
DEFAULT_255_2_778
10
24.1036383
20
2.3659956
40
0.3260906
50
304.7688251
51
319.2112177
0
ARC
8
DEFAULT_255_2_778
10
25.7741464
20
0.9356597
40
1.8731069
50
137.2667767
51
139.4668333
0
ARC
8
DEFAULT_255_2_778
10
24.5949436
20
2.0135093
40
0.2756746
50
135.0044852
51
135.502633
0
ARC
8
DEFAULT_255_2_778
10
25.0609594
20
1.4284962
40
1.0223311
50
96.107066
51
130.2800965
0
ARC
8
DEFAULT_255_2_778
10
25.411793
20
-0.0919554
40
2.5782746
50
89.5496533
51
100.2682643
0
ARC
8
DEFAULT_255_2_778
10
25.4195583
20
-1.9250984
40
4.4113558
50
86.2327903
51
89.837649
0
LINE
8
DEFAULT_255_2_778
10
25.7093969
20
2.4767254
11
25.7102982
21
2.4766245
0
ARC
8
DEFAULT_255_2_778
10
25.6296183
20
1.1260432
40
1.352989
50
68.171625
51
86.5813727
0
ARC
8
DEFAULT_255_2_778
10
25.9172034
20
1.7763976
40
0.6428239
50
42.66926
51
70.4134993
0
ARC
8
DEFAULT_255_2_778
10
25.8416525
20
1.7424587
40
0.721855
50
8.258858
51
40.5851671
0
ARC
8
DEFAULT_255_2_778
10
26.3236562
20
1.8044293
40
0.2360807
50
10.0742049
51
10.1788694
0
LINE
8
DEFAULT_255_2_778
10
26.5560969
20
1.8457254
11
26.5563932
21
1.8439498
0
ARC
8
DEFAULT_255_2_778
10
17.7032579
20
0.3574577
40
8.9770632
50
9.1752775
51
9.5313821
0
ARC
8
DEFAULT_255_2_778
10
25.1488537
20
1.5349179
40
1.4391948
50
1.0712769
51
10.1644086
0
ARC
8
DEFAULT_255_2_778
10
26.1182414
20
-0.1714777
40
0.0270658
50
176.353127
51
222.5330855
0
ARC
8
DEFAULT_255_2_778
10
26.1631545
20
-0.1705752
40
0.0719288
50
170.0115091
51
179.347491
0
ARC
8
DEFAULT_255_2_778
10
26.2831859
20
-0.1912626
40
0.1937297
50
166.557545
51
170.1433389
0
ARC
8
DEFAULT_255_2_778
10
25.9960922
20
-0.1184633
40
0.1025029
50
344.2849905
51
355.629482
0
ARC
8
DEFAULT_255_2_778
10
24.6506688
20
1.4771904
40
1.4476395
50
0.2269842
51
5.4812681
0
ARC
8
DEFAULT_255_2_778
10
22.1836576
20
1.2227033
40
3.9277187
50
5.7390862
51
8.6312961
0
LINE
8
DEFAULT_255_2_778
10
26.0668932
20
1.8121572
11
26.0665969
21
1.8142254
0
ARC
8
DEFAULT_255_2_778
10
25.7169823
20
1.7525503
40
0.3550129
50
10.0045415
51
76.759038
0
ARC
8
DEFAULT_255_2_778
10
25.2744008
20
-0.1045112
40
2.2640837
50
76.620823
51
76.9378398
0
ARC
8
DEFAULT_255_2_778
10
25.3186186
20
0.1194273
40
2.0359599
50
76.7256994
51
89.7979318
0
ARC
8
DEFAULT_255_2_778
10
25.3210789
20
0.4033979
40
1.7519831
50
89.8456405
51
106.6157249
0
ARC
8
DEFAULT_255_2_778
10
25.0244933
20
1.3557616
40
0.7546705
50
105.7143684
51
125.7411219
0
ARC
8
DEFAULT_255_2_778
10
24.9362017
20
1.5055256
40
0.5817542
50
127.2991569
51
171.1337612
0
ARC
8
DEFAULT_255_2_778
10
25.3883387
20
1.3972977
40
1.045833
50
169.0927254
51
177.0442678
0
ARC
8
DEFAULT_255_2_778
10
24.3828666
20
-0.1714328
40
0.0722658
50
122.6328822
51
191.6854298
0
ARC
8
DEFAULT_255_2_778
10
26.728527
20
-0.1889073
40
2.4164302
50
179.9327096
51
180.0134505
0
ARC
8
DEFAULT_255_2_778
10
14.5356495
20
2.3955271
40
0.027069
50
356.3486694
51
42.5310758
0
ARC
8
DEFAULT_255_2_778
10
14.4903586
20
2.3946414
40
0.0723098
50
349.9520841
51
359.3357849
0
ARC
8
DEFAULT_255_2_778
10
14.3684688
20
2.4157121
40
0.1960071
50
346.5879166
51
350.1037509
0
ARC
8
DEFAULT_255_2_778
10
14.6581533
20
2.3424497
40
0.1028508
50
164.3194257
51
175.6642079
0
ARC
8
DEFAULT_255_2_778
10
15.476592
20
0.6858821
40
0.9210311
50
179.4934146
51
179.9999481
0
ARC
8
DEFAULT_255_2_778
10
15.4752147
20
0.6857716
40
0.9196537
50
179.9930647
51
198.4826454
0
ARC
8
DEFAULT_255_2_778
10
14.9183845
20
0.4701768
40
0.3244039
50
193.5401125
51
228.6435085
0
ARC
8
DEFAULT_255_2_778
10
14.9544696
20
0.5514011
40
0.4100773
50
232.3601845
51
267.1663605
0
ARC
8
DEFAULT_255_2_778
10
15.3362945
20
2.6069154
40
2.4976691
50
260.7356866
51
269.7852595
0
ARC
8
DEFAULT_255_2_778
10
15.3347348
20
2.0788056
40
1.9695573
50
269.7730543
51
284.678088
0
ARC
8
DEFAULT_255_2_778
10
15.7021543
20
0.7126014
40
0.5549169
50
283.7230802
51
312.8596061
0
ARC
8
DEFAULT_255_2_778
10
15.6703141
20
0.7136593
40
0.5777932
50
315.1032506
51
348.042426
0
ARC
8
DEFAULT_255_2_778
10
15.3610344
20
0.8083936
40
0.9004441
50
346.2222943
51
348.6591391
0
ARC
8
DEFAULT_255_2_778
10
14.3490002
20
0.9816581
40
1.9270098
50
349.5253075
51
358.9672369
0
ARC
8
DEFAULT_255_2_778
10
18.8377215
20
-2.2845901
40
3.5257093
50
135.8631175
51
137.9471597
0
ARC
8
DEFAULT_255_2_778
10
15.7277584
20
0.5193864
40
0.6616719
50
307.8652614
51
318.0400406
0
ARC
8
DEFAULT_255_2_778
10
15.5319815
20
0.8435552
40
1.0387083
50
274.7387316
51
305.4143029
0
ARC
8
DEFAULT_255_2_778
10
12.4836423
20
18.4444287
40
18.8977395
50
279.5397023
51
279.5464904
0
ARC
8
DEFAULT_255_2_778
10
11.9544151
20
21.599654
40
22.0970404
50
279.5308084
51
279.5370832
0
ARC
8
DEFAULT_255_2_778
10
15.2868553
20
2.0816751
40
2.2973464
50
278.0601938
51
278.1665773
0
ARC
8
DEFAULT_255_2_778
10
15.2339904
20
2.530072
40
2.7487463
50
269.7398014
51
277.8407337
0
ARC
8
DEFAULT_255_2_778
10
15.2335106
20
4.081402
40
4.3000645
50
266.0166111
51
269.8400646
0
ARC
8
DEFAULT_255_2_778
10
15.1270667
20
1.7708906
40
1.9884825
50
259.4121439
51
264.4513044
0
ARC
8
DEFAULT_255_2_778
10
14.9407572
20
0.8532664
40
1.0523487
50
242.7244405
51
260.2032837
0
ARC
8
DEFAULT_255_2_778
10
14.7722608
20
0.5266902
40
0.6848667
50
213.0431151
51
242.7329403
0
ARC
8
DEFAULT_255_2_778
10
14.898632
20
0.5846076
40
0.8226312
50
185.7895071
51
211.6251433
0
ARC
8
DEFAULT_255_2_778
10
15.5559613
20
0.7112388
40
1.4905765
50
182.0328674
51
188.0840549
0
ARC
8
DEFAULT_255_2_778
10
18.1147283
20
0.7894378
40
4.0505267
50
179.6069344
51
181.8543999
0
ARC
8
DEFAULT_255_2_778
10
19.217197
20
0.4850049
40
1.2229559
50
179.08542
51
184.5541552
0
ARC
8
DEFAULT_255_2_778
10
18.4827107
20
0.4316948
40
0.4865831
50
185.1638148
51
193.8610013
0
ARC
8
DEFAULT_255_2_778
10
18.2407937
20
0.3588417
40
0.2346058
50
190.7392392
51
263.76082
0
ARC
8
DEFAULT_255_2_778
10
18.436235
20
1.1469048
40
1.0449044
50
257.7930542
51
270.0006571
0
ARC
8
DEFAULT_255_2_778
10
18.4362589
20
1.1469048
40
1.0449044
50
269.9993429
51
282.2069458
0
ARC
8
DEFAULT_255_2_778
10
18.5954551
20
0.5166619
40
0.3958807
50
278.9725143
51
298.1686919
0
ARC
8
DEFAULT_255_2_778
10
18.6722003
20
0.3403672
40
0.2048296
50
302.5275335
51
347.9274347
0
ARC
8
DEFAULT_255_2_778
10
18.1093589
20
0.515865
40
0.7937604
50
344.0339408
51
351.1630712
0
ARC
8
DEFAULT_255_2_778
10
18.4143278
20
0.5152409
40
0.4944818
50
345.7981529
51
356.0980626
0
ARC
8
DEFAULT_255_2_778
10
17.6934575
20
0.5519042
40
1.2162399
50
356.6858137
51
0.7359189
0
ARC
8
DEFAULT_255_2_778
10
18.117418
20
0.6704449
40
1.2518758
50
329.2955734
51
3.2366218
0
ARC
8
DEFAULT_255_2_778
10
18.7912583
20
0.3441177
40
0.5098421
50
279.8066889
51
322.1421643
0
ARC
8
DEFAULT_255_2_778
10
18.4388479
20
1.6879576
40
1.8977653
50
282.6408924
51
283.3828046
0
ARC
8
DEFAULT_255_2_778
10
18.4335442
20
1.7186774
40
1.9289018
50
269.9278847
51
282.5949219
0
ARC
8
DEFAULT_255_2_778
10
18.4389959
20
1.9649934
40
2.1752306
50
255.6505462
51
269.7924547
0
ARC
8
DEFAULT_255_2_778
10
18.0227513
20
0.3701469
40
0.5270403
50
227.2013951
51
256.5202049
0
ARC
8
DEFAULT_255_2_778
10
18.0021659
20
0.319105
40
0.476005
50
187.6163726
51
224.8445781
0
ARC
8
DEFAULT_255_2_778
10
18.2787549
20
0.3796416
40
0.7585367
50
183.4552468
51
189.3798927
0
ARC
8
DEFAULT_255_2_778
10
18.3531614
20
0.4895055
40
0.8459933
50
181.9649176
51
190.5971432
0
ARC
8
DEFAULT_255_2_778
10
20.2723173
20
0.5666811
40
2.76669
50
179.5931809
51
182.1994916
0
LINE
8
DEFAULT_255_2_778
10
6.6826969
20
0.6310254
11
7.1588969
21
0.6310254
0
LINE
8
DEFAULT_255_2_778
10
8.4045969
20
0.9630254
11
7.6946969
21
0.9948254
0
LINE
8
DEFAULT_255_2_778
10
9.3514969
20
1.7174254
11
8.8619969
21
1.7174254
0
LINE
8
DEFAULT_255_2_778
10
7.7102969
20
1.3226254
11
8.4045969
21
1.3067254
0
LINE
8
DEFAULT_255_2_778
10
6.6868969
20
0.6257254
11
6.6826969
21
0.6310254
0
LINE
8
DEFAULT_255_2_778
10
11.3210969
20
-0.2206746
11
11.3207969
21
-0.2209746
0
LINE
8
DEFAULT_255_2_778
10
12.1732969
20
0.5971254
11
12.2050969
21
0.9940254
0
LINE
8
DEFAULT_255_2_778
10
10.3116969
20
1.1075254
11
10.3111969
21
1.1019254
0
LINE
8
DEFAULT_255_2_778
10
22.0316969
20
-0.2201746
11
22.0337969
21
-0.2209746
0
LINE
8
DEFAULT_255_2_778
10
22.6496969
20
2.0669254
11
22.4920969
21
2.1145254
0
LINE
8
DEFAULT_255_2_778
10
21.0061969
20
1.0890254
11
21.0082969
21
1.0887254
0
LINE
8
DEFAULT_255_2_778
10
24.3213969
20
-0.1897746
11
23.8318969
21
-0.1897746
0
LINE
8
DEFAULT_255_2_778
10
23.8318969
20
-0.1897746
11
23.8318969
21
2.4138254
0
LINE
8
DEFAULT_255_2_778
10
23.8318969
20
2.4138254
11
24.2895969
21
2.4138254
0
LINE
8
DEFAULT_255_2_778
10
24.2895969
20
2.4138254
11
24.2895969
21
2.0981254
0
LINE
8
DEFAULT_255_2_778
10
26.5877969
20
1.5618254
11
26.5877969
21
-0.1897746
0
LINE
8
DEFAULT_255_2_778
10
26.5877969
20
-0.1897746
11
26.0982969
21
-0.1897746
0
LINE
8
DEFAULT_255_2_778
10
26.0982969
20
-0.1262746
11
26.0982969
21
1.4829254
0
LINE
8
DEFAULT_255_2_778
10
24.3438969
20
1.4512254
11
24.3438969
21
-0.1105746
0
LINE
8
DEFAULT_255_2_778
10
24.3120969
20
-0.1894746
11
24.3213969
21
-0.1897746
0
LINE
8
DEFAULT_255_2_778
10
14.0660969
20
2.4138254
11
14.5555969
21
2.4138254
0
LINE
8
DEFAULT_255_2_778
10
14.5555969
20
2.3502254
11
14.5555969
21
0.6940254
0
LINE
8
DEFAULT_255_2_778
10
16.2756969
20
0.9469254
11
16.2756969
21
2.4460254
0
LINE
8
DEFAULT_255_2_778
10
16.2756969
20
2.4460254
11
16.7651969
21
2.4460254
0
LINE
8
DEFAULT_255_2_778
10
16.7651969
20
2.4460254
11
16.7651969
21
-0.1574746
0
LINE
8
DEFAULT_255_2_778
10
16.7651969
20
-0.1574746
11
16.3073969
21
-0.1574746
0
LINE
8
DEFAULT_255_2_778
10
16.3073969
20
-0.1574746
11
16.3073969
21
0.1706254
0
LINE
8
DEFAULT_255_2_778
10
14.0642969
20
0.8172254
11
14.0642969
21
2.4108254
0
LINE
8
DEFAULT_255_2_778
10
14.0642969
20
2.4108254
11
14.0660969
21
2.4138254
0
LINE
8
DEFAULT_255_2_778
10
17.9943969
20
2.1137254
11
17.9943969
21
0.5045254
0
LINE
8
DEFAULT_255_2_778
10
18.9095969
20
0.5675254
11
18.9095969
21
0.7411254
0
LINE
8
DEFAULT_255_2_778
10
18.9095969
20
0.7411254
11
19.3672969
21
0.7411254
0
LINE
8
DEFAULT_255_2_778
10
17.5056969
20
0.5863254
11
17.5056969
21
2.1166254
0
LINE
8
DEFAULT_255_2_778
10
17.5056969
20
2.1166254
11
17.0823969
21
2.1166254
0
LINE
8
DEFAULT_255_2_778
10
17.0823969
20
2.1166254
11
17.0823969
21
2.4323254
0
LINE
8
DEFAULT_255_2_778
10
17.0823969
20
2.4323254
11
17.5056969
21
2.4323254
0
LINE
8
DEFAULT_255_2_778
10
17.5056969
20
2.4323254
11
17.5056969
21
3.0633254
0
LINE
8
DEFAULT_255_2_778
10
17.5056969
20
3.0633254
11
17.9951969
21
3.0633254
0
LINE
8
DEFAULT_255_2_778
10
17.9951969
20
3.0633254
11
17.9951969
21
2.4323254
0
LINE
8
DEFAULT_255_2_778
10
17.9951969
20
2.4323254
11
19.2386969
21
2.4323254
0
LINE
8
DEFAULT_255_2_778
10
19.2386969
20
2.4323254
11
19.2386969
21
2.1166254
0
LINE
8
DEFAULT_255_2_778
10
19.2386969
20
2.1166254
11
17.9943969
21
2.1166254
0
LINE
8
DEFAULT_255_2_778
10
17.9943969
20
2.1166254
11
17.9943969
21
2.1137254
0
ARC
8
DEFAULT_255_2_778
10
3.0157055
20
1.6937988
40
1.0746588
50
178.6980935
51
187.0727164
0
LINE
8
DEFAULT_255_2_778
10
1.9413241
20
1.7182157
11
1.9413241
21
1.7192022
0
ARC
8
DEFAULT_255_2_778
10
0.8579537
20
1.744126
40
1.083657
50
358.6820986
51
7.0472341
0
ARC
8
DEFAULT_255_2_778
10
1.6674721
20
1.85373
40
0.2669748
50
5.0169718
51
76.824668
0
ARC
8
DEFAULT_255_2_778
10
1.3394026
20
0.8006041
40
1.3694601
50
73.5011421
51
84.9461582
0
ARC
8
DEFAULT_255_2_778
10
1.3540985
20
0.9376708
40
1.2316343
50
85.0654516
51
89.9747436
0
ARC
8
DEFAULT_255_2_778
10
1.347003
20
1.1027335
40
1.066599
50
89.5896712
51
113.3637907
0
ARC
8
DEFAULT_255_2_778
10
1.100791
20
1.6451964
40
0.4711015
50
112.0379321
51
144.5859297
0
ARC
8
DEFAULT_255_2_778
10
1.2114335
20
1.6007592
40
0.5876867
50
147.3069818
51
182.3094693
0
ARC
8
DEFAULT_255_2_778
10
-1.0989162
20
2.4687698
40
1.7103072
50
354.4329574
51
359.1995646
0
ARC
8
DEFAULT_255_2_778
10
2.3043674
20
2.1369758
40
1.7091118
50
174.4304413
51
179.1953592
0
ARC
8
DEFAULT_255_2_778
10
0.5928636
20
2.1952297
40
0.0343481
50
274.2751892
51
355.9055093
0
ARC
8
DEFAULT_255_2_778
10
1.2903076
20
1.5884908
40
0.8972036
50
98.1300811
51
137.6605178
0
ARC
8
DEFAULT_255_2_778
10
1.5193779
20
0.5447948
40
1.9644013
50
90.3636323
51
100.4397904
0
ARC
8
DEFAULT_255_2_778
10
1.5146465
20
1.0930518
40
1.416126
50
72.6679031
51
90.3129863
0
ARC
8
DEFAULT_255_2_778
10
1.7800474
20
1.8389112
40
0.6258432
50
48.8683494
51
75.5209821
0
ARC
8
DEFAULT_255_2_778
10
1.7585352
20
1.8498523
40
0.6321862
50
9.2098945
51
46.7471044
0
ARC
8
DEFAULT_255_2_778
10
1.4039194
20
1.7579291
40
0.9975221
50
6.8484473
51
11.1620934
0
ARC
8
DEFAULT_255_2_778
10
1.479408
20
1.7531935
40
0.9232384
50
358.3728081
51
7.6989032
0
ARC
8
DEFAULT_255_2_778
10
3.3251403
20
1.7007609
40
0.9232385
50
178.3728081
51
187.6989032
0
ARC
8
DEFAULT_255_2_778
10
2.0338682
20
5.8147718
40
4.2543741
50
268.9030847
51
275.0752071
0
LINE
8
DEFAULT_255_2_778
10
0.6242241
20
1.5770772
11
0.6242241
21
-0.1586228
0
LINE
8
DEFAULT_255_2_778
10
0.6242241
20
-0.1586228
11
0.1350241
21
-0.1586228
0
LINE
8
DEFAULT_255_2_778
10
0.1350241
20
-0.1586228
11
0.1350241
21
2.4448772
0
LINE
8
DEFAULT_255_2_778
10
0.1350241
20
2.4448772
11
0.6112241
21
2.4448772
0
LINE
8
DEFAULT_255_2_778
10
1.9524241
20
1.5611772
11
1.9492241
21
1.5614772
0
LINE
8
DEFAULT_255_2_778
10
13.1197442
20
-0.1897597
11
13.1197442
21
3.5308403
0
LINE
8
DEFAULT_255_2_778
10
13.1197442
20
3.5308403
11
13.6087442
21
3.5308403
0
LINE
8
DEFAULT_255_2_778
10
13.6087442
20
3.5308403
11
13.6087442
21
-0.1926597
0
LINE
8
DEFAULT_255_2_778
10
13.6087442
20
-0.1926597
11
13.1197442
21
-0.1926597
0
LINE
8
DEFAULT_255_2_778
10
13.1197442
20
-0.1926597
11
13.1197442
21
-0.1897597
0
LINE
8
DEFAULT_255_2_778
10
20.1248442
20
-0.1897597
11
19.6353442
21
-0.1897597
0
LINE
8
DEFAULT_255_2_778
10
19.6353442
20
-0.1897597
11
19.6353442
21
2.4137403
0
LINE
8
DEFAULT_255_2_778
10
19.6353442
20
2.4137403
11
20.1248442
21
2.4137403
0
LINE
8
DEFAULT_255_2_778
10
20.1248442
20
2.4137403
11
20.1248442
21
-0.1897597
0
LINE
8
DEFAULT_255_2_778
10
20.1248442
20
-0.1897597
11
20.1248442
21
-0.1897597
0
LINE
8
DEFAULT_255_2_778
10
5.8778066
20
-0.1897465
11
5.8778066
21
0.3150535
0
LINE
8
DEFAULT_255_2_778
10
5.8778066
20
0.3150535
11
6.4300066
21
0.3150535
0
LINE
8
DEFAULT_255_2_778
10
6.4300066
20
0.3150535
11
6.4300066
21
-0.1897465
0
LINE
8
DEFAULT_255_2_778
10
6.4300066
20
-0.1897465
11
5.8778066
21
-0.1897465
0
LINE
8
DEFAULT_255_2_778
10
5.8778066
20
-0.1897465
11
5.8778066
21
-0.1897465
0
LINE
8
DEFAULT_255_2_778
10
6.4300066
20
1.9089535
11
5.8778066
21
1.9089535
0
LINE
8
DEFAULT_255_2_778
10
5.8778066
20
1.9089535
11
5.8778066
21
2.4137535
0
LINE
8
DEFAULT_255_2_778
10
5.8778066
20
2.4137535
11
6.4300066
21
2.4137535
0
LINE
8
DEFAULT_255_2_778
10
6.4300066
20
2.4137535
11
6.4300066
21
1.9089535
0
LINE
8
DEFAULT_255_2_778
10
6.4300066
20
1.9089535
11
6.4300066
21
1.9089535
0
LINE
8
DEFAULT_255_2_778
10
20.1248637
20
3.5308675
11
20.1248637
21
3.1075675
0
LINE
8
DEFAULT_255_2_778
10
20.1248637
20
3.1075675
11
19.6353637
21
3.1075675
0
LINE
8
DEFAULT_255_2_778
10
19.6353637
20
3.1075675
11
19.6353637
21
3.5308675
0
LINE
8
DEFAULT_255_2_778
10
19.6353637
20
3.5308675
11
20.1248637
21
3.5308675
0
LINE
8
DEFAULT_255_2_778
10
20.1248637
20
3.5308675
11
20.1248637
21
3.5308675
0
ENDSEC
0
EOF