0
SECTION
2
HEADER
9
$MEASUREMENT
70
1
0
ENDSEC
0
SECTION
2
TABLES
0
TABLE
2
LTYPE
0
LTYPE
72
65
70
64
2
CONTINUOUS
3
______
73
0
40
0
0
ENDTAB
0
TABLE
2
LAYER
0
LAYER
2
DEFAULT_255_2_778
70
0
62
255
6
CONTINUOUS
0
ENDTAB
0
ENDSEC
0
SECTION
2
ENTITIES
0
ARC
8
DEFAULT_255_2_778
10
15.2637619
20
3.0722562
40
6.9364384
50
179.2401099
51
186.9128579
0
ARC
8
DEFAULT_255_2_778
10
11.4441465
20
2.6069363
40
3.0885853
50
186.8718648
51
205.9698918
0
ARC
8
DEFAULT_255_2_778
10
9.3906772
20
1.5963595
40
0.7999903
50
205.3022781
51
239.9744801
0
ARC
8
DEFAULT_255_2_778
10
11.3708587
20
4.5215033
40
4.330707
50
236.6552203
51
239.544201
0
LINE
8
DEFAULT_255_2_778
10
9.1757381
20
0.7883453
11
9.1767336
21
0.7877486
0
ARC
8
DEFAULT_255_2_778
10
10.1736541
20
3.0015643
40
2.4279271
50
245.7571155
51
272.2793182
0
ARC
8
DEFAULT_255_2_778
10
10.27979
20
5.5333917
40
4.957843
50
269.8893508
51
269.9408155
0
ARC
8
DEFAULT_255_2_778
10
10.279842
20
5.7150613
40
5.1395125
50
269.9423283
51
270.002136
0
ARC
8
DEFAULT_255_2_778
10
11.1083006
20
14.0616151
40
13.5114772
50
266.4855082
51
269.8484112
0
ARC
8
DEFAULT_255_2_778
10
11.1310824
20
8.4243602
40
7.8743924
50
269.5741234
51
279.6003588
0
ARC
8
DEFAULT_255_2_778
10
12.4634806
20
0.8145623
40
0.155497
50
262.9269655
51
313.9158688
0
ARC
8
DEFAULT_255_2_778
10
12.2300917
20
2.250795
40
1.5854062
50
282.4295718
51
291.9141588
0
ARC
8
DEFAULT_255_2_778
10
12.5340476
20
1.513857
40
0.7883056
50
291.408617
51
311.8784945
0
ARC
8
DEFAULT_255_2_778
10
12.6060322
20
1.4045924
40
0.6591817
50
313.5600115
51
346.5987187
0
ARC
8
DEFAULT_255_2_778
10
11.9462402
20
1.5861305
40
1.3432917
50
345.588846
51
356.4360962
0
ARC
8
DEFAULT_255_2_778
10
10.8309555
20
1.6745376
40
2.4619877
50
355.9960594
51
0.1608352
0
ARC
8
DEFAULT_255_2_778
10
12.2275944
20
1.8782836
40
2.4255042
50
332.8601984
51
2.3644294
0
ARC
8
DEFAULT_255_2_778
10
12.8698434
20
1.6218014
40
1.7381771
50
321.3139219
51
330.7260715
0
ARC
8
DEFAULT_255_2_778
10
13.0997386
20
1.5546771
40
1.519514
50
283.0095988
51
317.8692058
0
ARC
8
DEFAULT_255_2_778
10
12.4850226
20
3.5120395
40
3.56853
50
282.3395357
51
285.5521935
0
ARC
8
DEFAULT_255_2_778
10
11.0837412
20
10.612881
40
10.8058118
50
273.5096053
51
281.5517331
0
ARC
8
DEFAULT_255_2_778
10
10.8565877
20
13.7524199
40
13.9534108
50
269.9415585
51
273.6514257
0
ARC
8
DEFAULT_255_2_778
10
10.8513505
20
16.401439
40
16.6024251
50
267.5859088
51
269.968957
0
ARC
8
DEFAULT_255_2_778
10
14.188536
20
48.2788337
40
48.6328883
50
265.2368881
51
265.2390055
0
ARC
8
DEFAULT_255_2_778
10
11.1461461
20
13.3141828
40
13.5369686
50
262.2616301
51
265.7809855
0
ARC
8
DEFAULT_255_2_778
10
10.0276775
20
4.9174078
40
5.0661087
50
254.9117168
51
262.0089603
0
ARC
8
DEFAULT_255_2_778
10
9.2909353
20
2.523372
40
2.564342
50
245.9940035
51
256.8818702
0
ARC
8
DEFAULT_255_2_778
10
9.0309715
20
1.9481835
40
1.933147
50
228.4372631
51
246.0969222
0
ARC
8
DEFAULT_255_2_778
10
8.9906095
20
1.8730412
40
1.8502501
50
200.6170006
51
227.8286876
0
ARC
8
DEFAULT_255_2_778
10
9.5912776
20
2.1196872
40
2.4993721
50
191.0966023
51
201.0604187
0
ARC
8
DEFAULT_255_2_778
10
13.8882522
20
3.2308087
40
6.9348631
50
188.2208358
51
193.2728062
0
ARC
8
DEFAULT_255_2_778
10
13.8059769
20
3.2158669
40
6.8512974
50
184.3215254
51
188.1955479
0
ARC
8
DEFAULT_255_2_778
10
14.3015397
20
3.2496645
40
7.3479988
50
179.9528975
51
184.2931364
0
ARC
8
DEFAULT_255_2_778
10
15.5510241
20
3.2479665
40
8.5974842
50
176.5819977
51
179.9484272
0
ARC
8
DEFAULT_255_2_778
10
16.4374635
20
2.9682153
40
9.5017233
50
165.8672266
51
175.2166431
0
ARC
8
DEFAULT_255_2_778
10
9.4565419
20
4.7683375
40
2.2929298
50
155.2496655
51
166.8944684
0
ARC
8
DEFAULT_255_2_778
10
8.989249
20
4.9871668
40
1.7769485
50
133.6051006
51
155.3492528
0
ARC
8
DEFAULT_255_2_778
10
9.082015
20
4.8576663
40
1.934827
50
111.6930976
51
132.9494118
0
ARC
8
DEFAULT_255_2_778
10
9.4234901
20
4.0378578
40
2.8228316
50
101.2177698
51
111.9825603
0
ARC
8
DEFAULT_255_2_778
10
9.5721925
20
3.3912907
40
3.4860322
50
100.7672333
51
101.5477877
0
ARC
8
DEFAULT_255_2_778
10
10.4266228
20
-0.7017294
40
7.6669801
50
90.4638396
51
101.3257143
0
ARC
8
DEFAULT_255_2_778
10
10.5727134
20
-4.7689257
40
11.7357713
50
89.9893232
51
91.0163124
0
ARC
8
DEFAULT_255_2_778
10
10.5262206
20
-9.8951006
40
16.8620162
50
86.9447977
51
89.8345898
0
ARC
8
DEFAULT_255_2_778
10
9.8696378
20
-14.6244094
40
21.6233642
50
84.0514999
51
85.8753458
0
ARC
8
DEFAULT_255_2_778
10
10.9242771
20
-4.0315863
40
10.9783901
50
83.2900688
51
83.7967023
0
ARC
8
DEFAULT_255_2_778
10
11.28577
20
-1.141224
40
8.0656158
50
78.9927043
51
83.4413671
0
ARC
8
DEFAULT_255_2_778
10
11.5105848
20
0.0896761
40
6.8144512
50
77.0515038
51
78.8721188
0
ARC
8
DEFAULT_255_2_778
10
12.5699444
20
4.5576225
40
2.2229601
50
63.9390885
51
77.8574139
0
ARC
8
DEFAULT_255_2_778
10
12.8242987
20
5.0665853
40
1.6540074
50
22.8862724
51
64.108571
0
ARC
8
DEFAULT_255_2_778
10
12.3404898
20
4.8476019
40
2.1849356
50
11.6215337
51
23.2426432
0
ARC
8
DEFAULT_255_2_778
10
8.9583428
20
3.9963615
40
5.6712764
50
6.9967474
51
13.1620875
0
ARC
8
DEFAULT_255_2_778
10
7.3569805
20
3.7982811
40
7.2848423
50
3.3722666
51
7.0088491
0
ARC
8
DEFAULT_255_2_778
10
-1.8051599
20
3.3788164
40
16.456231
50
359.4935813
51
2.9537341
0
ARC
8
DEFAULT_255_2_778
10
-269.9393625
20
3.1776899
40
284.5897964
50
359.997616
51
0.0112094
0
ARC
8
DEFAULT_255_2_778
10
8.0656191
20
3.9651702
40
5.2704173
50
0.059557
51
12.6186314
0
ARC
8
DEFAULT_255_2_778
10
11.7606729
20
4.7702886
40
1.488884
50
13.4480408
51
27.7468664
0
ARC
8
DEFAULT_255_2_778
10
12.1859257
20
4.995764
40
1.0075573
50
27.6578487
51
75.6117851
0
ARC
8
DEFAULT_255_2_778
10
12.0365498
20
4.5554491
40
1.4716029
50
74.2381869
51
80.6855137
0
ARC
8
DEFAULT_255_2_778
10
10.9166585
20
-1.1657111
40
7.3007847
50
79.2795287
51
90.0001958
0
ARC
8
DEFAULT_255_2_778
10
10.9166086
20
-1.1657111
40
7.3007847
50
89.9998042
51
100.7204713
0
ARC
8
DEFAULT_255_2_778
10
9.8750603
20
4.2684105
40
1.7678062
50
100.3144656
51
120.7538158
0
ARC
8
DEFAULT_255_2_778
10
9.5209209
20
4.9331924
40
1.0160456
50
122.7616747
51
146.3809777
0
ARC
8
DEFAULT_255_2_778
10
9.6394371
20
4.8497862
40
1.1609241
50
146.1916177
51
150.9528524
0
ARC
8
DEFAULT_255_2_778
10
10.8151536
20
4.2673712
40
2.4723085
50
152.3825647
51
175.5461354
0
ARC
8
DEFAULT_255_2_778
10
13.0253183
20
4.0059898
40
4.6969394
50
174.4609032
51
178.8257115
0
ARC
8
DEFAULT_255_2_778
10
15.7018919
20
3.9333706
40
7.3744603
50
178.6877963
51
180.041349
0
ARC
8
DEFAULT_255_2_778
10
10.890279
20
-96.1813394
40
100.1421877
50
91.2954264
51
91.4664774
0
ARC
8
DEFAULT_255_2_778
10
11.6049215
20
-133.444678
40
137.4122183
50
90.2669321
51
91.2420668
0
ARC
8
DEFAULT_255_2_778
10
12.9348604
20
-418.938125
40
422.9087632
50
89.9457573
51
90.2669131
0
ARC
8
DEFAULT_255_2_778
10
7.5254542
20
4.837611
40
2.4012459
50
179.8752587
51
187.551431
0
ARC
8
DEFAULT_255_2_778
10
15.9717794
20
4.9292569
40
10.8479096
50
179.9091976
51
180.4564417
0
ARC
8
DEFAULT_255_2_778
10
1.8460628
20
5.0055014
40
3.2783527
50
358.9678783
51
5.4280533
0
ARC
8
DEFAULT_255_2_778
10
3.3265742
20
5.1182782
40
1.7940273
50
6.315267
51
8.0932188
0
ARC
8
DEFAULT_255_2_778
10
4.3799677
20
5.3029628
40
0.725947
50
5.3657705
51
64.4702784
0
ARC
8
DEFAULT_255_2_778
10
4.3570005
20
5.2225375
40
0.8085383
50
65.4579425
51
76.1146355
0
ARC
8
DEFAULT_255_2_778
10
3.5051953
20
2.4816493
40
3.6776404
50
73.4783562
51
85.0695762
0
ARC
8
DEFAULT_255_2_778
10
3.5436236
20
2.8448988
40
3.3124399
50
85.191802
51
89.9762462
0
ARC
8
DEFAULT_255_2_778
10
3.5247432
20
3.2806402
40
2.8767695
50
89.5966117
51
113.3025247
0
ARC
8
DEFAULT_255_2_778
10
2.9242657
20
4.6431014
40
1.3879617
50
112.7854618
51
128.7786808
0
ARC
8
DEFAULT_255_2_778
10
2.8938976
20
4.7307194
40
1.3010116
50
130.1529433
51
174.6438273
0
ARC
8
DEFAULT_255_2_778
10
3.7554105
20
4.5710509
40
2.1750863
50
172.5741749
51
180.1686478
0
ARC
8
DEFAULT_255_2_778
10
-2.3016626
20
6.9332093
40
3.8395499
50
354.9205169
51
359.487246
0
ARC
8
DEFAULT_255_2_778
10
-21.5693319
20
8.4514148
40
23.1667797
50
355.2099089
51
355.3995054
0
ARC
8
DEFAULT_255_2_778
10
6.1068886
20
6.0705054
40
4.6120053
50
174.4461477
51
179.1993833
0
ARC
8
DEFAULT_255_2_778
10
1.4892335
20
6.2257487
40
0.0910048
50
273.8434368
51
356.1565632
0
ARC
8
DEFAULT_255_2_778
10
3.3635813
20
4.5950877
40
2.4125175
50
98.1148989
51
137.670888
0
ARC
8
DEFAULT_255_2_778
10
4.0472514
20
1.2467931
40
5.8273698
50
94.4941104
51
100.1228815
0
ARC
8
DEFAULT_255_2_778
10
3.9513962
20
2.3756932
40
4.6944351
50
90.0512035
51
94.4074099
0
ARC
8
DEFAULT_255_2_778
10
3.9677272
20
3.224246
40
3.8459352
50
73.0568823
51
90.3057959
0
ARC
8
DEFAULT_255_2_778
10
3.9835932
20
3.3064754
40
3.7626615
50
72.6965003
51
72.9230919
0
ARC
8
DEFAULT_255_2_778
10
4.6101061
20
5.085467
40
1.8791047
50
61.4842094
51
74.8016903
0
ARC
8
DEFAULT_255_2_778
10
4.7742594
20
5.3999484
40
1.5244189
50
17.63976
51
61.2626595
0
ARC
8
DEFAULT_255_2_778
10
4.0436171
20
5.1309835
40
2.3024763
50
5.9872599
51
18.5085298
0
ARC
8
DEFAULT_255_2_778
10
4.1463484
20
5.063421
40
2.2087271
50
358.8653358
51
8.0087045
0
ARC
8
DEFAULT_255_2_778
10
-15.199716
20
4.9765713
40
21.5544014
50
359.9771458
51
0.1145995
0
LINE
8
DEFAULT_255_2_778
10
6.3546836
20
4.9679736
11
6.3546836
21
4.9669976
0
ARC
8
DEFAULT_255_2_778
10
8.9985216
20
4.9003527
40
2.6446779
50
178.5560153
51
186.9008553
0
ARC
8
DEFAULT_255_2_778
10
7.501709
20
4.7514693
40
1.1412701
50
188.509568
51
189.4214536
0
ARC
8
DEFAULT_255_2_778
10
5.6356511
20
11.6799499
40
7.1536971
50
271.1268341
51
275.9389386
0
ARC
8
DEFAULT_255_2_778
10
5.2519989
20
29.4403814
40
24.9182625
50
269.7540487
51
271.2057174
0
LINE
8
DEFAULT_255_2_778
10
14.6515336
20
3.1642486
11
8.3279336
21
3.1642486
0
LINE
8
DEFAULT_255_2_778
10
13.2929336
20
1.6814486
11
13.2929336
21
1.9783486
0
LINE
8
DEFAULT_255_2_778
10
13.2929336
20
1.9783486
11
14.6510336
21
1.9783486
0
LINE
8
DEFAULT_255_2_778
10
14.6504336
20
3.1658486
11
14.6515336
21
3.1642486
0
LINE
8
DEFAULT_255_2_778
10
13.3352336
20
3.9704486
11
13.3360336
21
3.9706486
0
LINE
8
DEFAULT_255_2_778
10
1.5803336
20
4.5646486
11
1.5803336
21
-0.1039514
0
LINE
8
DEFAULT_255_2_778
10
1.5803336
20
-0.1039514
11
0.2645336
21
-0.1039514
0
LINE
8
DEFAULT_255_2_778
10
0.2645336
20
-0.1039514
11
0.2645336
21
6.8988486
0
LINE
8
DEFAULT_255_2_778
10
0.2645336
20
6.8988486
11
1.5377336
21
6.8988486
0
LINE
8
DEFAULT_255_2_778
10
5.1450336
20
4.5223486
11
5.1450336
21
4.5220486
0
LINE
8
DEFAULT_255_2_778
10
15.7125336
20
-0.1912514
11
15.7125336
21
1.1668486
0
LINE
8
DEFAULT_255_2_778
10
15.7125336
20
1.1668486
11
17.1978336
21
1.1668486
0
LINE
8
DEFAULT_255_2_778
10
17.1978336
20
1.1668486
11
17.1978336
21
-0.1912514
0
LINE
8
DEFAULT_255_2_778
10
17.1978336
20
-0.1912514
11
15.7125336
21
-0.1912514
0
LINE
8
DEFAULT_255_2_778
10
15.7125336
20
-0.1912514
11
15.7125336
21
-0.1912514
0
LINE
8
DEFAULT_255_2_778
10
17.1978336
20
5.4557486
11
15.7125336
21
5.4557486
0
LINE
8
DEFAULT_255_2_778
10
15.7125336
20
5.4557486
11
15.7125336
21
6.8138486
0
LINE
8
DEFAULT_255_2_778
10
15.7125336
20
6.8138486
11
17.1978336
21
6.8138486
0
LINE
8
DEFAULT_255_2_778
10
17.1978336
20
6.8138486
11
17.1978336
21
5.4557486
0
LINE
8
DEFAULT_255_2_778
10
17.1978336
20
5.4557486
11
17.1978336
21
5.4557486
0
ENDSEC
0
EOF