0
SECTION
2
HEADER
9
$MEASUREMENT
70
1
0
ENDSEC
0
SECTION
2
TABLES
0
TABLE
2
LTYPE
0
LTYPE
72
65
70
64
2
CONTINUOUS
3
______
73
0
40
0
0
ENDTAB
0
TABLE
2
LAYER
0
LAYER
2
DEFAULT_255_2_778
70
0
62
255
6
CONTINUOUS
0
ENDTAB
0
ENDSEC
0
SECTION
2
ENTITIES
0
LINE
8
DEFAULT_255_2_778
10
12.7820736
20
9.6651664
11
12.7820736
21
14.3093664
0
LINE
8
DEFAULT_255_2_778
10
12.7820736
20
14.3093664
11
8.4693736
21
16.8009664
0
LINE
8
DEFAULT_255_2_778
10
8.4693736
20
16.8009664
11
4.1566736
21
14.3093664
0
LINE
8
DEFAULT_255_2_778
10
4.1566736
20
14.3093664
11
4.1566736
21
9.6572664
0
LINE
8
DEFAULT_255_2_778
10
4.1566736
20
9.6572664
11
0.1349736
21
7.3426664
0
LINE
8
DEFAULT_255_2_778
10
0.1349736
20
7.3426664
11
0.1349736
21
2.3591664
0
LINE
8
DEFAULT_255_2_778
10
0.1349736
20
2.3591664
11
4.4529736
21
-0.1323336
0
LINE
8
DEFAULT_255_2_778
10
4.4529736
20
-0.1323336
11
8.4693736
21
2.1898664
0
LINE
8
DEFAULT_255_2_778
10
8.4693736
20
2.1898664
11
12.4856736
21
-0.1323336
0
LINE
8
DEFAULT_255_2_778
10
12.4856736
20
-0.1323336
11
16.7984736
21
2.3591664
0
LINE
8
DEFAULT_255_2_778
10
16.7984736
20
2.3591664
11
16.7984736
21
7.3426664
0
LINE
8
DEFAULT_255_2_778
10
16.7984736
20
7.3426664
11
12.7820736
21
9.6651664
0
LINE
8
DEFAULT_255_2_778
10
8.4693736
20
7.5220664
11
5.0408736
21
9.5053664
0
LINE
8
DEFAULT_255_2_778
10
5.0408736
20
9.5053664
11
8.4693736
21
11.4886664
0
LINE
8
DEFAULT_255_2_778
10
8.4693736
20
11.4886664
11
11.8977736
21
9.5053664
0
LINE
8
DEFAULT_255_2_778
10
11.8977736
20
9.5053664
11
8.4693736
21
7.5220664
0
LINE
8
DEFAULT_255_2_778
10
4.7418736
20
8.9870664
11
8.1703736
21
7.0034664
0
LINE
8
DEFAULT_255_2_778
10
8.1703736
20
7.0034664
11
8.1703736
21
3.0465664
0
LINE
8
DEFAULT_255_2_778
10
8.1703736
20
3.0465664
11
4.7418736
21
5.0296664
0
LINE
8
DEFAULT_255_2_778
10
4.7418736
20
5.0296664
11
4.7418736
21
8.9870664
0
LINE
8
DEFAULT_255_2_778
10
8.7582736
20
7.0036664
11
12.1867736
21
8.9870664
0
LINE
8
DEFAULT_255_2_778
10
12.1867736
20
8.9870664
11
12.1867736
21
5.0301664
0
LINE
8
DEFAULT_255_2_778
10
12.1867736
20
5.0301664
11
8.7582736
21
3.0569664
0
LINE
8
DEFAULT_255_2_778
10
8.7582736
20
3.0569664
11
8.7582736
21
7.0036664
0
LINE
8
DEFAULT_255_2_778
10
4.7418736
20
13.9699664
11
8.4693736
21
16.1230664
0
LINE
8
DEFAULT_255_2_778
10
8.4693736
20
16.1230664
11
12.1967736
21
13.9699664
0
LINE
8
DEFAULT_255_2_778
10
12.1967736
20
13.9699664
11
12.1967736
21
10.0130664
0
LINE
8
DEFAULT_255_2_778
10
12.1967736
20
10.0130664
11
8.4693736
21
12.1665664
0
LINE
8
DEFAULT_255_2_778
10
8.4693736
20
12.1665664
11
4.7418736
21
10.0135664
0
LINE
8
DEFAULT_255_2_778
10
4.7418736
20
10.0135664
11
4.7418736
21
13.9699664
0
LINE
8
DEFAULT_255_2_778
10
0.7249736
20
2.7081664
11
0.7249736
21
7.0113664
0
LINE
8
DEFAULT_255_2_778
10
0.7249736
20
7.0113664
11
4.1534736
21
8.9946664
0
LINE
8
DEFAULT_255_2_778
10
4.1534736
20
8.9946664
11
4.1534736
21
4.7015664
0
LINE
8
DEFAULT_255_2_778
10
4.1534736
20
4.7015664
11
7.8808736
21
2.5486664
0
LINE
8
DEFAULT_255_2_778
10
7.8808736
20
2.5486664
11
4.4423736
21
0.5653664
0
LINE
8
DEFAULT_255_2_778
10
4.4423736
20
0.5653664
11
0.7249736
21
2.7081664
0
LINE
8
DEFAULT_255_2_778
10
16.2131736
20
2.7081664
11
12.4856736
21
0.5555664
0
LINE
8
DEFAULT_255_2_778
10
12.4856736
20
0.5555664
11
9.0471736
21
2.5388664
0
LINE
8
DEFAULT_255_2_778
10
9.0471736
20
2.5388664
11
12.7746736
21
4.6917664
0
LINE
8
DEFAULT_255_2_778
10
12.7746736
20
4.6917664
11
12.7746736
21
8.9870664
0
LINE
8
DEFAULT_255_2_778
10
12.7746736
20
8.9870664
11
16.2030736
21
7.0034664
0
LINE
8
DEFAULT_255_2_778
10
16.2030736
20
7.0034664
11
16.2131736
21
2.7081664
0
ENDSEC
0
EOF