0
SECTION
2
HEADER
9
$MEASUREMENT
70
1
0
ENDSEC
0
SECTION
2
TABLES
0
TABLE
2
LTYPE
0
LTYPE
72
65
70
64
2
CONTINUOUS
3
______
73
0
40
0
0
ENDTAB
0
TABLE
2
LAYER
0
LAYER
2
DEFAULT_255_2_778
70
0
62
255
6
CONTINUOUS
0
LAYER
2
DEFAULT_255_1_388
70
0
62
255
6
CONTINUOUS
0
ENDTAB
0
ENDSEC
0
SECTION
2
ENTITIES
0
ARC
8
DEFAULT_255_2_778
10
3.5700693
20
171.0552017
40
0.7914215
50
129.1312896
51
180.1450914
0
ARC
8
DEFAULT_255_2_778
10
3.5703345
20
171.0556888
40
0.7912112
50
89.854026
51
129.1684493
0
ARC
8
DEFAULT_255_2_778
10
25.7993937
20
171.0553754
40
0.7915249
50
39.4792447
51
90.147911
0
ARC
8
DEFAULT_255_2_778
10
25.7999935
20
171.055222
40
0.7911595
50
359.8533901
51
39.5154338
0
ARC
8
DEFAULT_255_2_778
10
25.7996693
20
-1.9863506
40
0.7914836
50
309.4761667
51
0.1482649
0
ARC
8
DEFAULT_255_2_778
10
25.799398
20
-1.9867816
40
0.7913235
50
269.8517415
51
309.511178
0
ARC
8
DEFAULT_255_2_778
10
3.570342
20
-1.9867235
40
0.7913815
50
219.1282118
51
270.1454017
0
ARC
8
DEFAULT_255_2_778
10
3.5700247
20
-1.986341
40
0.7913769
50
179.8524075
51
219.1641908
0
LINE
8
DEFAULT_255_2_778
10
3.5723503
20
171.8468976
11
25.7973503
21
171.8468976
0
LINE
8
DEFAULT_255_2_778
10
26.5911503
20
171.0531976
11
26.5911503
21
-1.9843024
0
LINE
8
DEFAULT_255_2_778
10
25.7973503
20
-2.7781024
11
3.5723503
21
-2.7781024
0
LINE
8
DEFAULT_255_2_778
10
2.7786503
20
-1.9843024
11
2.7786503
21
171.0531976
0
LINE
8
DEFAULT_255_1_388
10
10.6129094
20
-0.1247683
11
10.3029868
21
-0.1247683
0
LINE
8
DEFAULT_255_1_388
10
10.3029868
20
-0.1247683
11
10.3029868
21
-0.6398
0
LINE
8
DEFAULT_255_1_388
10
10.3029868
20
-0.6398
11
10.1295024
21
-0.6398
0
LINE
8
DEFAULT_255_1_388
10
10.1295024
20
-0.6398
11
10.1295024
21
0.6757898
0
LINE
8
DEFAULT_255_1_388
10
10.1295024
20
0.6757898
11
10.6147165
21
0.6757898
0
LINE
8
DEFAULT_255_1_388
10
10.3029868
20
0.5330267
11
10.3029868
21
0.0170914
0
LINE
8
DEFAULT_255_1_388
10
10.3029868
20
0.0170914
11
10.6147165
21
0.0170914
0
LINE
8
DEFAULT_255_1_388
10
10.6246557
20
0.5330267
11
10.3029868
21
0.5330267
0
ARC
8
DEFAULT_255_1_388
10
10.6194538
20
-0.0058666
40
0.6816729
50
78.8380084
51
90.398184
0
ARC
8
DEFAULT_255_1_388
10
10.6662569
20
0.2214796
40
0.449571
50
58.9633273
51
79.0810717
0
ARC
8
DEFAULT_255_1_388
10
10.7001953
20
0.2844823
40
0.3781049
50
48.0194715
51
58.4475592
0
ARC
8
DEFAULT_255_1_388
10
10.7101773
20
0.2940818
40
0.3642936
50
3.3374546
51
48.1766642
0
ARC
8
DEFAULT_255_1_388
10
10.571658
20
0.2741581
40
0.5038766
50
359.9483251
51
4.6822857
0
ARC
8
DEFAULT_255_1_388
10
10.5856503
20
0.2693779
40
0.4899031
50
346.1879032
51
0.5059221
0
ARC
8
DEFAULT_255_1_388
10
10.7385295
20
0.2296763
40
0.3319729
50
310.8832219
51
346.5426612
0
ARC
8
DEFAULT_255_1_388
10
10.7038143
20
0.2765853
40
0.3901853
50
286.6925305
51
310.228778
0
ARC
8
DEFAULT_255_1_388
10
10.6397873
20
0.4779585
40
0.6014737
50
274.6848219
51
287.0247342
0
ARC
8
DEFAULT_255_1_388
10
10.6144422
20
0.7264088
40
0.8511785
50
269.8968222
51
275.0192639
0
ARC
8
DEFAULT_255_1_388
10
10.6175415
20
0.4926144
40
0.4755314
50
269.6596206
51
279.4150542
0
ARC
8
DEFAULT_255_1_388
10
10.6464873
20
0.3248945
40
0.3053379
50
279.2050006
51
294.9901776
0
ARC
8
DEFAULT_255_1_388
10
10.6791508
20
0.2520353
40
0.2255036
50
295.2886769
51
311.2912669
0
ARC
8
DEFAULT_255_1_388
10
10.6871249
20
0.2401938
40
0.2113522
50
311.7853512
51
347.2860549
0
ARC
8
DEFAULT_255_1_388
10
10.576441
20
0.268643
40
0.3256011
50
346.6891629
51
0.1057086
0
ARC
8
DEFAULT_255_1_388
10
10.484187
20
0.2719247
40
0.417863
50
359.63239
51
359.9961329
0
ARC
8
DEFAULT_255_1_388
10
10.6006475
20
0.2746987
40
0.3014155
50
359.4673371
51
15.5931159
0
ARC
8
DEFAULT_255_1_388
10
10.6709538
20
0.2936937
40
0.2285918
50
15.7441779
51
46.620186
0
ARC
8
DEFAULT_255_1_388
10
10.6543298
20
0.2745361
40
0.2539359
50
46.8628482
51
75.6676625
0
ARC
8
DEFAULT_255_1_388
10
10.6212354
20
0.1554243
40
0.3775415
50
75.2763152
51
88.2916439
0
ARC
8
DEFAULT_255_1_388
10
10.6146354
20
0.0552097
40
0.4779221
50
87.8589087
51
88.7986197
0
LINE
8
DEFAULT_255_1_388
10
11.4965954
20
-0.0371225
11
11.4965954
21
0.0993157
0
LINE
8
DEFAULT_255_1_388
10
11.4965954
20
0.0993157
11
11.6221909
21
0.0993157
0
LINE
8
DEFAULT_255_1_388
10
11.4080461
20
0.3306282
11
11.2408867
21
0.3306282
0
LINE
8
DEFAULT_255_1_388
10
11.2291403
20
-0.2928313
11
11.3972033
21
-0.2928313
0
LINE
8
DEFAULT_255_1_388
10
11.6221909
20
-0.0371225
11
11.4965954
21
-0.0371225
0
ARC
8
DEFAULT_255_1_388
10
11.6189135
20
0.4809922
40
0.3816905
50
270.491971
51
281.8953028
0
ARC
8
DEFAULT_255_1_388
10
11.6460562
20
0.3570199
40
0.2547877
50
281.6690378
51
301.2943765
0
ARC
8
DEFAULT_255_1_388
10
11.6652013
20
0.3219926
40
0.2149197
50
301.7834992
51
311.754567
0
ARC
8
DEFAULT_255_1_388
10
11.6755055
20
0.310565
40
0.1995326
50
311.7325027
51
354.2803031
0
ARC
8
DEFAULT_255_1_388
10
11.5937471
20
0.324628
40
0.2823461
50
353.0941646
51
0.1174696
0
ARC
8
DEFAULT_255_1_388
10
11.5419029
20
0.3299874
40
0.3342238
50
359.1804452
51
15.0452323
0
ARC
8
DEFAULT_255_1_388
10
11.6933087
20
0.3741546
40
0.1765747
50
13.957816
51
77.6713812
0
ARC
8
DEFAULT_255_1_388
10
11.6498323
20
0.2183464
40
0.3381982
50
76.111571
51
90.7028736
0
ARC
8
DEFAULT_255_1_388
10
11.6431735
20
0.249125
40
0.3074046
50
89.5321574
51
103.5319393
0
ARC
8
DEFAULT_255_1_388
10
11.6206119
20
0.3390443
40
0.2147041
50
103.2930114
51
133.5619756
0
ARC
8
DEFAULT_255_1_388
10
11.615606
20
0.3457351
40
0.2064084
50
133.8349761
51
173.5343225
0
ARC
8
DEFAULT_255_1_388
10
11.6969718
20
0.3313144
40
0.2889266
50
172.5097183
51
180.1360699
0
ARC
8
DEFAULT_255_1_388
10
11.5899482
20
0.335188
40
0.3490913
50
155.3483706
51
180.7484035
0
ARC
8
DEFAULT_255_1_388
10
11.5844457
20
0.3319519
40
0.3454798
50
131.5745177
51
154.4799474
0
ARC
8
DEFAULT_255_1_388
10
11.619674
20
0.2963422
40
0.3955058
50
96.9874487
51
131.9690874
0
ARC
8
DEFAULT_255_1_388
10
11.6443632
20
0.1562407
40
0.537622
50
89.8592909
51
97.7827481
0
ARC
8
DEFAULT_255_1_388
10
11.6497741
20
0.126736
40
0.5671399
50
78.3654493
51
90.4132586
0
ARC
8
DEFAULT_255_1_388
10
11.6900382
20
0.3133918
40
0.3762034
50
56.6229818
51
78.6387103
0
ARC
8
DEFAULT_255_1_388
10
11.7142212
20
0.3556846
40
0.3275964
50
47.0254604
51
56.085558
0
ARC
8
DEFAULT_255_1_388
10
11.7164463
20
0.3601189
40
0.3228382
50
10.9207523
51
46.777927
0
ARC
8
DEFAULT_255_1_388
10
11.5630057
20
0.3246401
40
0.4802559
50
359.6364235
51
11.6087615
0
ARC
8
DEFAULT_255_1_388
10
11.7694222
20
0.3229404
40
0.273833
50
332.3549969
51
359.7179765
0
ARC
8
DEFAULT_255_1_388
10
11.6962623
20
0.3576285
40
0.3547505
50
325.2332381
51
332.8746682
0
ARC
8
DEFAULT_255_1_388
10
11.7134206
20
0.3456763
40
0.3338396
50
292.9803892
51
325.2391113
0
ARC
8
DEFAULT_255_1_388
10
11.6823402
20
0.4061679
40
0.4016959
50
292.542178
51
293.6931461
0
ARC
8
DEFAULT_255_1_388
10
11.7266974
20
-0.3203964
40
0.372079
50
57.643292
51
72.8626085
0
ARC
8
DEFAULT_255_1_388
10
11.7665808
20
-0.2557727
40
0.2961455
50
36.7246661
51
57.4701329
0
ARC
8
DEFAULT_255_1_388
10
11.7652965
20
-0.254353
40
0.2963321
50
8.054535
51
36.3561529
0
ARC
8
DEFAULT_255_1_388
10
11.6682637
20
-0.2717927
40
0.3948682
50
359.8316595
51
8.5873361
0
ARC
8
DEFAULT_255_1_388
10
11.6260112
20
-0.277203
40
0.4371398
50
343.9831631
51
0.557075
0
ARC
8
DEFAULT_255_1_388
10
11.7257161
20
-0.3045037
40
0.3337749
50
311.6358204
51
343.7652116
0
ARC
8
DEFAULT_255_1_388
10
11.6831415
20
-0.2565045
40
0.3979351
50
279.7829743
51
311.625622
0
ARC
8
DEFAULT_255_1_388
10
11.649255
20
-0.0948358
40
0.5630417
50
269.7285092
51
280.3857694
0
ARC
8
DEFAULT_255_1_388
10
11.6422863
20
-0.0994759
40
0.5584119
50
256.6827433
51
270.4412869
0
ARC
8
DEFAULT_255_1_388
10
11.604185
20
-0.2552302
40
0.3980715
50
229.4223821
51
256.8554507
0
ARC
8
DEFAULT_255_1_388
10
11.5575403
20
-0.3077317
40
0.3278564
50
181.8183354
51
229.6455015
0
ARC
8
DEFAULT_255_1_388
10
11.6745013
20
-0.2930175
40
0.4453611
50
179.9760419
51
183.2330638
0
ARC
8
DEFAULT_255_1_388
10
11.6551565
20
-0.2953219
40
0.2579652
50
179.4467996
51
196.2871626
0
ARC
8
DEFAULT_255_1_388
10
11.6003019
20
-0.3103291
40
0.2011057
50
196.5661293
51
227.7059371
0
ARC
8
DEFAULT_255_1_388
10
11.6187626
20
-0.2896845
40
0.2287994
50
227.7653015
51
257.8763321
0
ARC
8
DEFAULT_255_1_388
10
11.6440709
20
-0.1836039
40
0.3378385
50
257.4583525
51
270.4267406
0
ARC
8
DEFAULT_255_1_388
10
11.6491958
20
-0.150977
40
0.3704652
50
269.5965319
51
280.8788143
0
ARC
8
DEFAULT_255_1_388
10
11.6750187
20
-0.2799471
40
0.2389415
50
280.6347277
51
299.8594068
0
ARC
8
DEFAULT_255_1_388
10
11.6964956
20
-0.3207264
40
0.19289
50
300.3575552
51
314.5515667
0
ARC
8
DEFAULT_255_1_388
10
11.6871632
20
-0.3138975
40
0.204312
50
315.0730962
51
345.0429362
0
ARC
8
DEFAULT_255_1_388
10
11.5833139
20
-0.2836461
40
0.31246
50
344.598526
51
357.9270698
0
ARC
8
DEFAULT_255_1_388
10
11.4823444
20
-0.2767295
40
0.4136265
50
357.4755098
51
0.0224936
0
ARC
8
DEFAULT_255_1_388
10
11.5976322
20
-0.2739901
40
0.2983498
50
359.5051035
51
13.4236939
0
ARC
8
DEFAULT_255_1_388
10
11.6951412
20
-0.2490363
40
0.1977186
50
12.9497905
51
48.7550905
0
ARC
8
DEFAULT_255_1_388
10
11.6746334
20
-0.2770627
40
0.2323321
50
49.509109
51
72.1832965
0
ARC
8
DEFAULT_255_1_388
10
11.6343802
20
-0.3965368
40
0.358397
50
71.9008458
51
84.3555134
0
ARC
8
DEFAULT_255_1_388
10
11.6162197
20
-0.5497288
40
0.512641
50
84.019632
51
89.3326067
0
LINE
8
DEFAULT_255_1_388
10
12.6576757
20
-0.0127263
11
12.6576757
21
-0.1491645
0
LINE
8
DEFAULT_255_1_388
10
12.6576757
20
-0.1491645
11
12.2167363
21
-0.1491645
0
LINE
8
DEFAULT_255_1_388
10
12.2167363
20
-0.1491645
11
12.2167363
21
-0.0127263
0
LINE
8
DEFAULT_255_1_388
10
12.2167363
20
-0.0127263
11
12.6576757
21
-0.0127263
0
LINE
8
DEFAULT_255_1_388
10
13.3525168
20
0.6821148
11
13.3525168
21
-0.6398
0
LINE
8
DEFAULT_255_1_388
10
13.3525168
20
-0.6398
11
13.1844538
21
-0.6398
0
LINE
8
DEFAULT_255_1_388
10
13.1844538
20
-0.6398
11
13.1844538
21
0.474295
0
LINE
8
DEFAULT_255_1_388
10
13.1844538
20
0.474295
11
12.8474243
21
0.3505066
0
LINE
8
DEFAULT_255_1_388
10
12.8474243
20
0.3505066
11
12.8474243
21
0.5023055
0
LINE
8
DEFAULT_255_1_388
10
12.8474243
20
0.5023055
11
13.3263134
21
0.6821148
0
LINE
8
DEFAULT_255_1_388
10
13.3263134
20
0.6821148
11
13.3525168
21
0.6821148
0
LINE
8
DEFAULT_255_1_388
10
14.4684189
20
0.6766934
11
14.4982365
21
0.6766934
0
LINE
8
DEFAULT_255_1_388
10
14.4982365
20
0.6766934
11
14.4982365
21
0.5348338
0
LINE
8
DEFAULT_255_1_388
10
14.4982365
20
0.5348338
11
14.4675153
21
0.5348338
0
LINE
8
DEFAULT_255_1_388
10
13.8521879
20
-0.1392253
11
13.8521879
21
-0.0750722
0
LINE
8
DEFAULT_255_1_388
10
14.0202509
20
-0.0967578
11
14.0202509
21
-0.1582001
0
ARC
8
DEFAULT_255_1_388
10
14.4734045
20
-0.0274174
40
0.562282
50
90.6001079
51
104.5146616
0
ARC
8
DEFAULT_255_1_388
10
14.4297004
20
0.13511
40
0.3939917
50
104.2855758
51
133.8630124
0
ARC
8
DEFAULT_255_1_388
10
14.4481257
20
0.1229243
40
0.4155734
50
134.5304124
51
161.6210222
0
ARC
8
DEFAULT_255_1_388
10
14.6341189
20
0.0573421
40
0.6127682
50
161.2850533
51
174.2074364
0
ARC
8
DEFAULT_255_1_388
10
14.7930756
20
0.0354437
40
0.7731446
50
173.7817938
51
174.9251711
0
ARC
8
DEFAULT_255_1_388
10
14.280495
20
-0.120073
40
0.3412588
50
95.8332067
51
138.995412
0
ARC
8
DEFAULT_255_1_388
10
14.305623
20
-0.2639305
40
0.4870358
50
89.8755506
51
97.0540979
0
ARC
8
DEFAULT_255_1_388
10
14.3109619
20
-0.1699159
40
0.3930432
50
71.6407016
51
90.6240821
0
ARC
8
DEFAULT_255_1_388
10
14.3279013
20
-0.1075567
40
0.3285421
50
39.6368051
51
71.0190743
0
ARC
8
DEFAULT_255_1_388
10
14.256292
20
-0.1694414
40
0.4231706
50
10.6588054
51
39.9044509
0
ARC
8
DEFAULT_255_1_388
10
14.0821466
20
-0.2072777
40
0.60133
50
359.6827842
51
11.1326896
0
ARC
8
DEFAULT_255_1_388
10
14.0776802
20
-0.2152285
40
0.6058047
50
347.2485908
51
0.4371098
0
ARC
8
DEFAULT_255_1_388
10
14.2652587
20
-0.2603621
40
0.4128987
50
318.1408565
51
347.6118497
0
ARC
8
DEFAULT_255_1_388
10
14.3018184
20
-0.2904097
40
0.3656244
50
275.6342406
51
317.824739
0
ARC
8
DEFAULT_255_1_388
10
14.2769705
20
-0.1442173
40
0.513655
50
269.8872513
51
276.7916069
0
ARC
8
DEFAULT_255_1_388
10
14.2707897
20
-0.2595819
40
0.398323
50
246.9139443
51
270.7436787
0
ARC
8
DEFAULT_255_1_388
10
14.2715093
20
-0.2755956
40
0.3839368
50
218.1665534
51
245.8780431
0
ARC
8
DEFAULT_255_1_388
10
14.3704465
20
-0.1928097
40
0.5128958
50
191.4115343
51
218.6077624
0
ARC
8
DEFAULT_255_1_388
10
14.5884781
20
-0.1439223
40
0.7363054
50
179.6344971
51
191.7836758
0
ARC
8
DEFAULT_255_1_388
10
15.2164656
20
-0.0675505
40
1.3642984
50
171.4523743
51
180.3158856
0
ARC
8
DEFAULT_255_1_388
10
14.7220383
20
0.0093895
40
0.8639311
50
157.9802296
51
171.6246761
0
ARC
8
DEFAULT_255_1_388
10
14.4729733
20
0.1087038
40
0.5958004
50
141.4299236
51
157.8541251
0
ARC
8
DEFAULT_255_1_388
10
14.4007817
20
0.1597746
40
0.5075416
50
102.871586
51
140.8564533
0
ARC
8
DEFAULT_255_1_388
10
14.473637
20
-0.1147057
40
0.7914163
50
90.377773
51
103.5868422
0
ARC
8
DEFAULT_255_1_388
10
14.2780891
20
-0.1827457
40
0.2667015
50
89.8751238
51
126.2072139
0
ARC
8
DEFAULT_255_1_388
10
14.2832362
20
-0.2001153
40
0.2838229
50
124.9742447
51
144.8960197
0
ARC
8
DEFAULT_255_1_388
10
14.2634607
20
-0.1840019
40
0.2583845
50
145.2974778
51
160.2660922
0
ARC
8
DEFAULT_255_1_388
10
14.6091095
20
-0.1617849
40
0.5888695
50
179.6512124
51
190.285571
0
ARC
8
DEFAULT_255_1_388
10
14.4185575
20
-0.1977032
40
0.3949683
50
190.0944895
51
207.5099647
0
ARC
8
DEFAULT_255_1_388
10
14.3549157
20
-0.2279823
40
0.3245464
50
207.9585471
51
216.325377
0
ARC
8
DEFAULT_255_1_388
10
14.3166794
20
-0.2594288
40
0.2751259
50
215.7661336
51
232.5457193
0
ARC
8
DEFAULT_255_1_388
10
14.2735909
20
-0.3141727
40
0.2054668
50
232.8005815
51
270.6605497
0
ARC
8
DEFAULT_255_1_388
10
14.2787334
20
-0.2732147
40
0.2464268
50
269.3550767
51
288.474612
0
ARC
8
DEFAULT_255_1_388
10
14.2891841
20
-0.3125279
40
0.2058436
50
289.1831976
51
322.9685307
0
ARC
8
DEFAULT_255_1_388
10
14.2203942
20
-0.2582721
40
0.2934408
50
322.6007085
51
346.5183319
0
ARC
8
DEFAULT_255_1_388
10
14.0901699
20
-0.2250566
40
0.4278249
50
346.2584622
51
358.7739592
0
ARC
8
DEFAULT_255_1_388
10
13.9750274
20
-0.2188171
40
0.5430876
50
358.3757628
51
0.0082477
0
ARC
8
DEFAULT_255_1_388
10
14.0607092
20
-0.2157144
40
0.4574157
50
359.6211417
51
11.28403
0
ARC
8
DEFAULT_255_1_388
10
14.2043699
20
-0.1857465
40
0.3106708
50
11.0483152
51
31.8145585
0
ARC
8
DEFAULT_255_1_388
10
14.2391404
20
-0.1668955
40
0.2711963
50
32.3028554
51
38.0820598
0
ARC
8
DEFAULT_255_1_388
10
14.2864637
20
-0.1240283
40
0.2075566
50
36.8249851
51
85.741667
0
ARC
8
DEFAULT_255_1_388
10
14.2789049
20
-0.1803935
40
0.2643487
50
85.0150021
51
90.050843
0
LINE
8
DEFAULT_255_1_388
10
15.9358076
20
0.6757898
11
15.9358076
21
-0.6398
0
LINE
8
DEFAULT_255_1_388
10
15.9358076
20
-0.6398
11
15.7614196
21
-0.6398
0
LINE
8
DEFAULT_255_1_388
10
15.7614196
20
-0.6398
11
15.0991069
21
0.3739993
0
LINE
8
DEFAULT_255_1_388
10
15.0991069
20
0.3739993
11
15.0991069
21
-0.6398
0
LINE
8
DEFAULT_255_1_388
10
15.0991069
20
-0.6398
11
14.9247189
21
-0.6398
0
LINE
8
DEFAULT_255_1_388
10
14.9247189
20
-0.6398
11
14.9247189
21
0.6757898
0
LINE
8
DEFAULT_255_1_388
10
14.9247189
20
0.6757898
11
15.0991069
21
0.6757898
0
LINE
8
DEFAULT_255_1_388
10
15.0991069
20
0.6757898
11
15.7632268
21
-0.3425273
0
LINE
8
DEFAULT_255_1_388
10
15.7632268
20
-0.3425273
11
15.7632268
21
0.6757898
0
LINE
8
DEFAULT_255_1_388
10
15.7632268
20
0.6757898
11
15.9358076
21
0.6757898
0
LINE
8
DEFAULT_255_1_388
10
16.6080595
20
-0.6398
11
16.243923
21
-0.6398
0
LINE
8
DEFAULT_255_1_388
10
16.243923
20
-0.6398
11
16.243923
21
0.6757898
0
LINE
8
DEFAULT_255_1_388
10
16.243923
20
0.6757898
11
16.615288
21
0.6757898
0
LINE
8
DEFAULT_255_1_388
10
17.1953764
20
0.0622696
11
17.1953764
21
-0.0217619
0
LINE
8
DEFAULT_255_1_388
10
16.6198059
20
0.5330267
11
16.4174074
21
0.5330267
0
LINE
8
DEFAULT_255_1_388
10
16.4174074
20
0.5330267
11
16.4174074
21
-0.4979404
0
LINE
8
DEFAULT_255_1_388
10
16.4174074
20
-0.4979404
11
16.5999274
21
-0.4979404
0
LINE
8
DEFAULT_255_1_388
10
17.0236992
20
-0.0181477
11
17.0236992
21
0.0586553
0
ARC
8
DEFAULT_255_1_388
10
16.6196675
20
0.0159436
40
0.6598608
50
75.4100343
51
90.3802731
0
ARC
8
DEFAULT_255_1_388
10
16.6454921
20
0.1235691
40
0.5492049
50
60.1455157
51
75.1889627
0
ARC
8
DEFAULT_255_1_388
10
16.6633512
20
0.1546914
40
0.5133226
50
26.525419
51
60.1451222
0
ARC
8
DEFAULT_255_1_388
10
16.5373298
20
0.0878642
40
0.6559324
50
7.4029944
51
26.832209
0
ARC
8
DEFAULT_255_1_388
10
16.3579696
20
0.0599229
40
0.8374103
50
0.1605597
51
7.7176135
0
ARC
8
DEFAULT_255_1_388
10
16.3764096
20
-0.0260679
40
0.8189782
50
348.7289744
51
0.30125
0
ARC
8
DEFAULT_255_1_388
10
16.562756
20
-0.0630844
40
0.628991
50
333.0706936
51
348.7181455
0
ARC
8
DEFAULT_255_1_388
10
16.6715188
20
-0.1221551
40
0.5052808
50
299.2531435
51
333.4571133
0
ARC
8
DEFAULT_255_1_388
10
16.6309219
20
-0.0450371
40
0.5924066
50
278.1072193
51
299.0340218
0
ARC
8
DEFAULT_255_1_388
10
16.6021268
20
0.1245979
40
0.7644209
50
270.4446841
51
278.4508355
0
ARC
8
DEFAULT_255_1_388
10
16.6044751
20
0.02003
40
0.5179903
50
269.4969684
51
284.0204874
0
ARC
8
DEFAULT_255_1_388
10
16.644447
20
-0.1335585
40
0.3592968
50
283.7699076
51
318.1557121
0
ARC
8
DEFAULT_255_1_388
10
16.6065015
20
-0.1051601
40
0.4065308
50
318.7417595
51
343.687252
0
ARC
8
DEFAULT_255_1_388
10
16.4035594
20
-0.0417725
40
0.6191194
50
343.3324891
51
355.8548594
0
ARC
8
DEFAULT_255_1_388
10
16.1674631
20
-0.0193281
40
0.856237
50
355.4988754
51
0.0789913
0
ARC
8
DEFAULT_255_1_388
10
16.255543
20
0.063408
40
0.7681709
50
359.6455047
51
9.8607559
0
ARC
8
DEFAULT_255_1_388
10
16.5211154
20
0.1113664
40
0.498312
50
9.6573037
51
26.1931522
0
ARC
8
DEFAULT_255_1_388
10
16.6255228
20
0.1598587
40
0.3832303
50
26.5777895
51
40.1533752
0
ARC
8
DEFAULT_255_1_388
10
16.6542893
20
0.182302
40
0.3467742
50
40.3839958
51
80.1430923
0
ARC
8
DEFAULT_255_1_388
10
16.6175149
20
0.0192486
40
0.5137832
50
79.2153636
51
89.7445174
0
LINE
8
DEFAULT_255_1_388
10
17.6570979
20
-0.0371225
11
17.6570979
21
0.0993157
0
LINE
8
DEFAULT_255_1_388
10
17.6570979
20
0.0993157
11
17.7826933
21
0.0993157
0
LINE
8
DEFAULT_255_1_388
10
17.5685485
20
0.3306282
11
17.4013891
21
0.3306282
0
LINE
8
DEFAULT_255_1_388
10
17.3896428
20
-0.2928313
11
17.5577058
21
-0.2928313
0
LINE
8
DEFAULT_255_1_388
10
17.7826933
20
-0.0371225
11
17.6570979
21
-0.0371225
0
ARC
8
DEFAULT_255_1_388
10
17.779416
20
0.4809922
40
0.3816905
50
270.491971
51
281.8953028
0
ARC
8
DEFAULT_255_1_388
10
17.8065587
20
0.3570199
40
0.2547877
50
281.6690378
51
301.2943765
0
ARC
8
DEFAULT_255_1_388
10
17.8257038
20
0.3219926
40
0.2149197
50
301.7834992
51
311.754567
0
ARC
8
DEFAULT_255_1_388
10
17.8360079
20
0.310565
40
0.1995326
50
311.7325027
51
354.2803031
0
ARC
8
DEFAULT_255_1_388
10
17.7542495
20
0.324628
40
0.2823461
50
353.0941646
51
0.1174696
0
ARC
8
DEFAULT_255_1_388
10
17.7024053
20
0.3299874
40
0.3342238
50
359.1804452
51
15.0452323
0
ARC
8
DEFAULT_255_1_388
10
17.8538111
20
0.3741546
40
0.1765747
50
13.957816
51
77.6713812
0
ARC
8
DEFAULT_255_1_388
10
17.8103347
20
0.2183464
40
0.3381982
50
76.111571
51
90.7028736
0
ARC
8
DEFAULT_255_1_388
10
17.8036759
20
0.249125
40
0.3074046
50
89.5321574
51
103.5319393
0
ARC
8
DEFAULT_255_1_388
10
17.7811143
20
0.3390443
40
0.2147041
50
103.2930114
51
133.5619756
0
ARC
8
DEFAULT_255_1_388
10
17.7761085
20
0.3457351
40
0.2064084
50
133.8349761
51
173.5343225
0
ARC
8
DEFAULT_255_1_388
10
17.8574742
20
0.3313144
40
0.2889266
50
172.5097183
51
180.1360699
0
ARC
8
DEFAULT_255_1_388
10
17.7504506
20
0.335188
40
0.3490913
50
155.3483706
51
180.7484035
0
ARC
8
DEFAULT_255_1_388
10
17.7449482
20
0.3319519
40
0.3454798
50
131.5745177
51
154.4799474
0
ARC
8
DEFAULT_255_1_388
10
17.7801764
20
0.2963422
40
0.3955058
50
96.9874487
51
131.9690874
0
ARC
8
DEFAULT_255_1_388
10
17.8048657
20
0.1562407
40
0.537622
50
89.8592909
51
97.7827481
0
ARC
8
DEFAULT_255_1_388
10
17.8102766
20
0.126736
40
0.5671399
50
78.3654493
51
90.4132586
0
ARC
8
DEFAULT_255_1_388
10
17.8505407
20
0.3133918
40
0.3762034
50
56.6229818
51
78.6387103
0
ARC
8
DEFAULT_255_1_388
10
17.8747236
20
0.3556846
40
0.3275964
50
47.0254604
51
56.085558
0
ARC
8
DEFAULT_255_1_388
10
17.8769487
20
0.3601189
40
0.3228382
50
10.9207523
51
46.777927
0
ARC
8
DEFAULT_255_1_388
10
17.7235081
20
0.3246401
40
0.4802559
50
359.6364235
51
11.6087615
0
ARC
8
DEFAULT_255_1_388
10
17.9299247
20
0.3229404
40
0.273833
50
332.3549969
51
359.7179765
0
ARC
8
DEFAULT_255_1_388
10
17.8567647
20
0.3576285
40
0.3547505
50
325.2332381
51
332.8746682
0
ARC
8
DEFAULT_255_1_388
10
17.873923
20
0.3456763
40
0.3338396
50
292.9803892
51
325.2391113
0
ARC
8
DEFAULT_255_1_388
10
17.8428426
20
0.4061679
40
0.4016959
50
292.542178
51
293.6931461
0
ARC
8
DEFAULT_255_1_388
10
17.8871998
20
-0.3203964
40
0.372079
50
57.643292
51
72.8626085
0
ARC
8
DEFAULT_255_1_388
10
17.9270833
20
-0.2557727
40
0.2961455
50
36.7246661
51
57.4701329
0
ARC
8
DEFAULT_255_1_388
10
17.9257989
20
-0.254353
40
0.2963321
50
8.054535
51
36.3561529
0
ARC
8
DEFAULT_255_1_388
10
17.8287662
20
-0.2717927
40
0.3948682
50
359.8316595
51
8.5873361
0
ARC
8
DEFAULT_255_1_388
10
17.7865136
20
-0.277203
40
0.4371398
50
343.9831631
51
0.557075
0
ARC
8
DEFAULT_255_1_388
10
17.8862186
20
-0.3045037
40
0.3337749
50
311.6358204
51
343.7652116
0
ARC
8
DEFAULT_255_1_388
10
17.8436439
20
-0.2565045
40
0.3979351
50
279.7829743
51
311.625622
0
ARC
8
DEFAULT_255_1_388
10
17.8097575
20
-0.0948358
40
0.5630417
50
269.7285092
51
280.3857694
0
ARC
8
DEFAULT_255_1_388
10
17.8027888
20
-0.0994759
40
0.5584119
50
256.6827433
51
270.4412869
0
ARC
8
DEFAULT_255_1_388
10
17.7646874
20
-0.2552302
40
0.3980715
50
229.4223821
51
256.8554507
0
ARC
8
DEFAULT_255_1_388
10
17.7180427
20
-0.3077317
40
0.3278564
50
181.8183354
51
229.6455015
0
ARC
8
DEFAULT_255_1_388
10
17.8350037
20
-0.2930175
40
0.4453611
50
179.9760419
51
183.2330638
0
ARC
8
DEFAULT_255_1_388
10
17.8156589
20
-0.2953219
40
0.2579652
50
179.4467996
51
196.2871626
0
ARC
8
DEFAULT_255_1_388
10
17.7608043
20
-0.3103291
40
0.2011057
50
196.5661293
51
227.7059371
0
ARC
8
DEFAULT_255_1_388
10
17.779265
20
-0.2896845
40
0.2287994
50
227.7653015
51
257.8763321
0
ARC
8
DEFAULT_255_1_388
10
17.8045733
20
-0.1836039
40
0.3378385
50
257.4583525
51
270.4267406
0
ARC
8
DEFAULT_255_1_388
10
17.8096983
20
-0.150977
40
0.3704652
50
269.5965319
51
280.8788143
0
ARC
8
DEFAULT_255_1_388
10
17.8355211
20
-0.2799471
40
0.2389415
50
280.6347277
51
299.8594068
0
ARC
8
DEFAULT_255_1_388
10
17.8569981
20
-0.3207264
40
0.19289
50
300.3575552
51
314.5515667
0
ARC
8
DEFAULT_255_1_388
10
17.8476656
20
-0.3138975
40
0.204312
50
315.0730962
51
345.0429362
0
ARC
8
DEFAULT_255_1_388
10
17.7438164
20
-0.2836461
40
0.31246
50
344.598526
51
357.9270698
0
ARC
8
DEFAULT_255_1_388
10
17.6428469
20
-0.2767295
40
0.4136265
50
357.4755098
51
0.0224936
0
ARC
8
DEFAULT_255_1_388
10
17.7581346
20
-0.2739901
40
0.2983498
50
359.5051035
51
13.4236939
0
ARC
8
DEFAULT_255_1_388
10
17.8556436
20
-0.2490363
40
0.1977186
50
12.9497905
51
48.7550905
0
ARC
8
DEFAULT_255_1_388
10
17.8351358
20
-0.2770627
40
0.2323321
50
49.509109
51
72.1832965
0
ARC
8
DEFAULT_255_1_388
10
17.7948826
20
-0.3965368
40
0.358397
50
71.9008458
51
84.3555134
0
ARC
8
DEFAULT_255_1_388
10
17.7767221
20
-0.5497288
40
0.512641
50
84.019632
51
89.3326067
0
ARC
8
DEFAULT_255_2_778
10
21.9705968
20
168.4064327
40
0.3998203
50
186.2132484
51
214.6493538
0
ARC
8
DEFAULT_255_2_778
10
21.8841482
20
168.3667342
40
0.306577
50
217.73315
51
266.8103771
0
ARC
8
DEFAULT_255_2_778
10
21.9236889
20
168.577346
40
0.5198043
50
263.7489618
51
266.7837018
0
ARC
8
DEFAULT_255_2_778
10
21.9002315
20
168.3832587
40
0.2400661
50
195.3205632
51
268.6379359
0
ARC
8
DEFAULT_255_2_778
10
22.1727069
20
168.5090098
40
0.5383454
50
193.3112816
51
200.5737177
0
ARC
8
DEFAULT_255_2_778
10
21.9557782
20
168.3562585
40
0.3083015
50
141.9315536
51
174.6395313
0
ARC
8
DEFAULT_255_2_778
10
21.8946342
20
168.3821429
40
0.2448175
50
90.025547
51
137.8738944
0
ARC
8
DEFAULT_255_2_778
10
21.8900516
20
168.4002521
40
0.3116405
50
89.1775175
51
162.365692
0
ARC
8
DEFAULT_255_2_778
10
22.1498498
20
168.268457
40
0.6009893
50
157.8900335
51
162.6116752
0
LINE
8
DEFAULT_255_2_778
10
18.967225
20
168.4509604
11
18.967225
21
168.3631604
0
LINE
8
DEFAULT_255_2_778
10
18.967225
20
168.3631604
11
21.573125
21
168.3631604
0
LINE
8
DEFAULT_255_2_778
10
21.894525
20
168.0583604
11
21.894525
21
168.1432604
0
LINE
8
DEFAULT_255_2_778
10
21.894525
20
168.6269604
11
21.894525
21
168.7118604
0
LINE
8
DEFAULT_255_2_778
10
21.576325
20
168.4480604
11
18.973525
21
168.4480604
0
ARC
8
DEFAULT_255_2_778
10
19.6925397
20
169.7364466
40
0.0240743
50
29.0529276
51
103.4937712
0
ARC
8
DEFAULT_255_2_778
10
19.6675154
20
169.5203845
40
0.2402568
50
85.3668647
51
90.317335
0
ARC
8
DEFAULT_255_2_778
10
19.6830349
20
169.1242259
40
0.7359887
50
91.4445043
51
94.5082143
0
ARC
8
DEFAULT_255_2_778
10
19.6762751
20
169.3495799
40
0.510537
50
90.0204411
51
91.3236595
0
ARC
8
DEFAULT_255_2_778
10
19.6818902
20
169.6251894
40
0.234999
50
77.9191012
51
91.4136047
0
ARC
8
DEFAULT_255_2_778
10
19.7290261
20
169.8214469
40
0.0335995
50
19.4828986
51
86.5059996
0
ARC
8
DEFAULT_255_2_778
10
19.7399674
20
169.829061
40
0.0210433
50
359.8753665
51
9.8287108
0
ARC
8
DEFAULT_255_2_778
10
19.7113899
20
169.8339275
40
0.0498633
50
318.6549341
51
354.3463421
0
ARC
8
DEFAULT_255_2_778
10
19.5932868
20
169.9216044
40
0.1968255
50
312.3913188
51
322.2071703
0
ARC
8
DEFAULT_255_2_778
10
19.7074862
20
169.7333784
40
0.0466808
50
7.8211356
51
66.6544263
0
ARC
8
DEFAULT_255_2_778
10
19.5739371
20
169.7055306
40
0.1830194
50
4.3516874
51
10.7699648
0
ARC
8
DEFAULT_255_2_778
10
19.7790749
20
169.7156912
40
0.0229506
50
170.6553415
51
230.4661874
0
ARC
8
DEFAULT_255_2_778
10
19.7668968
20
169.7061667
40
0.0085297
50
253.4430888
51
270.5900942
0
ARC
8
DEFAULT_255_2_778
10
19.6866372
20
169.803095
40
0.0341371
50
13.1090465
51
106.1583193
0
ARC
8
DEFAULT_255_2_778
10
19.6697372
20
169.6580182
40
0.1780193
50
87.6176468
51
90.0490737
0
ARC
8
DEFAULT_255_2_778
10
19.6795695
20
169.8548746
40
0.0666888
50
261.3891358
51
304.5653386
0
ARC
8
DEFAULT_255_2_778
10
19.7083052
20
169.8075951
40
0.0118802
50
319.9940947
51
0.6866831
0
ARC
8
DEFAULT_255_2_778
10
19.6912612
20
169.7794613
40
0.1602765
50
89.8843696
51
180.00852
0
ARC
8
DEFAULT_255_2_778
10
19.6920991
20
169.7796526
40
0.1600857
50
359.923006
51
90.1841118
0
ARC
8
DEFAULT_255_2_778
10
19.6920144
20
169.7792075
40
0.1601705
50
269.8462838
51
0.0822692
0
ARC
8
DEFAULT_255_2_778
10
19.6911549
20
169.7792074
40
0.1601705
50
179.9177057
51
270.1537517
0
ARC
8
DEFAULT_255_2_778
10
19.694457
20
169.7805588
40
0.1256773
50
179.9900739
51
180.5112141
0
ARC
8
DEFAULT_255_2_778
10
19.6932191
20
169.7806978
40
0.1244397
50
135.616881
51
180.0539568
0
ARC
8
DEFAULT_255_2_778
10
19.692985
20
169.7809377
40
0.1241046
50
90.5079979
51
135.6204406
0
ARC
8
DEFAULT_255_2_778
10
19.6907809
20
169.7811676
40
0.1238749
50
44.3347873
51
89.4894407
0
ARC
8
DEFAULT_255_2_778
10
19.6904503
20
169.7806978
40
0.1244397
50
359.9460432
51
44.383119
0
ARC
8
DEFAULT_255_2_778
10
19.6892124
20
169.7805588
40
0.1256775
50
359.4887859
51
0.0099261
0
ARC
8
DEFAULT_255_2_778
10
19.689208
20
169.7783161
40
0.1256817
50
359.9900717
51
0.5112118
0
ARC
8
DEFAULT_255_2_778
10
19.6902182
20
169.7781718
40
0.1246718
50
315.6604182
51
0.0563277
0
ARC
8
DEFAULT_255_2_778
10
19.6906037
20
169.7780233
40
0.1242924
50
270.5905059
51
315.5851458
0
ARC
8
DEFAULT_255_2_778
10
19.6931628
20
169.7782548
40
0.1245239
50
224.4596468
51
269.4118891
0
ARC
8
DEFAULT_255_2_778
10
19.6934512
20
169.7781718
40
0.1246718
50
179.9436723
51
224.3395818
0
ARC
8
DEFAULT_255_2_778
10
19.6944614
20
169.7783161
40
0.1256819
50
179.4887882
51
180.0099283
0
LINE
8
DEFAULT_255_2_778
10
19.7672847
20
169.6979375
11
19.7262847
21
169.6979375
0
LINE
8
DEFAULT_255_2_778
10
19.7262847
20
169.6979375
11
19.7135847
21
169.7481375
0
LINE
8
DEFAULT_255_2_778
10
19.6661847
20
169.7606375
11
19.6661847
21
169.6979375
0
LINE
8
DEFAULT_255_2_778
10
19.6661847
20
169.6979375
11
19.6283847
21
169.6979375
0
LINE
8
DEFAULT_255_2_778
10
19.6283847
20
169.6979375
11
19.6251847
21
169.8579375
0
LINE
8
DEFAULT_255_2_778
10
19.7669847
20
169.6976375
11
19.7672847
21
169.6979375
0
LINE
8
DEFAULT_255_2_778
10
19.6695847
20
169.8360375
11
19.6695847
21
169.7889375
0
LINE
8
DEFAULT_255_2_778
10
19.5309847
20
169.7794375
11
19.5309847
21
169.7794375
0
LINE
8
DEFAULT_255_2_778
10
19.5687847
20
169.7794375
11
19.5687847
21
169.7794375
0
ARC
8
DEFAULT_255_2_778
10
19.5739995
20
168.7132562
40
0.4679169
50
114.816099
51
123.1671443
0
ARC
8
DEFAULT_255_2_778
10
19.524052
20
168.8221633
40
0.3481031
50
104.1803266
51
114.8776204
0
ARC
8
DEFAULT_255_2_778
10
19.5023429
20
168.9094534
40
0.2581547
50
90.3368173
51
104.2549448
0
ARC
8
DEFAULT_255_2_778
10
19.5036163
20
168.9835304
40
0.1840945
50
63.1258397
51
90.8686801
0
ARC
8
DEFAULT_255_2_778
10
19.5291143
20
169.0307442
40
0.1304613
50
15.1320717
51
63.7415875
0
ARC
8
DEFAULT_255_2_778
10
19.5491883
20
169.0386768
40
0.1090393
50
0.0473462
51
13.8618027
0
ARC
8
DEFAULT_255_2_778
10
19.5515456
20
169.0387625
40
0.1066819
50
356.2550712
51
0.0023505
0
ARC
8
DEFAULT_255_2_778
10
19.5419228
20
169.0412506
40
0.1164614
50
310.1750055
51
355.3427743
0
ARC
8
DEFAULT_255_2_778
10
19.4908137
20
169.0985087
40
0.1931944
50
288.8572085
51
310.8015881
0
ARC
8
DEFAULT_255_2_778
10
19.4433414
20
169.230877
40
0.3338085
50
275.3110996
51
289.2247685
0
ARC
8
DEFAULT_255_2_778
10
19.4242391
20
169.39378
40
0.4977958
50
269.8679804
51
275.7647658
0
ARC
8
DEFAULT_255_2_778
10
19.4233676
20
169.503531
40
0.6075455
50
267.4793058
51
269.9740161
0
ARC
8
DEFAULT_255_2_778
10
19.4257943
20
169.5638112
40
0.6678741
50
266.4216467
51
267.4987577
0
ARC
8
DEFAULT_255_2_778
10
19.422452
20
168.2720134
40
0.5604389
50
91.0217468
51
93.9229074
0
ARC
8
DEFAULT_255_2_778
10
19.421632
20
168.306433
40
0.5260103
50
90.0043513
51
90.9992991
0
ARC
8
DEFAULT_255_2_778
10
19.4248572
20
168.4100358
40
0.4224201
50
76.9825049
51
90.4428784
0
ARC
8
DEFAULT_255_2_778
10
19.4590596
20
168.5533148
40
0.275121
50
58.6325554
51
77.2011897
0
ARC
8
DEFAULT_255_2_778
10
19.5161406
20
168.6439596
40
0.1680195
50
29.9877642
51
59.1630288
0
ARC
8
DEFAULT_255_2_778
10
19.5599511
20
168.6713921
40
0.1163776
50
9.0489212
51
29.0705153
0
ARC
8
DEFAULT_255_2_778
10
19.5730912
20
168.6740276
40
0.1029877
50
0.0324126
51
8.7506937
0
ARC
8
DEFAULT_255_2_778
10
19.5688012
20
168.6759846
40
0.1072945
50
305.5021173
51
358.9859994
0
ARC
8
DEFAULT_255_2_778
10
19.5189388
20
168.7396115
40
0.1880848
50
283.9052409
51
306.6117621
0
ARC
8
DEFAULT_255_2_778
10
19.4842897
20
168.8691786
40
0.3221912
50
270.2533372
51
284.3492228
0
ARC
8
DEFAULT_255_2_778
10
19.4797621
20
168.9647522
40
0.4178041
50
269.9968243
51
270.8162745
0
ARC
8
DEFAULT_255_2_778
10
19.4811269
20
169.0381966
40
0.4912505
50
263.1637922
51
269.8381166
0
ARC
8
DEFAULT_255_2_778
10
19.4991981
20
169.1917433
40
0.6458567
50
257.6179181
51
263.1934389
0
ARC
8
DEFAULT_255_2_778
10
19.5387802
20
169.3735151
40
0.831888
50
252.9189114
51
257.6396732
0
ARC
8
DEFAULT_255_2_778
10
19.5797461
20
169.511657
40
0.9759703
50
251.5522315
51
253.0020903
0
ARC
8
DEFAULT_255_2_778
10
19.5248934
20
169.0632091
40
0.6169724
50
245.6907954
51
253.3086054
0
ARC
8
DEFAULT_255_2_778
10
19.4937986
20
168.9589052
40
0.5081326
50
253.2890695
51
262.3539513
0
ARC
8
DEFAULT_255_2_778
10
19.4835519
20
168.8861064
40
0.4346178
50
262.4158537
51
269.9226498
0
ARC
8
DEFAULT_255_2_778
10
19.4858877
20
168.8088156
40
0.3573384
50
269.531384
51
291.1392741
0
ARC
8
DEFAULT_255_2_778
10
19.5139103
20
168.7385904
40
0.2817342
50
290.9743163
51
319.8315111
0
ARC
8
DEFAULT_255_2_778
10
19.5703324
20
168.6922128
40
0.208706
50
319.5693811
51
352.147275
0
ARC
8
DEFAULT_255_2_778
10
19.6080843
20
168.6841331
40
0.170228
50
353.1052432
51
359.9694768
0
ARC
8
DEFAULT_255_2_778
10
19.619217
20
168.6840923
40
0.1590954
50
359.9820323
51
48.1680262
0
ARC
8
DEFAULT_255_2_778
10
19.5685344
20
168.6291109
40
0.2338675
50
47.8999999
51
68.5994477
0
ARC
8
DEFAULT_255_2_778
10
19.515911
20
168.5003112
40
0.3729934
50
68.2925482
51
81.2254538
0
ARC
8
DEFAULT_255_2_778
10
19.5841972
20
169.0168084
40
0.148307
50
265.5964328
51
269.9780427
0
ARC
8
DEFAULT_255_2_778
10
19.5760096
20
169.0234336
40
0.1551453
50
273.004087
51
349.8612615
0
ARC
8
DEFAULT_255_2_778
10
19.5123628
20
169.0525954
40
0.2236176
50
345.3721348
51
359.9751256
0
ARC
8
DEFAULT_255_2_778
10
19.5339585
20
169.0524983
40
0.2020219
50
4e-7
51
0.2280423
0
ARC
8
DEFAULT_255_2_778
10
19.5597555
20
169.0596481
40
0.1763376
50
357.9376831
51
63.2925076
0
ARC
8
DEFAULT_255_2_778
10
19.5460136
20
169.0181165
40
0.2197074
50
64.9591354
51
87.7288567
0
ARC
8
DEFAULT_255_2_778
10
19.538318
20
168.9402926
40
0.2978108
50
86.8427678
51
90.0256913
0
ARC
8
DEFAULT_255_2_778
10
19.5400484
20
168.8650446
40
0.3730632
50
90.2862735
51
99.8078285
0
ARC
8
DEFAULT_255_2_778
10
19.5660703
20
168.7108047
40
0.5294817
50
99.7394106
51
106.9636812
0
ARC
8
DEFAULT_255_2_778
10
19.623885
20
168.5185819
40
0.7302097
50
106.9021021
51
112.2967575
0
ARC
8
DEFAULT_255_2_778
10
19.7194539
20
168.2847038
40
0.9828604
50
112.2786278
51
116.8488609
0
LINE
8
DEFAULT_255_2_778
10
19.2755562
20
169.1616129
11
19.27541
21
169.1615392
0
LINE
8
DEFAULT_255_2_778
10
19.38411
20
168.8972392
11
19.38411
21
168.8311392
0
LINE
8
DEFAULT_255_2_778
10
19.27091
20
168.5858392
11
19.27091
21
168.5009392
0
LINE
8
DEFAULT_255_2_778
10
19.27541
20
169.1615392
11
19.32251
21
169.1001392
0
ARC
8
DEFAULT_255_2_778
10
21.6488338
20
168.8479013
40
0.5330281
50
158.8297779
51
180.8126209
0
ARC
8
DEFAULT_255_2_778
10
21.3440043
20
168.9740829
40
0.2033429
50
124.0119958
51
160.9659866
0
ARC
8
DEFAULT_255_2_778
10
21.2740176
20
169.067462
40
0.0869831
50
90.4994457
51
120.2017555
0
ARC
8
DEFAULT_255_2_778
10
21.2597082
20
169.0290586
40
0.1261132
50
24.6798401
51
83.8315083
0
ARC
8
DEFAULT_255_2_778
10
21.0022231
20
168.873952
40
0.4261556
50
6.130385
51
29.1785479
0
ARC
8
DEFAULT_255_2_778
10
20.8145831
20
168.8409702
40
0.6163766
50
359.941576
51
7.3161118
0
ARC
8
DEFAULT_255_2_778
10
20.8988049
20
168.8327366
40
0.5322088
50
338.8055679
51
0.8187669
0
ARC
8
DEFAULT_255_2_778
10
21.2030747
20
168.7066684
40
0.203082
50
303.9150541
51
340.932466
0
ARC
8
DEFAULT_255_2_778
10
21.2725185
20
168.6137902
40
0.0874515
50
270.4854298
51
300.1080748
0
ARC
8
DEFAULT_255_2_778
10
21.2868918
20
168.6520041
40
0.1263997
50
204.3281643
51
263.8084993
0
ARC
8
DEFAULT_255_2_778
10
21.5495039
20
168.8080123
40
0.4313014
50
185.613152
51
208.8453558
0
ARC
8
DEFAULT_255_2_778
10
21.737981
20
168.8397819
40
0.6221217
50
179.9484445
51
186.8272745
0
ARC
8
DEFAULT_255_2_778
10
21.5393261
20
168.8444048
40
0.5243157
50
152.5254433
51
180.7827883
0
ARC
8
DEFAULT_255_2_778
10
21.3135339
20
168.9718837
40
0.2653266
50
108.4095367
51
154.4544086
0
ARC
8
DEFAULT_255_2_778
10
21.2765034
20
169.0506783
40
0.1791635
50
90.0140927
51
105.1293658
0
ARC
8
DEFAULT_255_2_778
10
21.2620719
20
168.9989205
40
0.231369
50
28.2822033
51
86.4348199
0
ARC
8
DEFAULT_255_2_778
10
21.0415618
20
168.8517258
40
0.4959362
50
2.837394
51
31.1881489
0
ARC
8
DEFAULT_255_2_778
10
20.9401116
20
168.8373304
40
0.5980477
50
359.9914968
51
3.7337628
0
ARC
8
DEFAULT_255_2_778
10
21.0134058
20
168.8301164
40
0.524802
50
332.6504535
51
0.7779361
0
ARC
8
DEFAULT_255_2_778
10
21.2392936
20
168.7031026
40
0.265965
50
288.44039
51
334.5981325
0
ARC
8
DEFAULT_255_2_778
10
21.2764199
20
168.6243438
40
0.1798021
50
270.0125899
51
285.1541198
0
ARC
8
DEFAULT_255_2_778
10
21.2906632
20
168.6751186
40
0.2310141
50
208.1688806
51
266.4749618
0
ARC
8
DEFAULT_255_2_778
10
21.512701
20
168.8225235
40
0.4969751
50
182.8019459
51
211.0671432
0
ARC
8
DEFAULT_255_2_778
10
21.6166279
20
168.8371537
40
0.6015684
50
179.9916184
51
183.7098813
0
LINE
8
DEFAULT_255_2_778
10
21.1158594
20
168.8403417
11
21.1158594
21
168.8403417
0
LINE
8
DEFAULT_255_2_778
10
21.0150594
20
168.8372417
11
21.0150594
21
168.8372417
0
ARC
8
DEFAULT_255_2_778
10
21.0564206
20
168.8479013
40
0.5330281
50
158.8297779
51
180.8126209
0
ARC
8
DEFAULT_255_2_778
10
20.751591
20
168.9740829
40
0.2033429
50
124.0119958
51
160.9659866
0
ARC
8
DEFAULT_255_2_778
10
20.6816044
20
169.067462
40
0.0869831
50
90.4994457
51
120.2017555
0
ARC
8
DEFAULT_255_2_778
10
20.667295
20
169.0290586
40
0.1261132
50
24.6798401
51
83.8315083
0
ARC
8
DEFAULT_255_2_778
10
20.4098098
20
168.873952
40
0.4261556
50
6.130385
51
29.1785479
0
ARC
8
DEFAULT_255_2_778
10
20.2221698
20
168.8409702
40
0.6163766
50
359.941576
51
7.3161118
0
ARC
8
DEFAULT_255_2_778
10
20.3063917
20
168.8327366
40
0.5322088
50
338.8055679
51
0.8187669
0
ARC
8
DEFAULT_255_2_778
10
20.6106615
20
168.7066684
40
0.203082
50
303.9150541
51
340.932466
0
ARC
8
DEFAULT_255_2_778
10
20.6801052
20
168.6137902
40
0.0874515
50
270.4854298
51
300.1080748
0
ARC
8
DEFAULT_255_2_778
10
20.6944786
20
168.6520041
40
0.1263997
50
204.3281643
51
263.8084993
0
ARC
8
DEFAULT_255_2_778
10
20.9570907
20
168.8080123
40
0.4313014
50
185.613152
51
208.8453558
0
ARC
8
DEFAULT_255_2_778
10
21.1455678
20
168.8397819
40
0.6221217
50
179.9484445
51
186.8272745
0
ARC
8
DEFAULT_255_2_778
10
20.9469129
20
168.8444048
40
0.5243157
50
152.5254433
51
180.7827883
0
ARC
8
DEFAULT_255_2_778
10
20.7211207
20
168.9718837
40
0.2653266
50
108.4095367
51
154.4544086
0
ARC
8
DEFAULT_255_2_778
10
20.6840902
20
169.0506783
40
0.1791635
50
90.0140927
51
105.1293658
0
ARC
8
DEFAULT_255_2_778
10
20.6696587
20
168.9989205
40
0.231369
50
28.2822033
51
86.4348199
0
ARC
8
DEFAULT_255_2_778
10
20.4491486
20
168.8517258
40
0.4959362
50
2.837394
51
31.1881489
0
ARC
8
DEFAULT_255_2_778
10
20.3476984
20
168.8373304
40
0.5980477
50
359.9914968
51
3.7337628
0
ARC
8
DEFAULT_255_2_778
10
20.4209925
20
168.8301164
40
0.524802
50
332.6504535
51
0.7779361
0
ARC
8
DEFAULT_255_2_778
10
20.6468804
20
168.7031026
40
0.265965
50
288.44039
51
334.5981325
0
ARC
8
DEFAULT_255_2_778
10
20.6840066
20
168.6243438
40
0.1798021
50
270.0125899
51
285.1541198
0
ARC
8
DEFAULT_255_2_778
10
20.69825
20
168.6751186
40
0.2310141
50
208.1688806
51
266.4749618
0
ARC
8
DEFAULT_255_2_778
10
20.9202878
20
168.8225235
40
0.4969751
50
182.8019459
51
211.0671432
0
ARC
8
DEFAULT_255_2_778
10
21.0242146
20
168.8371537
40
0.6015684
50
179.9916184
51
183.7098813
0
LINE
8
DEFAULT_255_2_778
10
20.5234462
20
168.8403417
11
20.5234462
21
168.8403417
0
LINE
8
DEFAULT_255_2_778
10
20.4226462
20
168.8372417
11
20.4226462
21
168.8372417
0
ARC
8
DEFAULT_255_2_778
10
20.4640338
20
168.8479013
40
0.5330281
50
158.8297779
51
180.8126209
0
ARC
8
DEFAULT_255_2_778
10
20.1592043
20
168.9740829
40
0.2033429
50
124.0119958
51
160.9659866
0
ARC
8
DEFAULT_255_2_778
10
20.0892176
20
169.067462
40
0.0869831
50
90.4994457
51
120.2017555
0
ARC
8
DEFAULT_255_2_778
10
20.0749082
20
169.0290586
40
0.1261132
50
24.6798401
51
83.8315083
0
ARC
8
DEFAULT_255_2_778
10
19.8174231
20
168.873952
40
0.4261556
50
6.130385
51
29.1785479
0
ARC
8
DEFAULT_255_2_778
10
19.6297831
20
168.8409702
40
0.6163766
50
359.941576
51
7.3161118
0
ARC
8
DEFAULT_255_2_778
10
19.7140049
20
168.8327366
40
0.5322088
50
338.8055679
51
0.8187669
0
ARC
8
DEFAULT_255_2_778
10
20.0182747
20
168.7066684
40
0.203082
50
303.9150541
51
340.932466
0
ARC
8
DEFAULT_255_2_778
10
20.0877185
20
168.6137902
40
0.0874515
50
270.4854298
51
300.1080748
0
ARC
8
DEFAULT_255_2_778
10
20.1020918
20
168.6520041
40
0.1263997
50
204.3281643
51
263.8084993
0
ARC
8
DEFAULT_255_2_778
10
20.3647039
20
168.8080123
40
0.4313014
50
185.613152
51
208.8453558
0
ARC
8
DEFAULT_255_2_778
10
20.553181
20
168.8397819
40
0.6221217
50
179.9484445
51
186.8272745
0
ARC
8
DEFAULT_255_2_778
10
20.3542427
20
168.8444257
40
0.5240325
50
152.511927
51
180.7855003
0
ARC
8
DEFAULT_255_2_778
10
20.1281483
20
168.9723056
40
0.264594
50
107.9689651
51
154.4798484
0
ARC
8
DEFAULT_255_2_778
10
20.0919909
20
169.0501433
40
0.1796984
50
90.01006
51
104.6572928
0
ARC
8
DEFAULT_255_2_778
10
20.0777541
20
168.9992502
40
0.2310286
50
28.1748595
51
86.4748124
0
ARC
8
DEFAULT_255_2_778
10
19.8559078
20
168.8519241
40
0.4967862
50
2.8051578
51
31.0734515
0
ARC
8
DEFAULT_255_2_778
10
19.7523096
20
168.8373293
40
0.6010497
50
359.9916466
51
3.711491
0
ARC
8
DEFAULT_255_2_778
10
19.8283191
20
168.8301382
40
0.5250883
50
332.6639313
51
0.7751279
0
ARC
8
DEFAULT_255_2_778
10
20.0541076
20
168.703345
40
0.2664398
50
288.748604
51
334.5889087
0
ARC
8
DEFAULT_255_2_778
10
20.091909
20
168.6237814
40
0.1792398
50
270.0161048
51
285.4790874
0
ARC
8
DEFAULT_255_2_778
10
20.1063274
20
168.6755162
40
0.231421
50
208.2265906
51
266.4404307
0
ARC
8
DEFAULT_255_2_778
10
20.327262
20
168.8227124
40
0.4963409
50
182.827365
51
211.1367331
0
ARC
8
DEFAULT_255_2_778
10
20.4293456
20
168.8371562
40
0.5990863
50
179.9918267
51
183.7255174
0
LINE
8
DEFAULT_255_2_778
10
19.9310594
20
168.8403417
11
19.9310594
21
168.8403417
0
LINE
8
DEFAULT_255_2_778
10
19.8302594
20
168.8372417
11
19.8302594
21
168.8372417
0
ARC
8
DEFAULT_255_2_778
10
22.0340079
20
168.3895071
40
0.1932422
50
91.1816293
51
181.3933249
0
ARC
8
DEFAULT_255_2_778
10
22.0259721
20
168.3894444
40
0.1933064
50
358.6257546
51
88.7992551
0
ARC
8
DEFAULT_255_2_778
10
22.0260368
20
168.3801105
40
0.1932432
50
271.1819413
51
1.3930197
0
ARC
8
DEFAULT_255_2_778
10
22.0339435
20
168.3800476
40
0.193179
50
178.5878493
51
268.8370891
0
LINE
8
DEFAULT_255_2_778
10
21.8408229
20
168.3848083
11
21.8408229
21
168.3848083
0
ARC
8
DEFAULT_255_2_778
10
22.5002737
20
168.3894444
40
0.1933064
50
91.2007449
51
181.3742454
0
ARC
8
DEFAULT_255_2_778
10
22.4921721
20
168.3894444
40
0.1933064
50
358.6257546
51
88.7992551
0
ARC
8
DEFAULT_255_2_778
10
22.4922368
20
168.3801105
40
0.1932432
50
271.1819413
51
1.3930197
0
ARC
8
DEFAULT_255_2_778
10
22.5002093
20
168.3801106
40
0.1932434
50
178.6070028
51
268.8179775
0
LINE
8
DEFAULT_255_2_778
10
22.3070229
20
168.3848083
11
22.3070229
21
168.3848083
0
ARC
8
DEFAULT_255_2_778
10
22.9667737
20
168.4021444
40
0.1933064
50
91.2007449
51
181.3742454
0
ARC
8
DEFAULT_255_2_778
10
22.9586721
20
168.4021444
40
0.1933064
50
358.6257546
51
88.7992551
0
ARC
8
DEFAULT_255_2_778
10
22.9587368
20
168.3928105
40
0.1932432
50
271.1819413
51
1.3930197
0
ARC
8
DEFAULT_255_2_778
10
22.9667093
20
168.3928106
40
0.1932434
50
178.6070028
51
268.8179775
0
LINE
8
DEFAULT_255_2_778
10
22.7735229
20
168.3975083
11
22.7735229
21
168.3975083
0
LINE
8
DEFAULT_255_2_778
10
21.8953365
20
168.141124
11
21.8662365
21
168.145924
0
LINE
8
DEFAULT_255_2_778
10
21.8662365
20
168.145924
11
21.8056365
21
168.155724
0
LINE
8
DEFAULT_255_2_778
10
21.8056365
20
168.155724
11
21.7296365
21
168.213924
0
LINE
8
DEFAULT_255_2_778
10
21.7296365
20
168.213924
11
21.6725365
21
168.289624
0
LINE
8
DEFAULT_255_2_778
10
21.6725365
20
168.289624
11
21.6473365
21
168.383024
0
LINE
8
DEFAULT_255_2_778
10
21.6473365
20
168.383024
11
21.6725365
21
168.476624
0
LINE
8
DEFAULT_255_2_778
10
21.6725365
20
168.476624
11
21.7291365
21
168.553424
0
LINE
8
DEFAULT_255_2_778
10
21.7291365
20
168.553424
11
21.8050365
21
168.612924
0
LINE
8
DEFAULT_255_2_778
10
21.8050365
20
168.612924
11
21.8662365
21
168.622924
0
LINE
8
DEFAULT_255_2_778
10
21.8662365
20
168.622924
11
21.8955365
21
168.627724
0
LINE
8
DEFAULT_255_2_778
10
21.8955365
20
168.058124
11
21.8543365
21
168.063624
0
LINE
8
DEFAULT_255_2_778
10
21.8543365
20
168.063624
11
21.7704365
21
168.075024
0
LINE
8
DEFAULT_255_2_778
10
21.7704365
20
168.075024
11
21.6680365
21
168.149624
0
LINE
8
DEFAULT_255_2_778
10
21.6680365
20
168.149624
11
21.5947365
21
168.248324
0
LINE
8
DEFAULT_255_2_778
10
21.5947365
20
168.248324
11
21.5730365
21
168.363924
0
ARC
8
DEFAULT_255_2_778
10
8.4839378
20
169.3808433
40
0.4373747
50
56.3665942
51
72.7074496
0
ARC
8
DEFAULT_255_2_778
10
8.5212053
20
169.4944036
40
0.3178747
50
73.036784
51
89.7973226
0
ARC
8
DEFAULT_255_2_778
10
8.5285513
20
169.4720167
40
0.3403165
50
91.0475309
51
125.5485458
0
ARC
8
DEFAULT_255_2_778
10
8.6942904
20
169.2231582
40
0.6392287
50
124.6669492
51
139.114563
0
ARC
8
DEFAULT_255_2_778
10
8.9357319
20
168.9997476
40
0.9680575
50
138.4713305
51
142.1157612
0
ARC
8
DEFAULT_255_2_778
10
8.5582787
20
169.0304798
40
0.5212765
50
117.7453356
51
135.8758074
0
ARC
8
DEFAULT_255_2_778
10
8.4611378
20
169.2128273
40
0.3146729
50
90.4656379
51
117.5483702
0
ARC
8
DEFAULT_255_2_778
10
8.4550272
20
169.1975634
40
0.3299454
50
64.3679478
51
89.3829577
0
ARC
8
DEFAULT_255_2_778
10
8.4227062
20
169.1159901
40
0.4175182
50
64.8738747
51
65.2115951
0
LINE
8
DEFAULT_255_2_778
10
8.1716896
20
169.5942008
11
8.1716896
21
169.7702008
0
LINE
8
DEFAULT_255_2_778
10
8.1716896
20
169.7702008
11
7.8313896
21
169.7702008
0
LINE
8
DEFAULT_255_2_778
10
7.8313896
20
169.7702008
11
7.8313896
21
168.5515008
0
LINE
8
DEFAULT_255_2_778
10
7.8313896
20
168.5515008
11
8.1967896
21
168.5515008
0
LINE
8
DEFAULT_255_2_778
10
8.1967896
20
168.5515008
11
8.1840896
21
169.3934008
0
LINE
8
DEFAULT_255_2_778
10
8.5999896
20
169.4940008
11
8.7261896
21
169.7450008
0
ARC
8
DEFAULT_255_2_778
10
12.3459297
20
168.9389166
40
0.1058286
50
290.4109967
51
338.4144294
0
ARC
8
DEFAULT_255_2_778
10
12.161995
20
169.308021
40
0.5177505
50
282.5203845
51
295.2483499
0
ARC
8
DEFAULT_255_2_778
10
12.2164596
20
169.1746179
40
0.3756367
50
270.2518229
51
277.9224239
0
ARC
8
DEFAULT_255_2_778
10
12.2019255
20
168.9621058
40
0.163922
50
191.9135594
51
275.6664103
0
ARC
8
DEFAULT_255_2_778
10
12.266424
20
169.0896972
40
0.6680449
50
207.8643513
51
221.7718618
0
ARC
8
DEFAULT_255_2_778
10
12.0489477
20
168.8832613
40
0.3684417
50
220.3588923
51
270.0277924
0
ARC
8
DEFAULT_255_2_778
10
12.0434926
20
169.0153085
40
0.5005206
50
270.6449322
51
287.6494066
0
ARC
8
DEFAULT_255_2_778
10
11.9529907
20
169.3112608
40
0.8099892
50
287.4026496
51
297.6988649
0
ARC
8
DEFAULT_255_2_778
10
11.7449905
20
169.7144576
40
1.2636684
50
297.5514274
51
304.3018591
0
LINE
8
DEFAULT_255_2_778
10
12.0415344
20
168.9282664
11
12.0351344
21
169.7762664
0
LINE
8
DEFAULT_255_2_778
10
12.0351344
20
169.7762664
11
11.6758344
21
169.7762664
0
LINE
8
DEFAULT_255_2_778
10
11.6758344
20
169.7762664
11
11.6758344
21
168.7774664
0
LINE
8
DEFAULT_255_2_778
10
12.4571344
20
168.6705664
11
12.4698344
21
168.5575664
0
LINE
8
DEFAULT_255_2_778
10
12.4698344
20
168.5575664
11
12.8101344
21
168.5575664
0
LINE
8
DEFAULT_255_2_778
10
12.8101344
20
168.5575664
11
12.8101344
21
169.7889664
0
LINE
8
DEFAULT_255_2_778
10
12.8101344
20
169.7889664
11
12.4444344
21
169.7889664
0
LINE
8
DEFAULT_255_2_778
10
12.4444344
20
169.7889664
11
12.4444344
21
168.8967664
0
LINE
8
DEFAULT_255_2_778
10
15.1797344
20
168.5512664
11
15.1797344
21
169.7826664
0
LINE
8
DEFAULT_255_2_778
10
15.1797344
20
169.7826664
11
15.5453344
21
169.7826664
0
LINE
8
DEFAULT_255_2_778
10
15.5453344
20
169.7826664
11
15.5453344
21
168.5512664
0
LINE
8
DEFAULT_255_2_778
10
15.5453344
20
168.5512664
11
15.1797344
21
168.5512664
0
ARC
8
DEFAULT_255_2_778
10
15.3647435
20
170.175366
40
0.1978332
50
90.7257917
51
180.9507563
0
ARC
8
DEFAULT_255_2_778
10
15.3597161
20
170.1754493
40
0.1977501
50
359.0247012
51
89.2694187
0
ARC
8
DEFAULT_255_2_778
10
15.3597161
20
170.1687174
40
0.1977501
50
270.7305813
51
0.9752988
0
ARC
8
DEFAULT_255_2_778
10
15.3647435
20
170.1688007
40
0.1978332
50
179.0492437
51
269.2742083
0
LINE
8
DEFAULT_255_2_778
10
15.1669375
20
170.1720833
11
15.1669375
21
170.1720833
0
LINE
8
DEFAULT_255_2_778
10
16.8727729
20
168.5479854
11
16.8727729
21
169.7793854
0
LINE
8
DEFAULT_255_2_778
10
16.8727729
20
169.7793854
11
17.2384729
21
169.7793854
0
LINE
8
DEFAULT_255_2_778
10
17.2384729
20
169.7793854
11
17.2384729
21
168.5479854
0
LINE
8
DEFAULT_255_2_778
10
17.2384729
20
168.5479854
11
16.8727729
21
168.5479854
0
ARC
8
DEFAULT_255_2_778
10
17.0581435
20
170.172166
40
0.1978332
50
90.7257917
51
180.9507563
0
ARC
8
DEFAULT_255_2_778
10
17.0531161
20
170.1722493
40
0.1977501
50
359.0247012
51
89.2694187
0
ARC
8
DEFAULT_255_2_778
10
17.0531161
20
170.1655174
40
0.1977501
50
270.7305813
51
0.9752988
0
ARC
8
DEFAULT_255_2_778
10
17.0581435
20
170.1656007
40
0.1978332
50
179.0492437
51
269.2742083
0
LINE
8
DEFAULT_255_2_778
10
16.8603375
20
170.1688833
11
16.8603375
21
170.1688833
0
ARC
8
DEFAULT_255_2_778
10
13.7517901
20
168.9609013
40
0.434232
50
284.0737984
51
307.1283935
0
ARC
8
DEFAULT_255_2_778
10
13.660277
20
169.2974778
40
0.7829896
50
272.5675489
51
284.5802087
0
ARC
8
DEFAULT_255_2_778
10
13.6343582
20
169.6563726
40
1.1427274
50
269.9523961
51
273.0596894
0
ARC
8
DEFAULT_255_2_778
10
13.6382461
20
170.0380502
40
1.5244123
50
264.3721605
51
269.8181894
0
ARC
8
DEFAULT_255_2_778
10
13.7027307
20
170.7098242
40
2.1992727
50
260.3040359
51
264.4165702
0
ARC
8
DEFAULT_255_2_778
10
13.7920328
20
171.2622479
40
2.75885
50
259.2299789
51
260.4081406
0
ARC
8
DEFAULT_255_2_778
10
13.5129832
20
169.1118106
40
0.6077178
50
188.8927198
51
247.0988028
0
ARC
8
DEFAULT_255_2_778
10
13.8555322
20
169.202954
40
0.9609548
50
185.1081288
51
191.1050073
0
ARC
8
DEFAULT_255_2_778
10
13.7233219
20
169.1304493
40
0.8250312
50
161.5072483
51
180.9066349
0
ARC
8
DEFAULT_255_2_778
10
13.474388
20
169.209195
40
0.5639907
50
120.4701872
51
161.0725957
0
ARC
8
DEFAULT_255_2_778
10
13.5600359
20
169.1424593
40
0.6661417
50
90.0499347
51
123.9108507
0
ARC
8
DEFAULT_255_2_778
10
13.5729457
20
168.9859303
40
0.8227812
50
89.9974966
51
90.9394619
0
ARC
8
DEFAULT_255_2_778
10
13.5669956
20
168.8248917
40
0.9838382
50
77.8335832
51
89.6513936
0
ARC
8
DEFAULT_255_2_778
10
13.4795112
20
168.4069877
40
1.4107957
50
69.8093959
51
77.9373312
0
ARC
8
DEFAULT_255_2_778
10
13.3759492
20
168.1052231
40
1.7297745
50
69.0266426
51
70.0397415
0
ARC
8
DEFAULT_255_2_778
10
13.5343166
20
168.1271487
40
1.4359408
50
73.9178594
51
79.2452957
0
ARC
8
DEFAULT_255_2_778
10
13.6318162
20
168.6474429
40
0.9065925
50
79.1629935
51
86.6049203
0
ARC
8
DEFAULT_255_2_778
10
13.6498447
20
168.8987653
40
0.654651
50
86.8774046
51
89.9568351
0
ARC
8
DEFAULT_255_2_778
10
13.6423726
20
169.1360348
40
0.4174572
50
88.9067133
51
108.0688095
0
ARC
8
DEFAULT_255_2_778
10
13.5851449
20
169.3097782
40
0.2345328
50
107.942404
51
152.2459688
0
ARC
8
DEFAULT_255_2_778
10
14.2992743
20
168.9795195
40
1.0210941
50
154.5072776
51
162.5682748
0
ARC
8
DEFAULT_255_2_778
10
13.9273295
20
169.0942637
40
0.6318603
50
162.3915767
51
174.8213024
0
ARC
8
DEFAULT_255_2_778
10
13.7621865
20
169.1130744
40
0.4657093
50
175.2922289
51
179.9490984
0
ARC
8
DEFAULT_255_2_778
10
13.6350307
20
169.1056851
40
0.338643
50
178.6796766
51
234.9381893
0
ARC
8
DEFAULT_255_2_778
10
13.632674
20
169.11735
40
0.3469445
50
236.3635337
51
264.9414885
0
ARC
8
DEFAULT_255_2_778
10
13.6587382
20
169.2928364
40
0.5241505
50
263.7947872
51
270.1188666
0
ARC
8
DEFAULT_255_2_778
10
13.6534653
20
169.5302235
40
0.7615633
50
270.4785196
51
281.0719661
0
ARC
8
DEFAULT_255_2_778
10
13.5691544
20
169.9840841
40
1.2231753
50
280.8649891
51
287.2606546
0
ARC
8
DEFAULT_255_2_778
10
14.6238917
20
170.8170098
40
2.2970478
50
276.5245429
51
279.5045514
0
ARC
8
DEFAULT_255_2_778
10
14.6892816
20
170.2393746
40
1.7157236
50
272.7759418
51
276.5469051
0
ARC
8
DEFAULT_255_2_778
10
14.7090708
20
169.8591172
40
1.3349546
50
270.0439674
51
272.7180028
0
ARC
8
DEFAULT_255_2_778
10
14.7004544
20
169.3909578
40
0.8668484
50
258.6359382
51
270.6372354
0
ARC
8
DEFAULT_255_2_778
10
14.6077963
20
168.9550325
40
0.4212409
50
235.5405817
51
259.3086539
0
ARC
8
DEFAULT_255_2_778
10
14.5467089
20
168.8477012
40
0.2983588
50
181.5929591
51
233.550276
0
ARC
8
DEFAULT_255_2_778
10
14.744928
20
168.8776621
40
0.4979343
50
179.9387066
51
184.4062155
0
ARC
8
DEFAULT_255_2_778
10
14.8384963
20
168.9737319
40
0.2332136
50
194.3846046
51
259.805052
0
ARC
8
DEFAULT_255_2_778
10
14.9431283
20
169.3389805
40
0.6124159
50
256.2164989
51
270.9014371
0
ARC
8
DEFAULT_255_2_778
10
14.9522592
20
169.7059208
40
0.9792806
50
270.0294815
51
272.249316
0
LINE
8
DEFAULT_255_2_778
10
15.5955939
20
169.7761948
11
15.9421939
21
169.7761948
0
LINE
8
DEFAULT_255_2_778
10
15.9421939
20
169.7761948
11
16.2130939
21
169.0348948
0
LINE
8
DEFAULT_255_2_778
10
16.2130939
20
169.0348948
11
16.4839939
21
169.7825948
0
LINE
8
DEFAULT_255_2_778
10
16.4839939
20
169.7825948
11
16.7927939
21
169.7825948
0
LINE
8
DEFAULT_255_2_778
10
16.7927939
20
169.7825948
11
16.2884939
21
168.5323948
0
LINE
8
DEFAULT_255_2_778
10
16.2884939
20
168.5323948
11
16.0677939
21
168.5323948
0
LINE
8
DEFAULT_255_2_778
10
16.0677939
20
168.5323948
11
15.5955939
21
169.7761948
0
LINE
8
DEFAULT_255_2_778
10
6.2181939
20
170.4045948
11
6.3001939
21
170.4045948
0
LINE
8
DEFAULT_255_2_778
10
6.3001939
20
170.4045948
11
6.3001939
21
168.4476948
0
LINE
8
DEFAULT_255_2_778
10
6.3001939
20
168.4476948
11
18.5069939
21
168.4445948
0
LINE
8
DEFAULT_255_2_778
10
18.5069939
20
168.4445948
11
18.5101939
21
168.3627948
0
LINE
8
DEFAULT_255_2_778
10
18.5101939
20
168.3627948
11
6.2181939
21
168.3627948
0
LINE
8
DEFAULT_255_2_778
10
6.2181939
20
168.3627948
11
6.2181939
21
170.3982948
0
LINE
8
DEFAULT_255_2_778
10
13.9381939
20
168.8157948
11
14.0138939
21
168.6146948
0
LINE
8
DEFAULT_255_2_778
10
13.9950939
20
169.7203948
11
13.9320939
21
169.5068948
0
LINE
8
DEFAULT_255_2_778
10
14.2469939
20
168.8781948
11
14.2469939
21
169.5689948
0
LINE
8
DEFAULT_255_2_778
10
14.2469939
20
169.5689948
11
14.0577939
21
169.5689948
0
LINE
8
DEFAULT_255_2_778
10
14.0577939
20
169.5689948
11
14.0577939
21
169.7825948
0
LINE
8
DEFAULT_255_2_778
10
14.0577939
20
169.7825948
11
14.2469939
21
169.7825948
0
LINE
8
DEFAULT_255_2_778
10
14.2469939
20
169.7825948
11
14.3855939
21
170.2849948
0
LINE
8
DEFAULT_255_2_778
10
14.3855939
20
170.2849948
11
14.5998939
21
170.2849948
0
LINE
8
DEFAULT_255_2_778
10
14.5998939
20
170.2849948
11
14.6125939
21
169.7825948
0
LINE
8
DEFAULT_255_2_778
10
14.6125939
20
169.7825948
11
14.9528939
21
169.7825948
0
LINE
8
DEFAULT_255_2_778
10
14.9528939
20
169.7825948
11
14.9528939
21
169.5689948
0
LINE
8
DEFAULT_255_2_778
10
14.9528939
20
169.5689948
11
14.6125939
21
169.5689948
0
LINE
8
DEFAULT_255_2_778
10
14.6125939
20
169.5689948
11
14.6125939
21
168.9157948
0
LINE
8
DEFAULT_255_2_778
10
14.9906939
20
168.7273948
11
15.0031939
21
168.5514948
0
ARC
8
DEFAULT_255_2_778
10
18.2773623
20
168.4107188
40
0.588729
50
314.1492215
51
331.9331811
0
ARC
8
DEFAULT_255_2_778
10
18.4149706
20
168.2704819
40
0.3922582
50
269.0327782
51
313.9945782
0
ARC
8
DEFAULT_255_2_778
10
18.4132762
20
168.4627141
40
0.5844552
50
255.6362987
51
269.5169802
0
ARC
8
DEFAULT_255_2_778
10
18.4884838
20
168.7661704
40
0.8970861
50
246.6814554
51
255.7910989
0
ARC
8
DEFAULT_255_2_778
10
18.6133117
20
169.0692814
40
1.2248623
50
243.4464445
51
246.9318311
0
ARC
8
DEFAULT_255_2_778
10
18.337299
20
168.4984468
40
0.3644339
50
238.6793577
51
269.7549067
0
ARC
8
DEFAULT_255_2_778
10
18.3337129
20
168.5328517
40
0.3988407
50
270.291204
51
286.0311052
0
ARC
8
DEFAULT_255_2_778
10
18.3184816
20
168.3551248
40
0.2408146
50
301.3744029
51
328.6018723
0
ARC
8
DEFAULT_255_2_778
10
17.8323748
20
168.6819545
40
0.8264122
50
326.8184964
51
337.3943856
0
ARC
8
DEFAULT_255_2_778
10
16.7747134
20
169.1400751
40
1.978979
50
336.9203071
51
342.1242923
0
ARC
8
DEFAULT_255_2_778
10
18.1004201
20
168.9440584
40
0.1954042
50
190.120766
51
263.958695
0
ARC
8
DEFAULT_255_2_778
10
18.1765701
20
169.2466775
40
0.5062622
50
258.9866291
51
270.5697296
0
ARC
8
DEFAULT_255_2_778
10
18.1794576
20
169.5641093
40
0.8236717
50
270.1493118
51
275.0745303
0
ARC
8
DEFAULT_255_2_778
10
18.1624298
20
169.7812074
40
1.0414275
50
274.9512067
51
276.4741818
0
ARC
8
DEFAULT_255_2_778
10
17.886645
20
171.0368897
40
2.5191229
50
276.512331
51
279.4178265
0
ARC
8
DEFAULT_255_2_778
10
17.9624852
20
170.3667793
40
1.844735
50
272.9000807
51
276.5325546
0
ARC
8
DEFAULT_255_2_778
10
17.9861545
20
169.924706
40
1.4020311
50
270.0526278
51
272.8480745
0
ARC
8
DEFAULT_255_2_778
10
17.9781162
20
169.4159763
40
0.8933496
50
259.5051122
51
270.5981508
0
ARC
8
DEFAULT_255_2_778
10
17.8879991
20
168.9550767
40
0.4237712
50
238.7045764
51
260.1348639
0
ARC
8
DEFAULT_255_2_778
10
17.8042044
20
168.8087066
40
0.2552092
50
181.2540346
51
237.7100784
0
LINE
8
DEFAULT_255_2_778
10
11.0900564
20
169.5068213
11
11.0900564
21
168.8785213
0
ARC
8
DEFAULT_255_2_778
10
10.4261476
20
170.0707238
40
1.3645958
50
292.82637
51
299.1123799
0
ARC
8
DEFAULT_255_2_778
10
10.6927129
20
169.4288896
40
0.6696238
50
282.4400197
51
293.1090634
0
ARC
8
DEFAULT_255_2_778
10
10.7657535
20
169.1040188
40
0.3366487
50
270.5781586
51
282.2114611
0
ARC
8
DEFAULT_255_2_778
10
10.7638219
20
168.9380025
40
0.1706983
50
241.3905381
51
271.7888651
0
ARC
8
DEFAULT_255_2_778
10
10.747728
20
168.9012111
40
0.1307392
50
222.8359183
51
239.8616768
0
ARC
8
DEFAULT_255_2_778
10
10.8384234
20
169.0255377
40
0.2833169
50
195.5790395
51
228.8136819
0
ARC
8
DEFAULT_255_2_778
10
11.2237911
20
169.1493199
40
0.6879504
50
182.8967157
51
196.8898295
0
ARC
8
DEFAULT_255_2_778
10
11.7306858
20
169.1914695
40
1.1964408
50
179.9092738
51
183.6859184
0
ARC
8
DEFAULT_255_2_778
10
12.0984338
20
169.1918685
40
1.564188
50
177.2644099
51
179.9452207
0
ARC
8
DEFAULT_255_2_778
10
10.9853029
20
169.2456643
40
0.4497586
50
177.2655023
51
177.3418803
0
ARC
8
DEFAULT_255_2_778
10
11.0005314
20
169.2023533
40
0.4689689
50
149.0265023
51
172.0616653
0
ARC
8
DEFAULT_255_2_778
10
10.8347129
20
169.292706
40
0.2804063
50
88.5402025
51
147.4185874
0
ARC
8
DEFAULT_255_2_778
10
10.765833
20
168.7427465
40
0.833748
50
72.0191589
51
84.7683475
0
ARC
8
DEFAULT_255_2_778
10
10.8835174
20
169.1216106
40
0.4370876
50
61.8010517
51
71.3613167
0
ARC
8
DEFAULT_255_2_778
10
10.4736514
20
169.7910849
40
1.2921636
50
287.0718407
51
298.4918193
0
ARC
8
DEFAULT_255_2_778
10
10.6329455
20
169.2675683
40
0.744952
50
270.6824619
51
287.1805816
0
ARC
8
DEFAULT_255_2_778
10
10.6417292
20
169.1013517
40
0.5786826
50
267.7347632
51
270.0088495
0
ARC
8
DEFAULT_255_2_778
10
10.6222828
20
168.9423284
40
0.4192211
50
203.9093897
51
269.5317059
0
ARC
8
DEFAULT_255_2_778
10
11.0897602
20
169.2016638
40
0.9528801
50
192.6009015
51
206.7737237
0
ARC
8
DEFAULT_255_2_778
10
11.4915698
20
169.3099942
40
1.3687639
50
192.6165694
51
193.3570279
0
ARC
8
DEFAULT_255_2_778
10
11.1913353
20
169.2043735
40
1.0533763
50
182.6397763
51
190.5768818
0
ARC
8
DEFAULT_255_2_778
10
11.0376686
20
169.1947963
40
0.899435
50
180.0132575
51
182.4811747
0
ARC
8
DEFAULT_255_2_778
10
10.8120158
20
169.2106787
40
0.6739744
50
136.7445348
51
181.3680168
0
ARC
8
DEFAULT_255_2_778
10
10.662935
20
169.2991022
40
0.5062158
50
89.2409074
51
132.4668673
0
ARC
8
DEFAULT_255_2_778
10
10.6695554
20
169.1891706
40
0.6161029
50
87.804633
51
89.9919934
0
ARC
8
DEFAULT_255_2_778
10
10.680803
20
168.6474251
40
1.1574622
50
70.3133819
51
89.3884771
0
ARC
8
DEFAULT_255_2_778
10
10.5904169
20
168.343122
40
1.4745303
50
70.1933816
51
70.9898699
0
ARC
8
DEFAULT_255_2_778
10
9.3624696
20
169.1732942
40
0.1950108
50
91.6788031
51
181.813939
0
ARC
8
DEFAULT_255_2_778
10
9.3510433
20
169.1732942
40
0.1950108
50
358.186061
51
88.3211969
0
ARC
8
DEFAULT_255_2_778
10
9.3510433
20
169.1609484
40
0.1950108
50
271.6788031
51
1.813939
0
ARC
8
DEFAULT_255_2_778
10
9.3624696
20
169.1609484
40
0.1950108
50
178.186061
51
268.3211969
0
ARC
8
DEFAULT_255_2_778
10
9.5083893
20
169.1738546
40
0.4667814
50
145.0334623
51
180.8265163
0
ARC
8
DEFAULT_255_2_778
10
9.3653444
20
169.2815342
40
0.2879151
50
91.7092739
51
146.2799614
0
ARC
8
DEFAULT_255_2_778
10
9.3415333
20
169.2646136
40
0.3050877
50
23.4934874
51
87.1398977
0
ARC
8
DEFAULT_255_2_778
10
9.1870608
20
169.1707144
40
0.484809
50
359.5753549
51
26.3944218
0
ARC
8
DEFAULT_255_2_778
10
9.2053251
20
169.1603715
40
0.4665802
50
325.0256173
51
0.8288991
0
ARC
8
DEFAULT_255_2_778
10
9.3481982
20
169.0528215
40
0.2879274
50
271.7032906
51
326.2656695
0
ARC
8
DEFAULT_255_2_778
10
9.3719326
20
169.0697077
40
0.3050641
50
203.5053918
51
267.1485008
0
ARC
8
DEFAULT_255_2_778
10
9.5262703
20
169.1635158
40
0.4846274
50
179.5737352
51
206.399488
0
ARC
8
DEFAULT_255_2_778
10
9.3457714
20
169.1482876
40
0.6699322
50
95.9543621
51
178.9279918
0
ARC
8
DEFAULT_255_2_778
10
9.3689297
20
169.0794797
40
0.7409416
50
89.9824665
51
97.1836307
0
ARC
8
DEFAULT_255_2_778
10
9.3734037
20
169.109749
40
0.710685
50
48.754652
51
90.3424168
0
ARC
8
DEFAULT_255_2_778
10
9.4191906
20
169.1592682
40
0.6432677
50
0.1383337
51
48.9131618
0
ARC
8
DEFAULT_255_2_778
10
9.3926363
20
169.173368
40
0.6699376
50
275.9481082
51
358.9268911
0
ARC
8
DEFAULT_255_2_778
10
9.3693839
20
169.2425136
40
0.7412923
50
269.9824166
51
277.18192
0
ARC
8
DEFAULT_255_2_778
10
9.3648797
20
169.2115078
40
0.7102994
50
228.4135848
51
270.3449845
0
ARC
8
DEFAULT_255_2_778
10
9.3190178
20
169.1623099
40
0.6430631
50
180.1326312
51
228.5603801
0
ARC
8
DEFAULT_255_2_778
10
6.8108339
20
169.8578423
40
0.4410946
50
358.399361
51
20.0218069
0
ARC
8
DEFAULT_255_2_778
10
7.0253177
20
169.9339374
40
0.2135292
50
20.5419455
51
86.7410997
0
ARC
8
DEFAULT_255_2_778
10
6.9405407
20
169.8940724
40
0.314934
50
287.9227005
51
351.1869993
0
ARC
8
DEFAULT_255_2_778
10
7.0384907
20
169.8426459
40
0.6187549
50
4.9300483
51
29.901288
0
ARC
8
DEFAULT_255_2_778
10
7.1431875
20
169.8837073
40
0.5077965
50
31.774244
51
73.6174038
0
ARC
8
DEFAULT_255_2_778
10
7.0079481
20
169.5024064
40
0.9120309
50
72.2224415
51
84.9672302
0
ARC
8
DEFAULT_255_2_778
10
6.9734901
20
170.2659382
40
0.9424937
50
276.9758239
51
292.3160184
0
ARC
8
DEFAULT_255_2_778
10
7.1528558
20
169.8583093
40
0.4974119
50
291.0316637
51
353.5367683
0
ARC
8
DEFAULT_255_2_778
10
6.8831249
20
169.9135383
40
0.7720348
50
351.7170585
51
358.6850323
0
LINE
8
DEFAULT_255_2_778
10
18.0657564
20
167.9736213
11
18.1478564
21
168.1871213
0
LINE
8
DEFAULT_255_2_778
10
18.6581564
20
168.5326213
11
18.2295564
21
169.5629213
0
LINE
8
DEFAULT_255_2_778
10
18.2295564
20
169.5629213
11
17.9080564
21
169.5629213
0
LINE
8
DEFAULT_255_2_778
10
17.9080564
20
169.5629213
11
17.9080564
21
168.9097213
0
LINE
8
DEFAULT_255_2_778
10
18.2798564
20
168.7464213
11
18.2988564
21
168.5517213
0
LINE
8
DEFAULT_255_2_778
10
17.5490564
20
168.8031213
11
17.5363564
21
169.5695213
0
LINE
8
DEFAULT_255_2_778
10
17.5363564
20
169.5695213
11
17.3471564
21
169.5695213
0
LINE
8
DEFAULT_255_2_778
10
17.3471564
20
169.5695213
11
17.3471564
21
169.7831213
0
LINE
8
DEFAULT_255_2_778
10
17.3471564
20
169.7831213
11
17.5487564
21
169.7831213
0
LINE
8
DEFAULT_255_2_778
10
17.5487564
20
169.7831213
11
17.6747564
21
170.2855213
0
LINE
8
DEFAULT_255_2_778
10
17.6747564
20
170.2855213
11
17.8890564
21
170.2855213
0
LINE
8
DEFAULT_255_2_778
10
17.8890564
20
170.2855213
11
17.9017564
21
169.7831213
0
LINE
8
DEFAULT_255_2_778
10
17.9017564
20
169.7831213
11
18.5319564
21
169.7831213
0
LINE
8
DEFAULT_255_2_778
10
18.5319564
20
169.7831213
11
18.8343564
21
168.9539213
0
LINE
8
DEFAULT_255_2_778
10
18.8343564
20
168.9539213
11
19.1368564
21
169.7831213
0
LINE
8
DEFAULT_255_2_778
10
19.1368564
20
169.7831213
11
19.4519564
21
169.7831213
0
LINE
8
DEFAULT_255_2_778
10
19.4519564
20
169.7831213
11
18.7965564
21
168.1371213
0
LINE
8
DEFAULT_255_2_778
10
11.0900564
20
169.5068213
11
11.0900564
21
169.5068213
0
LINE
8
DEFAULT_255_2_778
10
11.0900564
20
169.7302213
11
11.0900564
21
170.4826213
0
LINE
8
DEFAULT_255_2_778
10
11.0900564
20
170.4826213
11
11.4538564
21
170.5239213
0
LINE
8
DEFAULT_255_2_778
10
11.4538564
20
170.5239213
11
11.4538564
21
168.5562213
0
LINE
8
DEFAULT_255_2_778
10
11.4538564
20
168.5562213
11
11.0982564
21
168.5562213
0
LINE
8
DEFAULT_255_2_778
10
11.0982564
20
168.5562213
11
11.0900564
21
168.6554213
0
LINE
8
DEFAULT_255_2_778
10
11.0900564
20
169.7304213
11
11.0900564
21
169.7302213
0
LINE
8
DEFAULT_255_2_778
10
9.1675564
20
169.1671213
11
9.1675564
21
169.1671213
0
LINE
8
DEFAULT_255_2_778
10
9.0416564
20
169.1671213
11
9.0416564
21
169.1671213
0
LINE
8
DEFAULT_255_2_778
10
8.6759564
20
169.1608213
11
8.6759564
21
169.1608213
0
LINE
8
DEFAULT_255_2_778
10
7.0374564
20
170.1471213
11
6.7728564
21
170.1471213
0
LINE
8
DEFAULT_255_2_778
10
6.7728564
20
170.1471213
11
6.7728564
21
169.5944213
0
LINE
8
DEFAULT_255_2_778
10
6.7728564
20
169.5944213
11
7.0374564
21
169.5944213
0
LINE
8
DEFAULT_255_2_778
10
7.2517564
20
169.8458213
11
7.2517564
21
169.8455213
0
LINE
8
DEFAULT_255_2_778
10
7.0879564
20
170.4109213
11
6.3820564
21
170.4109213
0
LINE
8
DEFAULT_255_2_778
10
6.3820564
20
170.4109213
11
6.3820564
21
168.5514213
0
LINE
8
DEFAULT_255_2_778
10
6.3820564
20
168.5514213
11
6.7728564
21
168.5514213
0
LINE
8
DEFAULT_255_2_778
10
6.7728564
20
168.5514213
11
6.7728564
21
169.3304213
0
LINE
8
DEFAULT_255_2_778
10
6.7728564
20
169.3304213
11
7.0879564
21
169.3304213
0
LINE
8
DEFAULT_255_2_778
10
7.6549564
20
169.8958213
11
7.6549564
21
169.8958213
0
LINE
8
DEFAULT_255_1_388
10
7.8500094
20
165.9013317
11
7.5400868
21
165.9013317
0
LINE
8
DEFAULT_255_1_388
10
7.5400868
20
165.9013317
11
7.5400868
21
165.3863
0
LINE
8
DEFAULT_255_1_388
10
7.5400868
20
165.3863
11
7.3666024
21
165.3863
0
LINE
8
DEFAULT_255_1_388
10
7.3666024
20
165.3863
11
7.3666024
21
166.7018898
0
LINE
8
DEFAULT_255_1_388
10
7.3666024
20
166.7018898
11
7.8518165
21
166.7018898
0
LINE
8
DEFAULT_255_1_388
10
7.5400868
20
166.5591267
11
7.5400868
21
166.0431914
0
LINE
8
DEFAULT_255_1_388
10
7.5400868
20
166.0431914
11
7.8518165
21
166.0431914
0
LINE
8
DEFAULT_255_1_388
10
7.8617557
20
166.5591267
11
7.5400868
21
166.5591267
0
ARC
8
DEFAULT_255_1_388
10
7.8565538
20
166.0202334
40
0.6816729
50
78.8380084
51
90.398184
0
ARC
8
DEFAULT_255_1_388
10
7.9033569
20
166.2475796
40
0.449571
50
58.9633273
51
79.0810717
0
ARC
8
DEFAULT_255_1_388
10
7.9372953
20
166.3105823
40
0.3781049
50
48.0194715
51
58.4475592
0
ARC
8
DEFAULT_255_1_388
10
7.9472773
20
166.3201818
40
0.3642936
50
3.3374546
51
48.1766642
0
ARC
8
DEFAULT_255_1_388
10
7.808758
20
166.3002581
40
0.5038766
50
359.9483251
51
4.6822857
0
ARC
8
DEFAULT_255_1_388
10
7.8227503
20
166.2954779
40
0.4899031
50
346.1879032
51
0.5059221
0
ARC
8
DEFAULT_255_1_388
10
7.9756295
20
166.2557763
40
0.3319729
50
310.8832219
51
346.5426612
0
ARC
8
DEFAULT_255_1_388
10
7.9409143
20
166.3026853
40
0.3901853
50
286.6925305
51
310.228778
0
ARC
8
DEFAULT_255_1_388
10
7.8768873
20
166.5040585
40
0.6014737
50
274.6848219
51
287.0247342
0
ARC
8
DEFAULT_255_1_388
10
7.8515422
20
166.7525088
40
0.8511785
50
269.8968222
51
275.0192639
0
ARC
8
DEFAULT_255_1_388
10
7.8546415
20
166.5187144
40
0.4755314
50
269.6596206
51
279.4150542
0
ARC
8
DEFAULT_255_1_388
10
7.8835873
20
166.3509945
40
0.3053379
50
279.2050006
51
294.9901776
0
ARC
8
DEFAULT_255_1_388
10
7.9162508
20
166.2781353
40
0.2255036
50
295.2886769
51
311.2912669
0
ARC
8
DEFAULT_255_1_388
10
7.9242249
20
166.2662938
40
0.2113522
50
311.7853512
51
347.2860549
0
ARC
8
DEFAULT_255_1_388
10
7.813541
20
166.294743
40
0.3256011
50
346.6891629
51
0.1057086
0
ARC
8
DEFAULT_255_1_388
10
7.721287
20
166.2980247
40
0.417863
50
359.63239
51
359.9961329
0
ARC
8
DEFAULT_255_1_388
10
7.8377475
20
166.3007987
40
0.3014155
50
359.4673371
51
15.5931159
0
ARC
8
DEFAULT_255_1_388
10
7.9080538
20
166.3197937
40
0.2285918
50
15.7441779
51
46.620186
0
ARC
8
DEFAULT_255_1_388
10
7.8914298
20
166.3006361
40
0.2539359
50
46.8628482
51
75.6676625
0
ARC
8
DEFAULT_255_1_388
10
7.8583354
20
166.1815243
40
0.3775415
50
75.2763152
51
88.2916439
0
ARC
8
DEFAULT_255_1_388
10
7.8517354
20
166.0813097
40
0.4779221
50
87.8589087
51
88.7986197
0
LINE
8
DEFAULT_255_1_388
10
8.9803685
20
166.3693781
11
8.9803685
21
166.213965
0
LINE
8
DEFAULT_255_1_388
10
8.6749637
20
166.0802375
11
8.6749637
21
165.3863
0
LINE
8
DEFAULT_255_1_388
10
8.6749637
20
165.3863
11
8.5078043
21
165.3863
0
LINE
8
DEFAULT_255_1_388
10
8.5078043
20
165.3863
11
8.5078043
21
166.3639567
0
LINE
8
DEFAULT_255_1_388
10
8.5078043
20
166.3639567
11
8.6704459
21
166.3639567
0
LINE
8
DEFAULT_255_1_388
10
8.6704459
20
166.3639567
11
8.6731566
21
166.2510112
0
ARC
8
DEFAULT_255_1_388
10
8.9053845
20
165.7573068
40
0.4627735
50
80.6751522
51
86.893806
0
ARC
8
DEFAULT_255_1_388
10
8.8985675
20
165.6481103
40
0.5721798
50
86.8046851
51
90.0423898
0
ARC
8
DEFAULT_255_1_388
10
8.8944094
20
165.9248197
40
0.2954939
50
89.2758283
51
106.6212906
0
ARC
8
DEFAULT_255_1_388
10
8.8714119
20
166.0084009
40
0.2088351
50
107.1347109
51
157.6456887
0
ARC
8
DEFAULT_255_1_388
10
8.9482181
20
165.9656908
40
0.296292
50
155.6557383
51
157.256838
0
ARC
8
DEFAULT_255_1_388
10
8.9261795
20
166.0967472
40
0.296341
50
127.8167201
51
148.6300223
0
ARC
8
DEFAULT_255_1_388
10
8.8976543
20
166.1260066
40
0.2557782
50
91.3329934
51
126.7875218
0
ARC
8
DEFAULT_255_1_388
10
8.906193
20
166.0456718
40
0.3363561
50
89.9858247
51
92.4688453
0
ARC
8
DEFAULT_255_1_388
10
8.9071423
20
166.0765114
40
0.3055179
50
85.3587643
51
90.1624243
0
ARC
8
DEFAULT_255_1_388
10
8.9166488
20
166.1894458
40
0.1921848
50
78.4019195
51
85.4592653
0
ARC
8
DEFAULT_255_1_388
10
8.9329549
20
166.2672142
40
0.1127267
50
67.7849217
51
78.573798
0
ARC
8
DEFAULT_255_1_388
10
8.9451183
20
166.2987374
40
0.0789473
50
63.4805074
51
67.3074739
0
LINE
8
DEFAULT_255_1_388
10
9.0716285
20
165.8724177
11
9.0716285
21
165.884164
0
LINE
8
DEFAULT_255_1_388
10
9.9616395
20
165.8760319
11
9.9616395
21
165.8642856
0
ARC
8
DEFAULT_255_1_388
10
9.700073
20
165.887804
40
0.628455
50
166.3005265
51
180.3318609
0
ARC
8
DEFAULT_255_1_388
10
9.6030079
20
165.9095267
40
0.52901
50
153.8608648
51
166.0965672
0
ARC
8
DEFAULT_255_1_388
10
9.5281245
20
165.9496652
40
0.4441126
50
135.1317053
51
154.2534962
0
ARC
8
DEFAULT_255_1_388
10
9.4967896
20
165.9773431
40
0.4023863
50
121.7042632
51
134.7771455
0
ARC
8
DEFAULT_255_1_388
10
9.5043328
20
165.9628469
40
0.4186852
50
93.4001111
51
121.5399523
0
ARC
8
DEFAULT_255_1_388
10
9.5150162
20
165.8698759
40
0.5121521
50
89.9706387
51
93.9763381
0
ARC
8
DEFAULT_255_1_388
10
9.5203147
20
165.9138563
40
0.4681988
50
71.3321659
51
90.6162917
0
ARC
8
DEFAULT_255_1_388
10
9.538618
20
165.9816003
40
0.3981841
50
41.1813875
51
70.7072086
0
ARC
8
DEFAULT_255_1_388
10
9.4848897
20
165.932813
40
0.4707474
50
12.1971434
51
41.3446641
0
ARC
8
DEFAULT_255_1_388
10
9.268216
20
165.8812328
40
0.6934429
50
359.5702713
51
12.5803533
0
ARC
8
DEFAULT_255_1_388
10
9.3214476
20
165.8607207
40
0.6402018
50
347.0196754
51
0.3190452
0
ARC
8
DEFAULT_255_1_388
10
9.429253
20
165.8375189
40
0.5299421
50
334.350439
51
346.8460534
0
ARC
8
DEFAULT_255_1_388
10
9.5243776
20
165.7881244
40
0.4228234
50
310.4228125
51
334.8045131
0
ARC
8
DEFAULT_255_1_388
10
9.5335754
20
165.7809301
40
0.4113892
50
301.8488154
51
310.0972985
0
ARC
8
DEFAULT_255_1_388
10
9.5299495
20
165.7894573
40
0.4205483
50
274.3078723
51
301.6554173
0
ARC
8
DEFAULT_255_1_388
10
9.517495
20
165.8881943
40
0.5199658
50
269.954904
51
274.859116
0
ARC
8
DEFAULT_255_1_388
10
9.5119774
20
165.8318239
40
0.4636233
50
250.8887647
51
270.6313164
0
ARC
8
DEFAULT_255_1_388
10
9.4950935
20
165.7689405
40
0.398705
50
221.1701369
51
250.2227012
0
ARC
8
DEFAULT_255_1_388
10
9.54956
20
165.8185716
40
0.4723796
50
191.6263861
51
221.3526879
0
ARC
8
DEFAULT_255_1_388
10
9.7619446
20
165.8677203
40
0.6903321
50
179.6101251
51
192.0694841
0
ARC
8
DEFAULT_255_1_388
10
9.8095793
20
165.8606681
40
0.5698993
50
179.636304
51
190.6161344
0
ARC
8
DEFAULT_255_1_388
10
9.6248125
20
165.8246635
40
0.3816643
50
190.4136062
51
208.7168709
0
ARC
8
DEFAULT_255_1_388
10
9.5674159
20
165.7961905
40
0.3176572
50
209.187109
51
217.4221816
0
ARC
8
DEFAULT_255_1_388
10
9.507863
20
165.7437729
40
0.2385702
50
216.1156863
51
265.2575395
0
ARC
8
DEFAULT_255_1_388
10
9.5167666
20
165.8082608
40
0.3035941
50
264.5891546
51
270.0602378
0
ARC
8
DEFAULT_255_1_388
10
9.5204863
20
165.7655539
40
0.2609091
50
269.2532353
51
291.8793864
0
ARC
8
DEFAULT_255_1_388
10
9.5237742
20
165.7455359
40
0.241148
50
292.9269367
51
323.1777736
0
ARC
8
DEFAULT_255_1_388
10
9.4767027
20
165.7868762
40
0.3036446
50
322.25666
51
323.087958
0
ARC
8
DEFAULT_255_1_388
10
9.4464285
20
165.8051332
40
0.3388345
50
323.6941379
51
343.8493587
0
ARC
8
DEFAULT_255_1_388
10
9.2688721
20
165.8591698
40
0.5244204
50
343.5746655
51
355.008149
0
ARC
8
DEFAULT_255_1_388
10
9.0430413
20
165.8825797
40
0.7514406
50
354.728272
51
0.1208026
0
ARC
8
DEFAULT_255_1_388
10
9.2419438
20
165.8877947
40
0.5525482
50
359.6235211
51
11.2016685
0
ARC
8
DEFAULT_255_1_388
10
9.4145265
20
165.9233284
40
0.3763527
50
10.9991302
51
30.8317616
0
ARC
8
DEFAULT_255_1_388
10
9.4590569
20
165.9467988
40
0.3260975
50
31.3007463
51
37.395541
0
ARC
8
DEFAULT_255_1_388
10
9.5149288
20
165.9939773
40
0.253082
50
36.5918894
51
62.2439906
0
ARC
8
DEFAULT_255_1_388
10
9.520158
20
165.9936378
40
0.2509927
50
63.3364883
51
89.7193846
0
ARC
8
DEFAULT_255_1_388
10
9.5153033
20
165.9288375
40
0.3158485
50
88.8962924
51
90.004475
0
ARC
8
DEFAULT_255_1_388
10
9.5117461
20
165.9941071
40
0.250604
50
89.1923115
51
114.7099029
0
ARC
8
DEFAULT_255_1_388
10
9.5149802
20
165.9983675
40
0.2481307
50
115.7996284
51
142.2901353
0
ARC
8
DEFAULT_255_1_388
10
9.5618073
20
165.9564752
40
0.310833
50
141.4607507
51
142.383894
0
ARC
8
DEFAULT_255_1_388
10
9.5765925
20
165.9496449
40
0.3267335
50
143.0176473
51
163.2340089
0
ARC
8
DEFAULT_255_1_388
10
9.7541213
20
165.8934553
40
0.5129308
50
162.9446504
51
174.3733893
0
ARC
8
DEFAULT_255_1_388
10
9.9955186
20
165.8663483
40
0.75583
50
174.1225809
51
180.1563667
0
LINE
8
DEFAULT_255_1_388
10
10.1306061
20
165.8706105
11
10.1306061
21
165.8832604
0
LINE
8
DEFAULT_255_1_388
10
10.788401
20
166.2645646
11
10.788401
21
166.774175
0
LINE
8
DEFAULT_255_1_388
10
10.788401
20
166.774175
11
10.9555604
21
166.774175
0
LINE
8
DEFAULT_255_1_388
10
10.9555604
20
166.774175
11
10.9555604
21
165.3863
0
LINE
8
DEFAULT_255_1_388
10
10.9555604
20
165.3863
11
10.8019544
21
165.3863
0
LINE
8
DEFAULT_255_1_388
10
10.8019544
20
165.3863
11
10.7938224
21
165.4911135
0
LINE
8
DEFAULT_255_1_388
10
10.788401
20
165.6528515
11
10.788401
21
166.101923
0
ARC
8
DEFAULT_255_1_388
10
10.9040754
20
165.8882084
40
0.7734851
50
169.1662656
51
180.3665225
0
ARC
8
DEFAULT_255_1_388
10
10.6569663
20
165.9374773
40
0.5215235
50
150.2837807
51
169.3798657
0
ARC
8
DEFAULT_255_1_388
10
10.5857114
20
165.9739124
40
0.4415937
50
142.1063912
51
149.8065902
0
ARC
8
DEFAULT_255_1_388
10
10.5213326
20
166.0299913
40
0.3563766
50
118.4282495
51
142.8642233
0
ARC
8
DEFAULT_255_1_388
10
10.5102338
20
166.0370109
40
0.3449797
50
89.9199141
51
117.3621403
0
ARC
8
DEFAULT_255_1_388
10
10.516419
20
165.9495171
40
0.4325108
50
89.9988001
51
90.7555106
0
ARC
8
DEFAULT_255_1_388
10
10.5206268
20
165.9782362
40
0.4038136
50
72.8979482
51
90.595751
0
ARC
8
DEFAULT_255_1_388
10
10.5428948
20
166.0586099
40
0.3204539
50
39.9932308
51
72.4773248
0
ARC
8
DEFAULT_255_1_388
10
10.5396039
20
165.6972007
40
0.3272598
50
275.0849466
51
320.9693562
0
ARC
8
DEFAULT_255_1_388
10
10.5154955
20
165.8397895
40
0.4715615
50
269.8937433
51
276.4672347
0
ARC
8
DEFAULT_255_1_388
10
10.5078495
20
165.697215
40
0.3290559
50
222.0839188
51
271.1791339
0
ARC
8
DEFAULT_255_1_388
10
10.5766004
20
165.7675998
40
0.4272982
50
217.5168262
51
222.9097935
0
ARC
8
DEFAULT_255_1_388
10
10.6320877
20
165.8057851
40
0.4945763
50
193.0962732
51
217.1109075
0
ARC
8
DEFAULT_255_1_388
10
10.8522607
20
165.8607252
40
0.7214806
50
181.1071959
51
193.3839643
0
ARC
8
DEFAULT_255_1_388
10
11.0406983
20
165.8704904
40
0.9100921
50
179.9924355
51
181.4926257
0
ARC
8
DEFAULT_255_1_388
10
10.947834
20
165.8607904
40
0.650078
50
179.6919448
51
188.655086
0
ARC
8
DEFAULT_255_1_388
10
10.7206397
20
165.8250086
40
0.420088
50
188.4934981
51
202.2188222
0
ARC
8
DEFAULT_255_1_388
10
10.6118204
20
165.7818888
40
0.3030458
50
202.4516374
51
215.9308342
0
ARC
8
DEFAULT_255_1_388
10
10.5451628
20
165.728769
40
0.2179351
50
214.9061987
51
264.2076983
0
ARC
8
DEFAULT_255_1_388
10
10.5557166
20
165.7959867
40
0.2858989
50
263.4629438
51
270.0938577
0
ARC
8
DEFAULT_255_1_388
10
10.56021
20
165.785673
40
0.2756141
50
269.1632216
51
291.0932257
0
ARC
8
DEFAULT_255_1_388
10
10.5694005
20
165.7483218
40
0.2375078
50
292.2675188
51
328.1937653
0
ARC
8
DEFAULT_255_1_388
10
10.4916663
20
165.8044245
40
0.3332054
50
327.040169
51
332.941918
0
ARC
8
DEFAULT_255_1_388
10
10.5380876
20
165.9706122
40
0.2826647
50
27.6808655
51
48.7895461
0
ARC
8
DEFAULT_255_1_388
10
10.5699512
20
165.9999738
40
0.2396281
50
49.8958562
51
87.0102063
0
ARC
8
DEFAULT_255_1_388
10
10.5582356
20
165.9113941
40
0.3287745
50
85.7763593
51
90.0424518
0
ARC
8
DEFAULT_255_1_388
10
10.5549423
20
165.9855766
40
0.25461
50
89.3136862
51
109.426258
0
ARC
8
DEFAULT_255_1_388
10
10.5465845
20
166.019891
40
0.2194978
50
110.3479382
51
145.1577921
0
ARC
8
DEFAULT_255_1_388
10
10.6201325
20
165.966319
40
0.3104736
50
144.7981654
51
162.8715843
0
ARC
8
DEFAULT_255_1_388
10
10.8107925
20
165.9050138
40
0.5107383
50
162.598526
51
173.3417416
0
ARC
8
DEFAULT_255_1_388
10
11.1109298
20
165.8677767
40
0.8131718
50
173.1877249
51
180.2459848
0
LINE
8
DEFAULT_255_1_388
10
11.8220787
20
165.3863
11
11.8184645
21
165.4829814
0
LINE
8
DEFAULT_255_1_388
10
11.2112691
20
165.7278474
11
11.2112691
21
166.3639567
0
LINE
8
DEFAULT_255_1_388
10
11.2112691
20
166.3639567
11
11.3784286
21
166.3639567
0
LINE
8
DEFAULT_255_1_388
10
11.3784286
20
166.3639567
11
11.3784286
21
165.7323652
0
LINE
8
DEFAULT_255_1_388
10
11.8139466
20
165.6528515
11
11.8139466
21
166.3639567
0
LINE
8
DEFAULT_255_1_388
10
11.8139466
20
166.3639567
11
11.9811061
21
166.3639567
0
LINE
8
DEFAULT_255_1_388
10
11.9811061
20
166.3639567
11
11.9811061
21
165.3863
0
LINE
8
DEFAULT_255_1_388
10
11.9811061
20
165.3863
11
11.8220787
21
165.3863
0
ARC
8
DEFAULT_255_1_388
10
11.5804683
20
165.6874675
40
0.3137782
50
282.5436457
51
319.3308483
0
ARC
8
DEFAULT_255_1_388
10
11.5369109
20
165.8569138
40
0.4886732
50
269.8919644
51
283.213949
0
ARC
8
DEFAULT_255_1_388
10
11.5320078
20
165.9973412
40
0.6291125
50
270.0024363
51
270.3626317
0
ARC
8
DEFAULT_255_1_388
10
11.5286056
20
165.7972026
40
0.4289875
50
257.7354503
51
270.4579702
0
ARC
8
DEFAULT_255_1_388
10
11.4951594
20
165.6510679
40
0.2790881
50
233.3385202
51
258.072161
0
ARC
8
DEFAULT_255_1_388
10
11.4800459
20
165.6263828
40
0.250276
50
221.9625878
51
232.7397557
0
ARC
8
DEFAULT_255_1_388
10
11.5115422
20
165.6505961
40
0.2899023
50
197.9449652
51
221.3587453
0
ARC
8
DEFAULT_255_1_388
10
11.6684927
20
165.7042197
40
0.4557469
50
185.8086112
51
198.2791204
0
ARC
8
DEFAULT_255_1_388
10
11.8813675
20
165.7295327
40
0.6701004
50
180.1441004
51
186.1197471
0
ARC
8
DEFAULT_255_1_388
10
11.7799353
20
165.7283589
40
0.4015267
50
179.428312
51
191.0738067
0
ARC
8
DEFAULT_255_1_388
10
11.5905535
20
165.689262
40
0.2081712
50
190.5250706
51
212.6989599
0
ARC
8
DEFAULT_255_1_388
10
11.5383303
20
165.6604416
40
0.1487075
50
214.2246262
51
264.4398306
0
ARC
8
DEFAULT_255_1_388
10
11.5582816
20
165.7627845
40
0.2526976
50
262.1851951
51
270.1949702
0
ARC
8
DEFAULT_255_1_388
10
11.562992
20
165.906346
40
0.3962764
50
269.4432626
51
282.9581304
0
ARC
8
DEFAULT_255_1_388
10
11.600872
20
165.7522077
40
0.2375807
50
282.3910141
51
311.9723859
0
ARC
8
DEFAULT_255_1_388
10
11.6017253
20
165.7440255
40
0.2309774
50
313.1724921
51
336.7508062
0
LINE
8
DEFAULT_255_1_388
10
12.8575636
20
165.6944155
11
13.0156874
21
165.6944155
0
LINE
8
DEFAULT_255_1_388
10
12.1916366
20
165.8660927
11
12.1916366
21
165.8941032
0
LINE
8
DEFAULT_255_1_388
10
13.0156874
20
166.0278308
11
12.8575636
21
166.0278308
0
LINE
8
DEFAULT_255_1_388
10
12.358796
20
165.8877783
11
12.358796
21
165.8561535
0
ARC
8
DEFAULT_255_1_388
10
12.6312193
20
165.7454109
40
0.2407783
50
269.0327343
51
309.2224588
0
ARC
8
DEFAULT_255_1_388
10
12.6548196
20
165.721219
40
0.207135
50
308.3965377
51
329.6987678
0
ARC
8
DEFAULT_255_1_388
10
12.6703255
20
165.7094899
40
0.1878439
50
330.4013397
51
355.3970937
0
ARC
8
DEFAULT_255_1_388
10
12.7217239
20
165.7114312
40
0.2944555
50
329.2357424
51
356.6872018
0
ARC
8
DEFAULT_255_1_388
10
12.6599134
20
165.7441153
40
0.3643032
50
324.8702872
51
329.7911998
0
ARC
8
DEFAULT_255_1_388
10
12.6510416
20
165.7517113
40
0.3759315
50
298.8769973
51
324.7015261
0
ARC
8
DEFAULT_255_1_388
10
12.613696
20
165.811229
40
0.4461015
50
296.902888
51
299.3854973
0
ARC
8
DEFAULT_255_1_388
10
12.6282957
20
165.7788595
40
0.4106323
50
269.8407861
51
297.1298875
0
ARC
8
DEFAULT_255_1_388
10
12.6222953
20
165.8506354
40
0.4824312
50
253.3156606
51
270.5771301
0
ARC
8
DEFAULT_255_1_388
10
12.5945131
20
165.7500943
40
0.3781531
50
221.1002518
51
252.9743523
0
ARC
8
DEFAULT_255_1_388
10
12.6462601
20
165.7945131
40
0.4463481
50
194.5394284
51
221.0302764
0
ARC
8
DEFAULT_255_1_388
10
12.8542422
20
165.8524897
40
0.6622359
50
182.0498004
51
194.8774376
0
ARC
8
DEFAULT_255_1_388
10
13.0535511
20
165.8657778
40
0.8619146
50
179.9790673
51
182.4586753
0
ARC
8
DEFAULT_255_1_388
10
12.8578825
20
165.8974412
40
0.6662543
50
168.615001
51
180.2870547
0
ARC
8
DEFAULT_255_1_388
10
12.7226734
20
165.9239636
40
0.5284705
50
154.9162417
51
168.5402053
0
ARC
8
DEFAULT_255_1_388
10
12.619001
20
165.9751942
40
0.4128641
50
133.5745308
51
155.2559538
0
ARC
8
DEFAULT_255_1_388
10
12.6006853
20
165.9908116
40
0.3889328
50
122.0165845
51
133.2056002
0
ARC
8
DEFAULT_255_1_388
10
12.6047177
20
165.9808977
40
0.3994808
50
97.8732516
51
121.753124
0
ARC
8
DEFAULT_255_1_388
10
12.6248635
20
165.861959
40
0.5200708
50
89.8471322
51
98.2768545
0
ARC
8
DEFAULT_255_1_388
10
12.6303483
20
165.9305809
40
0.4514657
50
73.3760755
51
90.5199878
0
ARC
8
DEFAULT_255_1_388
10
12.6524399
20
166.011855
40
0.3672743
50
47.7085939
51
73.0510707
0
ARC
8
DEFAULT_255_1_388
10
12.6670502
20
166.0245231
40
0.3480795
50
3.7442743
51
48.0844373
0
ARC
8
DEFAULT_255_1_388
10
12.5558496
20
166.0067946
40
0.4603187
50
2.6192831
51
5.0424684
0
ARC
8
DEFAULT_255_1_388
10
12.6073967
20
166.0112986
40
0.2507126
50
3.78087
51
23.9354314
0
ARC
8
DEFAULT_255_1_388
10
12.6331226
20
166.0203644
40
0.2235311
50
24.4867863
51
46.9439952
0
ARC
8
DEFAULT_255_1_388
10
12.6332172
20
166.0229874
40
0.2215567
50
46.4987715
51
89.3298168
0
ARC
8
DEFAULT_255_1_388
10
12.626283
20
165.9563742
40
0.2883121
50
88.1066411
51
90.0063536
0
ARC
8
DEFAULT_255_1_388
10
12.6231806
20
165.9621548
40
0.2825481
50
89.3773571
51
107.2070287
0
ARC
8
DEFAULT_255_1_388
10
12.6071075
20
166.0203667
40
0.2221946
50
107.688418
51
143.3582986
0
ARC
8
DEFAULT_255_1_388
10
12.6709369
20
165.9724064
40
0.3020337
50
143.2845866
51
162.9352432
0
ARC
8
DEFAULT_255_1_388
10
12.8403385
20
165.9180401
40
0.4799362
50
162.6652705
51
174.0802646
0
ARC
8
DEFAULT_255_1_388
10
13.0813866
20
165.8900287
40
0.7225942
50
173.8422673
51
180.1784414
0
ARC
8
DEFAULT_255_1_388
10
13.0197536
20
165.8527276
40
0.6609665
50
179.7030218
51
188.2277356
0
ARC
8
DEFAULT_255_1_388
10
12.7833144
20
165.8173143
40
0.4218948
50
188.0630838
51
201.115837
0
ARC
8
DEFAULT_255_1_388
10
12.6598029
20
165.770173
40
0.2896941
50
201.2186162
51
216.9761863
0
ARC
8
DEFAULT_255_1_388
10
12.6090186
20
165.7321225
40
0.2262366
50
217.0136373
51
265.2055518
0
ARC
8
DEFAULT_255_1_388
10
12.6265523
20
165.8358503
40
0.3311837
50
263.6824874
51
270.1042034
0
LINE
8
DEFAULT_255_1_388
10
13.263264
20
166.6006906
11
13.4304234
21
166.6006906
0
LINE
8
DEFAULT_255_1_388
10
13.4304234
20
166.6006906
11
13.4304234
21
166.3639567
0
LINE
8
DEFAULT_255_1_388
10
13.4304234
20
166.3639567
11
13.6129435
21
166.3639567
0
LINE
8
DEFAULT_255_1_388
10
13.6129435
20
166.3639567
11
13.6129435
21
166.234747
0
LINE
8
DEFAULT_255_1_388
10
13.6129435
20
166.234747
11
13.4304234
21
166.234747
0
LINE
8
DEFAULT_255_1_388
10
13.4304234
20
166.234747
11
13.4304234
21
165.6284553
0
LINE
8
DEFAULT_255_1_388
10
13.6174613
20
165.5218347
11
13.6174613
21
165.3863
0
LINE
8
DEFAULT_255_1_388
10
13.263264
20
165.6284553
11
13.263264
21
166.234747
0
LINE
8
DEFAULT_255_1_388
10
13.263264
20
166.234747
11
13.0852618
21
166.234747
0
LINE
8
DEFAULT_255_1_388
10
13.0852618
20
166.234747
11
13.0852618
21
166.3639567
0
LINE
8
DEFAULT_255_1_388
10
13.0852618
20
166.3639567
11
13.263264
21
166.3639567
0
LINE
8
DEFAULT_255_1_388
10
13.263264
20
166.3639567
11
13.263264
21
166.6006906
0
ARC
8
DEFAULT_255_1_388
10
13.6562742
20
165.6272842
40
0.2258538
50
179.7029045
51
187.9180047
0
ARC
8
DEFAULT_255_1_388
10
13.5723316
20
165.6152019
40
0.1410477
50
187.7540838
51
200.2454047
0
ARC
8
DEFAULT_255_1_388
10
13.5250221
20
165.5975591
40
0.0905561
50
200.1304287
51
219.1733455
0
ARC
8
DEFAULT_255_1_388
10
13.5097388
20
165.5871695
40
0.0721626
50
220.4434631
51
249.6169985
0
ARC
8
DEFAULT_255_1_388
10
13.5271614
20
165.6309919
40
0.1193141
50
249.1038184
51
262.7745376
0
ARC
8
DEFAULT_255_1_388
10
13.5370796
20
165.7017481
40
0.1907583
50
262.4921618
51
270.2607019
0
ARC
8
DEFAULT_255_1_388
10
13.5367878
20
165.7259817
40
0.2149929
50
270.309081
51
275.6615459
0
ARC
8
DEFAULT_255_1_388
10
13.5207286
20
165.8948342
40
0.3846066
50
275.5607354
51
279.087751
0
ARC
8
DEFAULT_255_1_388
10
13.4835218
20
166.1309428
40
0.6236283
50
279.0369545
51
281.5000133
0
ARC
8
DEFAULT_255_1_388
10
13.4444486
20
166.3286499
40
0.825157
50
281.4217093
51
282.1031556
0
ARC
8
DEFAULT_255_1_388
10
13.4820461
20
165.8743229
40
0.5064619
50
275.2597791
51
285.5081125
0
ARC
8
DEFAULT_255_1_388
10
13.4889475
20
165.8117452
40
0.4435166
50
270.0268175
51
275.1130565
0
ARC
8
DEFAULT_255_1_388
10
13.4866927
20
165.6624367
40
0.2942182
50
257.3572424
51
270.4795428
0
ARC
8
DEFAULT_255_1_388
10
13.4627197
20
165.5613952
40
0.1903838
50
230.8036715
51
257.7414447
0
ARC
8
DEFAULT_255_1_388
10
13.4550693
20
165.5490723
40
0.1760087
50
219.9745381
51
230.1985446
0
ARC
8
DEFAULT_255_1_388
10
13.492398
20
165.5776116
40
0.2229598
50
196.5081334
51
219.4319996
0
ARC
8
DEFAULT_255_1_388
10
13.6066592
20
165.6134617
40
0.3427033
50
184.6408645
51
196.8266009
0
ARC
8
DEFAULT_255_1_388
10
13.7467497
20
165.627601
40
0.4834863
50
179.8987586
51
184.9677262
0
LINE
8
DEFAULT_255_1_388
10
13.9897298
20
166.3639567
11
13.9897298
21
165.3863
0
LINE
8
DEFAULT_255_1_388
10
13.9897298
20
165.3863
11
13.8225704
21
165.3863
0
LINE
8
DEFAULT_255_1_388
10
13.8225704
20
165.3863
11
13.8225704
21
166.3639567
0
LINE
8
DEFAULT_255_1_388
10
13.8225704
20
166.3639567
11
13.9897298
21
166.3639567
0
ARC
8
DEFAULT_255_1_388
10
13.9191066
20
166.6243428
40
0.1100948
50
161.4148232
51
180.5532607
0
ARC
8
DEFAULT_255_1_388
10
13.9051376
20
166.6281875
40
0.0956324
50
138.1830164
51
160.9307633
0
ARC
8
DEFAULT_255_1_388
10
13.8927563
20
166.6389313
40
0.0792417
50
104.6371663
51
138.0036136
0
ARC
8
DEFAULT_255_1_388
10
13.9048102
20
166.5976963
40
0.1221906
50
92.0601206
51
105.2198859
0
ARC
8
DEFAULT_255_1_388
10
13.9074466
20
166.5588583
40
0.161103
50
89.9790681
51
92.5006086
0
ARC
8
DEFAULT_255_1_388
10
13.9085642
20
166.5844998
40
0.1354654
50
78.0234649
51
90.4478111
0
ARC
8
DEFAULT_255_1_388
10
13.9189227
20
166.6310203
40
0.0878096
50
55.0521508
51
78.336297
0
ARC
8
DEFAULT_255_1_388
10
13.9245761
20
166.6405168
40
0.0767913
50
42.0506198
51
54.4508489
0
ARC
8
DEFAULT_255_1_388
10
13.9093794
20
166.6265821
40
0.0974091
50
1.7493657
51
42.1498724
0
ARC
8
DEFAULT_255_1_388
10
13.88077
20
166.6233166
40
0.1261276
50
359.9832635
51
2.8353994
0
ARC
8
DEFAULT_255_1_388
10
13.8994109
20
166.6222412
40
0.1074916
50
342.1062453
51
0.5535864
0
ARC
8
DEFAULT_255_1_388
10
13.9154534
20
166.6178197
40
0.0908695
50
316.7110111
51
341.6513114
0
ARC
8
DEFAULT_255_1_388
10
13.9229966
20
166.6110607
40
0.0807447
50
285.4398289
51
316.5320129
0
ARC
8
DEFAULT_255_1_388
10
13.9106136
20
166.6522023
40
0.1237022
50
272.3543902
51
285.8951677
0
ARC
8
DEFAULT_255_1_388
10
13.9075846
20
166.6937742
40
0.1653687
50
269.9725761
51
272.8112722
0
ARC
8
DEFAULT_255_1_388
10
13.9064898
20
166.6686727
40
0.1402709
50
258.8433431
51
270.4148607
0
ARC
8
DEFAULT_255_1_388
10
13.8963678
20
166.6196739
40
0.0902407
50
238.54281
51
259.1289544
0
ARC
8
DEFAULT_255_1_388
10
13.8887
20
166.6057694
40
0.0743817
50
222.5056676
51
237.9918132
0
ARC
8
DEFAULT_255_1_388
10
13.9030593
20
166.6188295
40
0.0937918
50
184.1070774
51
222.4604165
0
ARC
8
DEFAULT_255_1_388
10
13.9333007
20
166.6231538
40
0.1242838
50
179.9419581
51
185.0970785
0
LINE
8
DEFAULT_255_1_388
10
14.3312772
20
166.3639567
11
14.5797574
21
165.6130947
0
LINE
8
DEFAULT_255_1_388
10
14.5797574
20
165.6130947
11
14.8219127
21
166.3639567
0
LINE
8
DEFAULT_255_1_388
10
14.8219127
20
166.3639567
11
14.9926864
21
166.3639567
0
LINE
8
DEFAULT_255_1_388
10
14.9926864
20
166.3639567
11
14.6421034
21
165.3863
0
LINE
8
DEFAULT_255_1_388
10
14.6421034
20
165.3863
11
14.5147008
21
165.3863
0
LINE
8
DEFAULT_255_1_388
10
14.5147008
20
165.3863
11
14.1605035
21
166.3639567
0
LINE
8
DEFAULT_255_1_388
10
14.1605035
20
166.3639567
11
14.3312772
21
166.3639567
0
LINE
8
DEFAULT_255_1_388
10
15.3351373
20
166.3639567
11
15.3351373
21
165.3863
0
LINE
8
DEFAULT_255_1_388
10
15.3351373
20
165.3863
11
15.1679779
21
165.3863
0
LINE
8
DEFAULT_255_1_388
10
15.1679779
20
165.3863
11
15.1679779
21
166.3639567
0
LINE
8
DEFAULT_255_1_388
10
15.1679779
20
166.3639567
11
15.3351373
21
166.3639567
0
ARC
8
DEFAULT_255_1_388
10
15.2645141
20
166.6243428
40
0.1100948
50
161.4148232
51
180.5532607
0
ARC
8
DEFAULT_255_1_388
10
15.2505451
20
166.6281875
40
0.0956324
50
138.1830164
51
160.9307633
0
ARC
8
DEFAULT_255_1_388
10
15.2381638
20
166.6389313
40
0.0792417
50
104.6371663
51
138.0036136
0
ARC
8
DEFAULT_255_1_388
10
15.2502177
20
166.5976963
40
0.1221906
50
92.0601206
51
105.2198859
0
ARC
8
DEFAULT_255_1_388
10
15.2528541
20
166.5588583
40
0.161103
50
89.9790681
51
92.5006086
0
ARC
8
DEFAULT_255_1_388
10
15.2539717
20
166.5844998
40
0.1354654
50
78.0234649
51
90.4478111
0
ARC
8
DEFAULT_255_1_388
10
15.2643301
20
166.6310203
40
0.0878096
50
55.0521508
51
78.336297
0
ARC
8
DEFAULT_255_1_388
10
15.2699836
20
166.6405168
40
0.0767913
50
42.0506198
51
54.4508489
0
ARC
8
DEFAULT_255_1_388
10
15.2547869
20
166.6265821
40
0.0974091
50
1.7493657
51
42.1498724
0
ARC
8
DEFAULT_255_1_388
10
15.2261774
20
166.6233166
40
0.1261276
50
359.9832635
51
2.8353994
0
ARC
8
DEFAULT_255_1_388
10
15.2448184
20
166.6222412
40
0.1074916
50
342.1062453
51
0.5535864
0
ARC
8
DEFAULT_255_1_388
10
15.2608608
20
166.6178197
40
0.0908695
50
316.7110111
51
341.6513114
0
ARC
8
DEFAULT_255_1_388
10
15.268404
20
166.6110607
40
0.0807447
50
285.4398289
51
316.5320129
0
ARC
8
DEFAULT_255_1_388
10
15.2560211
20
166.6522023
40
0.1237022
50
272.3543902
51
285.8951677
0
ARC
8
DEFAULT_255_1_388
10
15.2529921
20
166.6937742
40
0.1653687
50
269.9725761
51
272.8112722
0
ARC
8
DEFAULT_255_1_388
10
15.2518973
20
166.6686727
40
0.1402709
50
258.8433431
51
270.4148607
0
ARC
8
DEFAULT_255_1_388
10
15.2417753
20
166.6196739
40
0.0902407
50
238.54281
51
259.1289544
0
ARC
8
DEFAULT_255_1_388
10
15.2341074
20
166.6057694
40
0.0743817
50
222.5056676
51
237.9918132
0
ARC
8
DEFAULT_255_1_388
10
15.2484668
20
166.6188295
40
0.0937918
50
184.1070774
51
222.4604165
0
ARC
8
DEFAULT_255_1_388
10
15.2787081
20
166.6231538
40
0.1242838
50
179.9419581
51
185.0970785
0
LINE
8
DEFAULT_255_1_388
10
15.6622276
20
166.6006906
11
15.8293871
21
166.6006906
0
LINE
8
DEFAULT_255_1_388
10
15.8293871
20
166.6006906
11
15.8293871
21
166.3639567
0
LINE
8
DEFAULT_255_1_388
10
15.8293871
20
166.3639567
11
16.0119071
21
166.3639567
0
LINE
8
DEFAULT_255_1_388
10
16.0119071
20
166.3639567
11
16.0119071
21
166.234747
0
LINE
8
DEFAULT_255_1_388
10
16.0119071
20
166.234747
11
15.8293871
21
166.234747
0
LINE
8
DEFAULT_255_1_388
10
15.8293871
20
166.234747
11
15.8293871
21
165.6284553
0
LINE
8
DEFAULT_255_1_388
10
16.0164249
20
165.5218347
11
16.0164249
21
165.3863
0
LINE
8
DEFAULT_255_1_388
10
15.6622276
20
165.6284553
11
15.6622276
21
166.234747
0
LINE
8
DEFAULT_255_1_388
10
15.6622276
20
166.234747
11
15.4842254
21
166.234747
0
LINE
8
DEFAULT_255_1_388
10
15.4842254
20
166.234747
11
15.4842254
21
166.3639567
0
LINE
8
DEFAULT_255_1_388
10
15.4842254
20
166.3639567
11
15.6622276
21
166.3639567
0
LINE
8
DEFAULT_255_1_388
10
15.6622276
20
166.3639567
11
15.6622276
21
166.6006906
0
ARC
8
DEFAULT_255_1_388
10
16.0552378
20
165.6272842
40
0.2258538
50
179.7029045
51
187.9180047
0
ARC
8
DEFAULT_255_1_388
10
15.9712952
20
165.6152019
40
0.1410477
50
187.7540838
51
200.2454047
0
ARC
8
DEFAULT_255_1_388
10
15.9239858
20
165.5975591
40
0.0905561
50
200.1304287
51
219.1733455
0
ARC
8
DEFAULT_255_1_388
10
15.9087024
20
165.5871695
40
0.0721626
50
220.4434631
51
249.6169985
0
ARC
8
DEFAULT_255_1_388
10
15.9261251
20
165.6309919
40
0.1193141
50
249.1038184
51
262.7745376
0
ARC
8
DEFAULT_255_1_388
10
15.9360433
20
165.7017481
40
0.1907583
50
262.4921618
51
270.2607019
0
ARC
8
DEFAULT_255_1_388
10
15.9357515
20
165.7259817
40
0.2149929
50
270.309081
51
275.6615459
0
ARC
8
DEFAULT_255_1_388
10
15.9196922
20
165.8948342
40
0.3846066
50
275.5607354
51
279.087751
0
ARC
8
DEFAULT_255_1_388
10
15.8824854
20
166.1309428
40
0.6236283
50
279.0369545
51
281.5000133
0
ARC
8
DEFAULT_255_1_388
10
15.8434122
20
166.3286499
40
0.825157
50
281.4217093
51
282.1031556
0
ARC
8
DEFAULT_255_1_388
10
15.8810098
20
165.8743229
40
0.5064619
50
275.2597791
51
285.5081125
0
ARC
8
DEFAULT_255_1_388
10
15.8879112
20
165.8117452
40
0.4435166
50
270.0268175
51
275.1130565
0
ARC
8
DEFAULT_255_1_388
10
15.8856563
20
165.6624367
40
0.2942182
50
257.3572424
51
270.4795428
0
ARC
8
DEFAULT_255_1_388
10
15.8616833
20
165.5613952
40
0.1903838
50
230.8036715
51
257.7414447
0
ARC
8
DEFAULT_255_1_388
10
15.8540329
20
165.5490723
40
0.1760087
50
219.9745381
51
230.1985446
0
ARC
8
DEFAULT_255_1_388
10
15.8913617
20
165.5776116
40
0.2229598
50
196.5081334
51
219.4319996
0
ARC
8
DEFAULT_255_1_388
10
16.0056228
20
165.6134617
40
0.3427033
50
184.6408645
51
196.8266009
0
ARC
8
DEFAULT_255_1_388
10
16.1457134
20
165.627601
40
0.4834863
50
179.8987586
51
184.9677262
0
LINE
8
DEFAULT_255_1_388
10
16.2829764
20
166.3639567
11
16.5269388
21
165.631166
0
LINE
8
DEFAULT_255_1_388
10
16.5269388
20
165.631166
11
16.7546371
21
166.3639567
0
LINE
8
DEFAULT_255_1_388
10
16.7546371
20
166.3639567
11
16.9335428
21
166.3639567
0
LINE
8
DEFAULT_255_1_388
10
16.9335428
20
166.3639567
11
16.5404923
21
165.2354047
0
LINE
8
DEFAULT_255_1_388
10
16.2504481
20
164.9914423
11
16.2188233
21
164.994153
0
LINE
8
DEFAULT_255_1_388
10
16.2188233
20
164.994153
11
16.1564774
21
165.0058994
0
LINE
8
DEFAULT_255_1_388
10
16.1564774
20
165.0058994
11
16.1564774
21
165.141434
0
LINE
8
DEFAULT_255_1_388
10
16.1564774
20
165.141434
11
16.2016556
21
165.1378198
0
LINE
8
DEFAULT_255_1_388
10
16.4121861
20
165.2977507
11
16.4492323
21
165.3971428
0
LINE
8
DEFAULT_255_1_388
10
16.4492323
20
165.3971428
11
16.1004564
21
166.3639567
0
LINE
8
DEFAULT_255_1_388
10
16.1004564
20
166.3639567
11
16.2829764
21
166.3639567
0
ARC
8
DEFAULT_255_1_388
10
16.0190998
20
165.4249303
40
0.5547703
50
327.7224407
51
340.0238521
0
ARC
8
DEFAULT_255_1_388
10
16.2162157
20
165.2976231
40
0.3201385
50
305.2165641
51
328.1467003
0
ARC
8
DEFAULT_255_1_388
10
16.2550379
20
165.2516258
40
0.260224
50
268.9893726
51
304.0733864
0
ARC
8
DEFAULT_255_1_388
10
16.2033137
20
165.4792952
40
0.3414794
50
269.7217889
51
278.0406077
0
ARC
8
DEFAULT_255_1_388
10
16.220839
20
165.3600724
40
0.2209783
50
277.8651481
51
290.8634591
0
ARC
8
DEFAULT_255_1_388
10
16.2442371
20
165.2975914
40
0.1542617
50
291.0076566
51
305.5961613
0
ARC
8
DEFAULT_255_1_388
10
16.2421246
20
165.2958164
40
0.1540723
50
306.6192176
51
324.1022951
0
ARC
8
DEFAULT_255_1_388
10
16.1580896
20
165.3581842
40
0.2587177
50
323.8256989
51
334.2991437
0
ARC
8
DEFAULT_255_1_388
10
16.0181584
20
165.4269118
40
0.4146127
50
334.1272297
51
340.8153479
0
ARC
8
DEFAULT_255_1_388
10
15.9122103
20
165.4660101
40
0.5275293
50
340.5860638
51
341.400105
0
LINE
8
DEFAULT_255_1_388
10
17.3085221
20
165.9889775
11
17.3085221
21
166.1254157
0
LINE
8
DEFAULT_255_1_388
10
17.3085221
20
166.1254157
11
17.4341175
21
166.1254157
0
LINE
8
DEFAULT_255_1_388
10
17.2199728
20
166.3567282
11
17.0528133
21
166.3567282
0
LINE
8
DEFAULT_255_1_388
10
17.041067
20
165.7332688
11
17.20913
21
165.7332688
0
LINE
8
DEFAULT_255_1_388
10
17.4341175
20
165.9889775
11
17.3085221
21
165.9889775
0
ARC
8
DEFAULT_255_1_388
10
17.4308402
20
166.5070922
40
0.3816905
50
270.491971
51
281.8953028
0
ARC
8
DEFAULT_255_1_388
10
17.4579829
20
166.3831199
40
0.2547877
50
281.6690378
51
301.2943765
0
ARC
8
DEFAULT_255_1_388
10
17.477128
20
166.3480926
40
0.2149197
50
301.7834992
51
311.754567
0
ARC
8
DEFAULT_255_1_388
10
17.4874321
20
166.336665
40
0.1995326
50
311.7325027
51
354.2803031
0
ARC
8
DEFAULT_255_1_388
10
17.4056737
20
166.350728
40
0.2823461
50
353.0941646
51
0.1174696
0
ARC
8
DEFAULT_255_1_388
10
17.3538295
20
166.3560874
40
0.3342238
50
359.1804452
51
15.0452323
0
ARC
8
DEFAULT_255_1_388
10
17.5052354
20
166.4002546
40
0.1765747
50
13.957816
51
77.6713812
0
ARC
8
DEFAULT_255_1_388
10
17.4617589
20
166.2444464
40
0.3381982
50
76.111571
51
90.7028736
0
ARC
8
DEFAULT_255_1_388
10
17.4551002
20
166.275225
40
0.3074046
50
89.5321574
51
103.5319393
0
ARC
8
DEFAULT_255_1_388
10
17.4325385
20
166.3651443
40
0.2147041
50
103.2930114
51
133.5619756
0
ARC
8
DEFAULT_255_1_388
10
17.4275327
20
166.3718351
40
0.2064084
50
133.8349761
51
173.5343225
0
ARC
8
DEFAULT_255_1_388
10
17.5088984
20
166.3574144
40
0.2889266
50
172.5097183
51
180.1360699
0
ARC
8
DEFAULT_255_1_388
10
17.4018748
20
166.361288
40
0.3490913
50
155.3483706
51
180.7484035
0
ARC
8
DEFAULT_255_1_388
10
17.3963724
20
166.3580519
40
0.3454798
50
131.5745177
51
154.4799474
0
ARC
8
DEFAULT_255_1_388
10
17.4316006
20
166.3224422
40
0.3955058
50
96.9874487
51
131.9690874
0
ARC
8
DEFAULT_255_1_388
10
17.4562899
20
166.1823407
40
0.537622
50
89.8592909
51
97.7827481
0
ARC
8
DEFAULT_255_1_388
10
17.4617008
20
166.152836
40
0.5671399
50
78.3654493
51
90.4132586
0
ARC
8
DEFAULT_255_1_388
10
17.5019649
20
166.3394918
40
0.3762034
50
56.6229818
51
78.6387103
0
ARC
8
DEFAULT_255_1_388
10
17.5261478
20
166.3817846
40
0.3275964
50
47.0254604
51
56.085558
0
ARC
8
DEFAULT_255_1_388
10
17.5283729
20
166.3862189
40
0.3228382
50
10.9207523
51
46.777927
0
ARC
8
DEFAULT_255_1_388
10
17.3749323
20
166.3507401
40
0.4802559
50
359.6364235
51
11.6087615
0
ARC
8
DEFAULT_255_1_388
10
17.5813489
20
166.3490404
40
0.273833
50
332.3549969
51
359.7179765
0
ARC
8
DEFAULT_255_1_388
10
17.508189
20
166.3837285
40
0.3547505
50
325.2332381
51
332.8746682
0
ARC
8
DEFAULT_255_1_388
10
17.5253472
20
166.3717763
40
0.3338396
50
292.9803892
51
325.2391113
0
ARC
8
DEFAULT_255_1_388
10
17.4942668
20
166.4322679
40
0.4016959
50
292.542178
51
293.6931461
0
ARC
8
DEFAULT_255_1_388
10
17.538624
20
165.7057036
40
0.372079
50
57.643292
51
72.8626085
0
ARC
8
DEFAULT_255_1_388
10
17.5785075
20
165.7703273
40
0.2961455
50
36.7246661
51
57.4701329
0
ARC
8
DEFAULT_255_1_388
10
17.5772231
20
165.771747
40
0.2963321
50
8.054535
51
36.3561529
0
ARC
8
DEFAULT_255_1_388
10
17.4801904
20
165.7543073
40
0.3948682
50
359.8316595
51
8.5873361
0
ARC
8
DEFAULT_255_1_388
10
17.4379378
20
165.748897
40
0.4371398
50
343.9831631
51
0.557075
0
ARC
8
DEFAULT_255_1_388
10
17.5376428
20
165.7215963
40
0.3337749
50
311.6358204
51
343.7652116
0
ARC
8
DEFAULT_255_1_388
10
17.4950682
20
165.7695955
40
0.3979351
50
279.7829743
51
311.625622
0
ARC
8
DEFAULT_255_1_388
10
17.4611817
20
165.9312642
40
0.5630417
50
269.7285092
51
280.3857694
0
ARC
8
DEFAULT_255_1_388
10
17.454213
20
165.9266241
40
0.5584119
50
256.6827433
51
270.4412869
0
ARC
8
DEFAULT_255_1_388
10
17.4161116
20
165.7708698
40
0.3980715
50
229.4223821
51
256.8554507
0
ARC
8
DEFAULT_255_1_388
10
17.369467
20
165.7183683
40
0.3278564
50
181.8183354
51
229.6455015
0
ARC
8
DEFAULT_255_1_388
10
17.4864279
20
165.7330825
40
0.4453611
50
179.9760419
51
183.2330638
0
ARC
8
DEFAULT_255_1_388
10
17.4670832
20
165.7307781
40
0.2579652
50
179.4467996
51
196.2871626
0
ARC
8
DEFAULT_255_1_388
10
17.4122285
20
165.7157709
40
0.2011057
50
196.5661293
51
227.7059371
0
ARC
8
DEFAULT_255_1_388
10
17.4306892
20
165.7364155
40
0.2287994
50
227.7653015
51
257.8763321
0
ARC
8
DEFAULT_255_1_388
10
17.4559976
20
165.8424961
40
0.3378385
50
257.4583525
51
270.4267406
0
ARC
8
DEFAULT_255_1_388
10
17.4611225
20
165.875123
40
0.3704652
50
269.5965319
51
280.8788143
0
ARC
8
DEFAULT_255_1_388
10
17.4869453
20
165.7461529
40
0.2389415
50
280.6347277
51
299.8594068
0
ARC
8
DEFAULT_255_1_388
10
17.5084223
20
165.7053736
40
0.19289
50
300.3575552
51
314.5515667
0
ARC
8
DEFAULT_255_1_388
10
17.4990899
20
165.7122025
40
0.204312
50
315.0730962
51
345.0429362
0
ARC
8
DEFAULT_255_1_388
10
17.3952406
20
165.7424539
40
0.31246
50
344.598526
51
357.9270698
0
ARC
8
DEFAULT_255_1_388
10
17.2942711
20
165.7493705
40
0.4136265
50
357.4755098
51
0.0224936
0
ARC
8
DEFAULT_255_1_388
10
17.4095588
20
165.7521099
40
0.2983498
50
359.5051035
51
13.4236939
0
ARC
8
DEFAULT_255_1_388
10
17.5070678
20
165.7770637
40
0.1977186
50
12.9497905
51
48.7550905
0
ARC
8
DEFAULT_255_1_388
10
17.48656
20
165.7490373
40
0.2323321
50
49.509109
51
72.1832965
0
ARC
8
DEFAULT_255_1_388
10
17.4463069
20
165.6295632
40
0.358397
50
71.9008458
51
84.3555134
0
ARC
8
DEFAULT_255_1_388
10
17.4281463
20
165.4763712
40
0.512641
50
84.019632
51
89.3326067
0
LINE
8
DEFAULT_255_1_388
10
18.9295167
20
166.164269
11
18.9295167
21
165.9474135
0
LINE
8
DEFAULT_255_1_388
10
18.099141
20
165.9248244
11
18.099141
21
166.1480048
0
LINE
8
DEFAULT_255_1_388
10
18.7623573
20
165.9022353
11
18.7623573
21
166.1760153
0
LINE
8
DEFAULT_255_1_388
10
18.2663004
20
166.1886652
11
18.2663004
21
165.9212102
0
ARC
8
DEFAULT_255_1_388
10
17.5517501
20
165.9419118
40
1.3777776
50
353.8440855
51
0.2287917
0
ARC
8
DEFAULT_255_1_388
10
18.0736518
20
165.8836414
40
0.852639
50
344.4934746
51
353.9763743
0
ARC
8
DEFAULT_255_1_388
10
18.4103326
20
165.7879191
40
0.5026273
50
329.2803599
51
344.7473406
0
ARC
8
DEFAULT_255_1_388
10
18.5218821
20
165.7267038
40
0.3754848
50
324.9361395
51
328.6153007
0
ARC
8
DEFAULT_255_1_388
10
18.5644471
20
165.6969586
40
0.3235566
50
280.5801797
51
324.9173226
0
ARC
8
DEFAULT_255_1_388
10
18.51931
20
165.8849236
40
0.5167077
50
269.5979457
51
281.6732777
0
ARC
8
DEFAULT_255_1_388
10
18.5112003
20
165.8714113
40
0.5032026
50
256.6228565
51
270.5105488
0
ARC
8
DEFAULT_255_1_388
10
18.4659746
20
165.6972345
40
0.3233092
50
215.8618351
51
257.2787793
0
ARC
8
DEFAULT_255_1_388
10
18.5808453
20
165.7743106
40
0.4615831
50
197.9695203
51
215.2622745
0
ARC
8
DEFAULT_255_1_388
10
18.8604129
20
165.8686641
40
0.7566307
50
187.8816486
51
198.2346584
0
ARC
8
DEFAULT_255_1_388
10
19.3057367
20
165.9329453
40
1.2065653
50
180.8977266
51
188.0054894
0
ARC
8
DEFAULT_255_1_388
10
19.6107581
20
165.94444
40
1.5117443
50
180.7434591
51
181.152202
0
ARC
8
DEFAULT_255_1_388
10
19.4432576
20
166.1534371
40
1.3441277
50
173.7674302
51
180.2315596
0
ARC
8
DEFAULT_255_1_388
10
18.9350445
20
166.2108779
40
0.8326847
50
164.3058537
51
173.9000553
0
ARC
8
DEFAULT_255_1_388
10
18.6074445
20
166.3052652
40
0.4917711
50
148.7922028
51
164.5682288
0
ARC
8
DEFAULT_255_1_388
10
18.5005183
20
166.3649457
40
0.3694204
50
144.5883979
51
148.1161588
0
ARC
8
DEFAULT_255_1_388
10
18.4617928
20
166.3919667
40
0.322202
50
101.6440149
51
144.5142619
0
ARC
8
DEFAULT_255_1_388
10
18.509612
20
166.2019337
40
0.5180451
50
89.528284
51
102.5820197
0
ARC
8
DEFAULT_255_1_388
10
18.5185112
20
166.1975376
40
0.5224441
50
77.0437914
51
90.508231
0
ARC
8
DEFAULT_255_1_388
10
18.5637366
20
166.3823272
40
0.3322297
50
48.2777708
51
77.4996087
0
ARC
8
DEFAULT_255_1_388
10
18.5719106
20
166.3968557
40
0.315966
50
36.3141586
51
47.6307332
0
ARC
8
DEFAULT_255_1_388
10
18.4741828
20
166.3310159
40
0.4337313
50
18.2931065
51
35.6770203
0
ARC
8
DEFAULT_255_1_388
10
18.1880669
20
166.2328107
40
0.7362203
50
8.0246996
51
18.5605636
0
ARC
8
DEFAULT_255_1_388
10
17.7197024
20
166.1636432
40
1.2096583
50
1.127539
51
8.1718423
0
ARC
8
DEFAULT_255_1_388
10
17.3548158
20
166.1493374
40
1.5747719
50
0.5432713
51
1.38669
0
ARC
8
DEFAULT_255_1_388
10
17.5605537
20
166.1800163
40
1.2018103
50
359.8092569
51
4.9408001
0
ARC
8
DEFAULT_255_1_388
10
18.0342118
20
166.22229
40
0.7262727
50
4.8364937
51
12.2906017
0
ARC
8
DEFAULT_255_1_388
10
18.3441583
20
166.2913485
40
0.4087324
50
12.0806994
51
23.8171225
0
ARC
8
DEFAULT_255_1_388
10
18.4761979
20
166.3472508
40
0.2653719
50
24.2874621
51
31.3934353
0
ARC
8
DEFAULT_255_1_388
10
18.5352415
20
166.3858822
40
0.1948607
50
30.7407708
51
82.4658033
0
ARC
8
DEFAULT_255_1_388
10
18.5150075
20
166.2865017
40
0.2961198
50
81.1057101
51
90.2187368
0
ARC
8
DEFAULT_255_1_388
10
18.5109887
20
166.3155421
40
0.2670929
50
89.380395
51
105.6763916
0
ARC
8
DEFAULT_255_1_388
10
18.4903609
20
166.390532
40
0.1893189
50
105.7980655
51
149.7387869
0
ARC
8
DEFAULT_255_1_388
10
18.6100749
20
166.3185719
40
0.3289892
50
149.4208441
51
163.628295
0
ARC
8
DEFAULT_255_1_388
10
18.8452979
20
166.2468345
40
0.5749004
50
163.3764549
51
172.141138
0
ARC
8
DEFAULT_255_1_388
10
19.21657
20
166.1936582
40
0.9499585
50
172.0258462
51
178.0705453
0
ARC
8
DEFAULT_255_1_388
10
19.5587253
20
166.1774682
40
1.2924734
50
177.8639301
51
179.5036263
0
ARC
8
DEFAULT_255_1_388
10
19.4368272
20
165.9171151
40
1.170534
50
179.7995545
51
185.246089
0
ARC
8
DEFAULT_255_1_388
10
18.9819865
20
165.8740404
40
0.7136613
50
185.1411911
51
193.0082205
0
ARC
8
DEFAULT_255_1_388
10
18.6846126
20
165.8037441
40
0.4080987
50
192.7897338
51
205.2507384
0
ARC
8
DEFAULT_255_1_388
10
18.5668336
20
165.7511538
40
0.2791522
50
205.8001921
51
211.2545876
0
ARC
8
DEFAULT_255_1_388
10
18.5079875
20
165.7117132
40
0.2084074
50
210.3789935
51
238.4007996
0
ARC
8
DEFAULT_255_1_388
10
18.5057961
20
165.7169786
40
0.2117943
50
239.6521916
51
265.9793852
0
ARC
8
DEFAULT_255_1_388
10
18.515381
20
165.7926358
40
0.2879689
50
265.1324455
51
270.0603288
0
ARC
8
DEFAULT_255_1_388
10
18.5186187
20
165.7561418
40
0.2514919
50
269.3314378
51
287.2180039
0
ARC
8
DEFAULT_255_1_388
10
18.5341269
20
165.6995291
40
0.1928357
50
287.7957942
51
329.0808983
0
ARC
8
DEFAULT_255_1_388
10
18.4264026
20
165.7667651
40
0.319808
50
328.6635261
51
343.3325043
0
ARC
8
DEFAULT_255_1_388
10
18.1819485
20
165.8429195
40
0.5758408
50
343.0498092
51
351.9392499
0
ARC
8
DEFAULT_255_1_388
10
17.7918806
20
165.9004205
40
0.9701202
50
351.8071632
51
357.7957897
0
ARC
8
DEFAULT_255_1_388
10
17.4284283
20
165.9192724
40
1.3340376
50
357.5870923
51
359.2682493
0
LINE
8
DEFAULT_255_1_388
10
19.9686158
20
166.164269
11
19.9686158
21
165.9474135
0
LINE
8
DEFAULT_255_1_388
10
19.1382401
20
165.9248244
11
19.1382401
21
166.1480048
0
LINE
8
DEFAULT_255_1_388
10
19.8014564
20
165.9022353
11
19.8014564
21
166.1760153
0
LINE
8
DEFAULT_255_1_388
10
19.3053995
20
166.1886652
11
19.3053995
21
165.9212102
0
ARC
8
DEFAULT_255_1_388
10
18.5908492
20
165.9419118
40
1.3777776
50
353.8440855
51
0.2287917
0
ARC
8
DEFAULT_255_1_388
10
19.112751
20
165.8836414
40
0.852639
50
344.4934746
51
353.9763743
0
ARC
8
DEFAULT_255_1_388
10
19.4494317
20
165.7879191
40
0.5026273
50
329.2803599
51
344.7473406
0
ARC
8
DEFAULT_255_1_388
10
19.5609812
20
165.7267038
40
0.3754848
50
324.9361395
51
328.6153007
0
ARC
8
DEFAULT_255_1_388
10
19.6035462
20
165.6969586
40
0.3235566
50
280.5801797
51
324.9173226
0
ARC
8
DEFAULT_255_1_388
10
19.5584091
20
165.8849236
40
0.5167077
50
269.5979457
51
281.6732777
0
ARC
8
DEFAULT_255_1_388
10
19.5502994
20
165.8714113
40
0.5032026
50
256.6228565
51
270.5105488
0
ARC
8
DEFAULT_255_1_388
10
19.5050737
20
165.6972345
40
0.3233092
50
215.8618351
51
257.2787793
0
ARC
8
DEFAULT_255_1_388
10
19.6199444
20
165.7743106
40
0.4615831
50
197.9695203
51
215.2622745
0
ARC
8
DEFAULT_255_1_388
10
19.899512
20
165.8686641
40
0.7566307
50
187.8816486
51
198.2346584
0
ARC
8
DEFAULT_255_1_388
10
20.3448358
20
165.9329453
40
1.2065653
50
180.8977266
51
188.0054894
0
ARC
8
DEFAULT_255_1_388
10
20.6498572
20
165.94444
40
1.5117443
50
180.7434591
51
181.152202
0
ARC
8
DEFAULT_255_1_388
10
20.4823568
20
166.1534371
40
1.3441277
50
173.7674302
51
180.2315596
0
ARC
8
DEFAULT_255_1_388
10
19.9741437
20
166.2108779
40
0.8326847
50
164.3058537
51
173.9000553
0
ARC
8
DEFAULT_255_1_388
10
19.6465437
20
166.3052652
40
0.4917711
50
148.7922028
51
164.5682288
0
ARC
8
DEFAULT_255_1_388
10
19.5396174
20
166.3649457
40
0.3694204
50
144.5883979
51
148.1161588
0
ARC
8
DEFAULT_255_1_388
10
19.5008919
20
166.3919667
40
0.322202
50
101.6440149
51
144.5142619
0
ARC
8
DEFAULT_255_1_388
10
19.5487112
20
166.2019337
40
0.5180451
50
89.528284
51
102.5820197
0
ARC
8
DEFAULT_255_1_388
10
19.5576103
20
166.1975376
40
0.5224441
50
77.0437914
51
90.508231
0
ARC
8
DEFAULT_255_1_388
10
19.6028357
20
166.3823272
40
0.3322297
50
48.2777708
51
77.4996087
0
ARC
8
DEFAULT_255_1_388
10
19.6110097
20
166.3968557
40
0.315966
50
36.3141586
51
47.6307332
0
ARC
8
DEFAULT_255_1_388
10
19.5132819
20
166.3310159
40
0.4337313
50
18.2931065
51
35.6770203
0
ARC
8
DEFAULT_255_1_388
10
19.227166
20
166.2328107
40
0.7362203
50
8.0246996
51
18.5605636
0
ARC
8
DEFAULT_255_1_388
10
18.7588016
20
166.1636432
40
1.2096583
50
1.127539
51
8.1718423
0
ARC
8
DEFAULT_255_1_388
10
18.3939149
20
166.1493374
40
1.5747719
50
0.5432713
51
1.38669
0
ARC
8
DEFAULT_255_1_388
10
18.5996528
20
166.1800163
40
1.2018103
50
359.8092569
51
4.9408001
0
ARC
8
DEFAULT_255_1_388
10
19.0733109
20
166.22229
40
0.7262727
50
4.8364937
51
12.2906017
0
ARC
8
DEFAULT_255_1_388
10
19.3832574
20
166.2913485
40
0.4087324
50
12.0806994
51
23.8171225
0
ARC
8
DEFAULT_255_1_388
10
19.515297
20
166.3472508
40
0.2653719
50
24.2874621
51
31.3934353
0
ARC
8
DEFAULT_255_1_388
10
19.5743406
20
166.3858822
40
0.1948607
50
30.7407708
51
82.4658033
0
ARC
8
DEFAULT_255_1_388
10
19.5541067
20
166.2865017
40
0.2961198
50
81.1057101
51
90.2187368
0
ARC
8
DEFAULT_255_1_388
10
19.5500878
20
166.3155421
40
0.2670929
50
89.380395
51
105.6763916
0
ARC
8
DEFAULT_255_1_388
10
19.52946
20
166.390532
40
0.1893189
50
105.7980655
51
149.7387869
0
ARC
8
DEFAULT_255_1_388
10
19.649174
20
166.3185719
40
0.3289892
50
149.4208441
51
163.628295
0
ARC
8
DEFAULT_255_1_388
10
19.884397
20
166.2468345
40
0.5749004
50
163.3764549
51
172.141138
0
ARC
8
DEFAULT_255_1_388
10
20.2556692
20
166.1936582
40
0.9499585
50
172.0258462
51
178.0705453
0
ARC
8
DEFAULT_255_1_388
10
20.5978244
20
166.1774682
40
1.2924734
50
177.8639301
51
179.5036263
0
ARC
8
DEFAULT_255_1_388
10
20.4759263
20
165.9171151
40
1.170534
50
179.7995545
51
185.246089
0
ARC
8
DEFAULT_255_1_388
10
20.0210856
20
165.8740404
40
0.7136613
50
185.1411911
51
193.0082205
0
ARC
8
DEFAULT_255_1_388
10
19.7237117
20
165.8037441
40
0.4080987
50
192.7897338
51
205.2507384
0
ARC
8
DEFAULT_255_1_388
10
19.6059327
20
165.7511538
40
0.2791522
50
205.8001921
51
211.2545876
0
ARC
8
DEFAULT_255_1_388
10
19.5470866
20
165.7117132
40
0.2084074
50
210.3789935
51
238.4007996
0
ARC
8
DEFAULT_255_1_388
10
19.5448952
20
165.7169786
40
0.2117943
50
239.6521916
51
265.9793852
0
ARC
8
DEFAULT_255_1_388
10
19.5544801
20
165.7926358
40
0.2879689
50
265.1324455
51
270.0603288
0
ARC
8
DEFAULT_255_1_388
10
19.5577178
20
165.7561418
40
0.2514919
50
269.3314378
51
287.2180039
0
ARC
8
DEFAULT_255_1_388
10
19.573226
20
165.6995291
40
0.1928357
50
287.7957942
51
329.0808983
0
ARC
8
DEFAULT_255_1_388
10
19.4655017
20
165.7667651
40
0.319808
50
328.6635261
51
343.3325043
0
ARC
8
DEFAULT_255_1_388
10
19.2210476
20
165.8429195
40
0.5758408
50
343.0498092
51
351.9392499
0
ARC
8
DEFAULT_255_1_388
10
18.8309797
20
165.9004205
40
0.9701202
50
351.8071632
51
357.7957897
0
ARC
8
DEFAULT_255_1_388
10
18.4675274
20
165.9192724
40
1.3340376
50
357.5870923
51
359.2682493
0
LINE
8
DEFAULT_255_1_388
10
21.0077149
20
166.164269
11
21.0077149
21
165.9474135
0
LINE
8
DEFAULT_255_1_388
10
20.1773392
20
165.9248244
11
20.1773392
21
166.1480048
0
LINE
8
DEFAULT_255_1_388
10
20.8405555
20
165.9022353
11
20.8405555
21
166.1760153
0
LINE
8
DEFAULT_255_1_388
10
20.3444986
20
166.1886652
11
20.3444986
21
165.9212102
0
ARC
8
DEFAULT_255_1_388
10
19.6299483
20
165.9419118
40
1.3777776
50
353.8440855
51
0.2287917
0
ARC
8
DEFAULT_255_1_388
10
20.1518501
20
165.8836414
40
0.852639
50
344.4934746
51
353.9763743
0
ARC
8
DEFAULT_255_1_388
10
20.4885308
20
165.7879191
40
0.5026273
50
329.2803599
51
344.7473406
0
ARC
8
DEFAULT_255_1_388
10
20.6000804
20
165.7267038
40
0.3754848
50
324.9361395
51
328.6153007
0
ARC
8
DEFAULT_255_1_388
10
20.6426453
20
165.6969586
40
0.3235566
50
280.5801797
51
324.9173226
0
ARC
8
DEFAULT_255_1_388
10
20.5975082
20
165.8849236
40
0.5167077
50
269.5979457
51
281.6732777
0
ARC
8
DEFAULT_255_1_388
10
20.5893986
20
165.8714113
40
0.5032026
50
256.6228565
51
270.5105488
0
ARC
8
DEFAULT_255_1_388
10
20.5441728
20
165.6972345
40
0.3233092
50
215.8618351
51
257.2787793
0
ARC
8
DEFAULT_255_1_388
10
20.6590435
20
165.7743106
40
0.4615831
50
197.9695203
51
215.2622745
0
ARC
8
DEFAULT_255_1_388
10
20.9386111
20
165.8686641
40
0.7566307
50
187.8816486
51
198.2346584
0
ARC
8
DEFAULT_255_1_388
10
21.3839349
20
165.9329453
40
1.2065653
50
180.8977266
51
188.0054894
0
ARC
8
DEFAULT_255_1_388
10
21.6889563
20
165.94444
40
1.5117443
50
180.7434591
51
181.152202
0
ARC
8
DEFAULT_255_1_388
10
21.5214559
20
166.1534371
40
1.3441277
50
173.7674302
51
180.2315596
0
ARC
8
DEFAULT_255_1_388
10
21.0132428
20
166.2108779
40
0.8326847
50
164.3058537
51
173.9000553
0
ARC
8
DEFAULT_255_1_388
10
20.6856428
20
166.3052652
40
0.4917711
50
148.7922028
51
164.5682288
0
ARC
8
DEFAULT_255_1_388
10
20.5787165
20
166.3649457
40
0.3694204
50
144.5883979
51
148.1161588
0
ARC
8
DEFAULT_255_1_388
10
20.5399911
20
166.3919667
40
0.322202
50
101.6440149
51
144.5142619
0
ARC
8
DEFAULT_255_1_388
10
20.5878103
20
166.2019337
40
0.5180451
50
89.528284
51
102.5820197
0
ARC
8
DEFAULT_255_1_388
10
20.5967095
20
166.1975376
40
0.5224441
50
77.0437914
51
90.508231
0
ARC
8
DEFAULT_255_1_388
10
20.6419348
20
166.3823272
40
0.3322297
50
48.2777708
51
77.4996087
0
ARC
8
DEFAULT_255_1_388
10
20.6501088
20
166.3968557
40
0.315966
50
36.3141586
51
47.6307332
0
ARC
8
DEFAULT_255_1_388
10
20.5523811
20
166.3310159
40
0.4337313
50
18.2931065
51
35.6770203
0
ARC
8
DEFAULT_255_1_388
10
20.2662651
20
166.2328107
40
0.7362203
50
8.0246996
51
18.5605636
0
ARC
8
DEFAULT_255_1_388
10
19.7979007
20
166.1636432
40
1.2096583
50
1.127539
51
8.1718423
0
ARC
8
DEFAULT_255_1_388
10
19.433014
20
166.1493374
40
1.5747719
50
0.5432713
51
1.38669
0
ARC
8
DEFAULT_255_1_388
10
19.6387519
20
166.1800163
40
1.2018103
50
359.8092569
51
4.9408001
0
ARC
8
DEFAULT_255_1_388
10
20.11241
20
166.22229
40
0.7262727
50
4.8364937
51
12.2906017
0
ARC
8
DEFAULT_255_1_388
10
20.4223565
20
166.2913485
40
0.4087324
50
12.0806994
51
23.8171225
0
ARC
8
DEFAULT_255_1_388
10
20.5543961
20
166.3472508
40
0.2653719
50
24.2874621
51
31.3934353
0
ARC
8
DEFAULT_255_1_388
10
20.6134397
20
166.3858822
40
0.1948607
50
30.7407708
51
82.4658033
0
ARC
8
DEFAULT_255_1_388
10
20.5932058
20
166.2865017
40
0.2961198
50
81.1057101
51
90.2187368
0
ARC
8
DEFAULT_255_1_388
10
20.589187
20
166.3155421
40
0.2670929
50
89.380395
51
105.6763916
0
ARC
8
DEFAULT_255_1_388
10
20.5685592
20
166.390532
40
0.1893189
50
105.7980655
51
149.7387869
0
ARC
8
DEFAULT_255_1_388
10
20.6882732
20
166.3185719
40
0.3289892
50
149.4208441
51
163.628295
0
ARC
8
DEFAULT_255_1_388
10
20.9234961
20
166.2468345
40
0.5749004
50
163.3764549
51
172.141138
0
ARC
8
DEFAULT_255_1_388
10
21.2947683
20
166.1936582
40
0.9499585
50
172.0258462
51
178.0705453
0
ARC
8
DEFAULT_255_1_388
10
21.6369236
20
166.1774682
40
1.2924734
50
177.8639301
51
179.5036263
0
ARC
8
DEFAULT_255_1_388
10
21.5150254
20
165.9171151
40
1.170534
50
179.7995545
51
185.246089
0
ARC
8
DEFAULT_255_1_388
10
21.0601847
20
165.8740404
40
0.7136613
50
185.1411911
51
193.0082205
0
ARC
8
DEFAULT_255_1_388
10
20.7628108
20
165.8037441
40
0.4080987
50
192.7897338
51
205.2507384
0
ARC
8
DEFAULT_255_1_388
10
20.6450318
20
165.7511538
40
0.2791522
50
205.8001921
51
211.2545876
0
ARC
8
DEFAULT_255_1_388
10
20.5861857
20
165.7117132
40
0.2084074
50
210.3789935
51
238.4007996
0
ARC
8
DEFAULT_255_1_388
10
20.5839943
20
165.7169786
40
0.2117943
50
239.6521916
51
265.9793852
0
ARC
8
DEFAULT_255_1_388
10
20.5935792
20
165.7926358
40
0.2879689
50
265.1324455
51
270.0603288
0
ARC
8
DEFAULT_255_1_388
10
20.5968169
20
165.7561418
40
0.2514919
50
269.3314378
51
287.2180039
0
ARC
8
DEFAULT_255_1_388
10
20.6123251
20
165.6995291
40
0.1928357
50
287.7957942
51
329.0808983
0
ARC
8
DEFAULT_255_1_388
10
20.5046008
20
165.7667651
40
0.319808
50
328.6635261
51
343.3325043
0
ARC
8
DEFAULT_255_1_388
10
20.2601467
20
165.8429195
40
0.5758408
50
343.0498092
51
351.9392499
0
ARC
8
DEFAULT_255_1_388
10
19.8700789
20
165.9004205
40
0.9701202
50
351.8071632
51
357.7957897
0
ARC
8
DEFAULT_255_1_388
10
19.5066266
20
165.9192724
40
1.3340376
50
357.5870923
51
359.2682493
0
LINE
8
DEFAULT_255_2_778
10
10.7161417
20
77.9197479
11
10.7161417
21
5.1593479
0
LINE
8
DEFAULT_255_2_778
10
10.7161417
20
5.1593479
11
9.3932417
21
5.1593479
0
LINE
8
DEFAULT_255_2_778
10
9.3932417
20
155.9718479
11
10.7161417
21
155.9718479
0
LINE
8
DEFAULT_255_2_778
10
10.7161417
20
155.9718479
11
10.7161417
21
83.2114479
0
LINE
8
DEFAULT_255_2_778
10
9.3932834
20
83.2114333
11
12.0390834
21
83.2114333
0
LINE
8
DEFAULT_255_2_778
10
12.0390834
20
83.2114333
11
12.0390834
21
77.9197333
0
LINE
8
DEFAULT_255_2_778
10
12.0390834
20
77.9197333
11
9.3932834
21
77.9197333
0
LINE
8
DEFAULT_255_2_778
10
9.3932834
20
77.9197333
11
9.3932834
21
83.2114333
0
LINE
8
DEFAULT_255_2_778
10
10.187
20
78.4489666
11
10.187
21
82.6822666
0
LINE
8
DEFAULT_255_2_778
10
9.9224167
20
81.888575
11
10.1870167
21
82.682275
0
LINE
8
DEFAULT_255_2_778
10
10.1870167
20
82.682275
11
10.4516167
21
81.888575
0
LINE
8
DEFAULT_255_2_778
10
10.4516167
20
81.888575
11
9.9224167
21
81.888575
0
LINE
8
DEFAULT_255_2_778
10
11.2453
20
82.6822666
11
11.2453
21
78.4489666
0
LINE
8
DEFAULT_255_2_778
10
10.9807167
20
79.242675
11
11.2453167
21
78.448975
0
LINE
8
DEFAULT_255_2_778
10
11.2453167
20
78.448975
11
11.5099167
21
79.242675
0
LINE
8
DEFAULT_255_2_778
10
11.5099167
20
79.242675
11
10.9807167
21
79.242675
0
LINE
8
DEFAULT_255_1_388
10
4.4433882
20
164.4915987
11
4.4433882
21
164.1075838
0
LINE
8
DEFAULT_255_1_388
10
4.4433882
20
164.1075838
11
4.8102354
21
164.1075838
0
LINE
8
DEFAULT_255_1_388
10
4.8102354
20
164.1075838
11
4.8102354
21
163.9494601
0
LINE
8
DEFAULT_255_1_388
10
4.8102354
20
163.9494601
11
4.4433882
21
163.9494601
0
LINE
8
DEFAULT_255_1_388
10
4.4433882
20
163.9494601
11
4.4433882
21
163.5338204
0
LINE
8
DEFAULT_255_1_388
10
4.4433882
20
163.5338204
11
4.2753252
21
163.5338204
0
LINE
8
DEFAULT_255_1_388
10
4.2753252
20
163.5338204
11
4.2753252
21
163.9494601
0
LINE
8
DEFAULT_255_1_388
10
4.2753252
20
163.9494601
11
3.908478
21
163.9494601
0
LINE
8
DEFAULT_255_1_388
10
3.908478
20
163.9494601
11
3.908478
21
164.1075838
0
LINE
8
DEFAULT_255_1_388
10
3.908478
20
164.1075838
11
4.2753252
21
164.1075838
0
LINE
8
DEFAULT_255_1_388
10
4.2753252
20
164.1075838
11
4.2753252
21
164.4915987
0
LINE
8
DEFAULT_255_1_388
10
4.2753252
20
164.4915987
11
4.4433882
21
164.4915987
0
LINE
8
DEFAULT_255_1_388
10
4.5033985
20
5.9738148
11
4.5033985
21
4.6519
0
LINE
8
DEFAULT_255_1_388
10
4.5033985
20
4.6519
11
4.3353355
21
4.6519
0
LINE
8
DEFAULT_255_1_388
10
4.3353355
20
4.6519
11
4.3353355
21
5.765995
0
LINE
8
DEFAULT_255_1_388
10
4.3353355
20
5.765995
11
3.998306
21
5.6422066
0
LINE
8
DEFAULT_255_1_388
10
3.998306
20
5.6422066
11
3.998306
21
5.7940055
0
LINE
8
DEFAULT_255_1_388
10
3.998306
20
5.7940055
11
4.4771951
21
5.9738148
0
LINE
8
DEFAULT_255_1_388
10
4.4771951
20
5.9738148
11
4.5033985
21
5.9738148
0
LINE
8
DEFAULT_255_1_388
10
5.6193006
20
5.9683934
11
5.6491182
21
5.9683934
0
LINE
8
DEFAULT_255_1_388
10
5.6491182
20
5.9683934
11
5.6491182
21
5.8265338
0
LINE
8
DEFAULT_255_1_388
10
5.6491182
20
5.8265338
11
5.618397
21
5.8265338
0
LINE
8
DEFAULT_255_1_388
10
5.0030696
20
5.1524747
11
5.0030696
21
5.2166278
0
LINE
8
DEFAULT_255_1_388
10
5.1711326
20
5.1949422
11
5.1711326
21
5.1334999
0
ARC
8
DEFAULT_255_1_388
10
5.6242862
20
5.2642826
40
0.562282
50
90.6001079
51
104.5146616
0
ARC
8
DEFAULT_255_1_388
10
5.5805821
20
5.42681
40
0.3939917
50
104.2855758
51
133.8630124
0
ARC
8
DEFAULT_255_1_388
10
5.5990074
20
5.4146243
40
0.4155734
50
134.5304124
51
161.6210222
0
ARC
8
DEFAULT_255_1_388
10
5.7850006
20
5.3490421
40
0.6127682
50
161.2850533
51
174.2074364
0
ARC
8
DEFAULT_255_1_388
10
5.9439573
20
5.3271437
40
0.7731446
50
173.7817938
51
174.9251711
0
ARC
8
DEFAULT_255_1_388
10
5.4313767
20
5.171627
40
0.3412588
50
95.8332067
51
138.995412
0
ARC
8
DEFAULT_255_1_388
10
5.4565047
20
5.0277695
40
0.4870358
50
89.8755506
51
97.0540979
0
ARC
8
DEFAULT_255_1_388
10
5.4618436
20
5.1217841
40
0.3930432
50
71.6407016
51
90.6240821
0
ARC
8
DEFAULT_255_1_388
10
5.4787829
20
5.1841433
40
0.3285421
50
39.6368051
51
71.0190743
0
ARC
8
DEFAULT_255_1_388
10
5.4071737
20
5.1222586
40
0.4231706
50
10.6588054
51
39.9044509
0
ARC
8
DEFAULT_255_1_388
10
5.2330283
20
5.0844223
40
0.60133
50
359.6827842
51
11.1326896
0
ARC
8
DEFAULT_255_1_388
10
5.2285618
20
5.0764715
40
0.6058047
50
347.2485908
51
0.4371098
0
ARC
8
DEFAULT_255_1_388
10
5.4161404
20
5.0313379
40
0.4128987
50
318.1408565
51
347.6118497
0
ARC
8
DEFAULT_255_1_388
10
5.4527001
20
5.0012903
40
0.3656244
50
275.6342406
51
317.824739
0
ARC
8
DEFAULT_255_1_388
10
5.4278521
20
5.1474827
40
0.513655
50
269.8872513
51
276.7916069
0
ARC
8
DEFAULT_255_1_388
10
5.4216714
20
5.0321181
40
0.398323
50
246.9139443
51
270.7436787
0
ARC
8
DEFAULT_255_1_388
10
5.422391
20
5.0161044
40
0.3839368
50
218.1665534
51
245.8780431
0
ARC
8
DEFAULT_255_1_388
10
5.5213282
20
5.0988903
40
0.5128958
50
191.4115343
51
218.6077624
0
ARC
8
DEFAULT_255_1_388
10
5.7393598
20
5.1477777
40
0.7363054
50
179.6344971
51
191.7836758
0
ARC
8
DEFAULT_255_1_388
10
6.3673473
20
5.2241495
40
1.3642984
50
171.4523743
51
180.3158856
0
ARC
8
DEFAULT_255_1_388
10
5.87292
20
5.3010895
40
0.8639311
50
157.9802296
51
171.6246761
0
ARC
8
DEFAULT_255_1_388
10
5.623855
20
5.4004038
40
0.5958004
50
141.4299236
51
157.8541251
0
ARC
8
DEFAULT_255_1_388
10
5.5516634
20
5.4514746
40
0.5075416
50
102.871586
51
140.8564533
0
ARC
8
DEFAULT_255_1_388
10
5.6245187
20
5.1769943
40
0.7914163
50
90.377773
51
103.5868422
0
ARC
8
DEFAULT_255_1_388
10
5.4289708
20
5.1089543
40
0.2667015
50
89.8751238
51
126.2072139
0
ARC
8
DEFAULT_255_1_388
10
5.4341179
20
5.0915847
40
0.2838229
50
124.9742447
51
144.8960197
0
ARC
8
DEFAULT_255_1_388
10
5.4143424
20
5.1076981
40
0.2583845
50
145.2974778
51
160.2660922
0
ARC
8
DEFAULT_255_1_388
10
5.7599912
20
5.1299151
40
0.5888695
50
179.6512124
51
190.285571
0
ARC
8
DEFAULT_255_1_388
10
5.5694392
20
5.0939968
40
0.3949683
50
190.0944895
51
207.5099647
0
ARC
8
DEFAULT_255_1_388
10
5.5057973
20
5.0637177
40
0.3245464
50
207.9585471
51
216.325377
0
ARC
8
DEFAULT_255_1_388
10
5.4675611
20
5.0322712
40
0.2751259
50
215.7661336
51
232.5457193
0
ARC
8
DEFAULT_255_1_388
10
5.4244726
20
4.9775273
40
0.2054668
50
232.8005815
51
270.6605497
0
ARC
8
DEFAULT_255_1_388
10
5.4296151
20
5.0184853
40
0.2464268
50
269.3550767
51
288.474612
0
ARC
8
DEFAULT_255_1_388
10
5.4400658
20
4.9791721
40
0.2058436
50
289.1831976
51
322.9685307
0
ARC
8
DEFAULT_255_1_388
10
5.3712759
20
5.0334279
40
0.2934408
50
322.6007085
51
346.5183319
0
ARC
8
DEFAULT_255_1_388
10
5.2410516
20
5.0666434
40
0.4278249
50
346.2584622
51
358.7739592
0
ARC
8
DEFAULT_255_1_388
10
5.1259091
20
5.0728829
40
0.5430876
50
358.3757628
51
0.0082477
0
ARC
8
DEFAULT_255_1_388
10
5.2115909
20
5.0759856
40
0.4574157
50
359.6211417
51
11.28403
0
ARC
8
DEFAULT_255_1_388
10
5.3552516
20
5.1059535
40
0.3106708
50
11.0483152
51
31.8145585
0
ARC
8
DEFAULT_255_1_388
10
5.3900221
20
5.1248045
40
0.2711963
50
32.3028554
51
38.0820598
0
ARC
8
DEFAULT_255_1_388
10
5.4373454
20
5.1676717
40
0.2075566
50
36.8249851
51
85.741667
0
ARC
8
DEFAULT_255_1_388
10
5.4297866
20
5.1113065
40
0.2643487
50
85.0150021
51
90.050843
0
LINE
8
DEFAULT_255_1_388
10
4.5033985
20
13.9113148
11
4.5033985
21
12.5894
0
LINE
8
DEFAULT_255_1_388
10
4.5033985
20
12.5894
11
4.3353355
21
12.5894
0
LINE
8
DEFAULT_255_1_388
10
4.3353355
20
12.5894
11
4.3353355
21
13.703495
0
LINE
8
DEFAULT_255_1_388
10
4.3353355
20
13.703495
11
3.998306
21
13.5797066
0
LINE
8
DEFAULT_255_1_388
10
3.998306
20
13.5797066
11
3.998306
21
13.7315055
0
LINE
8
DEFAULT_255_1_388
10
3.998306
20
13.7315055
11
4.4771951
21
13.9113148
0
LINE
8
DEFAULT_255_1_388
10
4.4771951
20
13.9113148
11
4.5033985
21
13.9113148
0
LINE
8
DEFAULT_255_1_388
10
5.2036609
20
13.2146666
11
5.0699334
21
13.2490021
0
LINE
8
DEFAULT_255_1_388
10
5.0699334
20
13.2490021
11
5.1367972
21
13.9049898
0
LINE
8
DEFAULT_255_1_388
10
5.1367972
20
13.9049898
11
5.8108563
21
13.9049898
0
LINE
8
DEFAULT_255_1_388
10
5.8108563
20
13.9049898
11
5.8108563
21
13.7504803
0
LINE
8
DEFAULT_255_1_388
10
5.8108563
20
13.7504803
11
5.2786568
21
13.7504803
0
LINE
8
DEFAULT_255_1_388
10
5.2786568
20
13.7504803
11
5.2389
21
13.3917652
0
LINE
8
DEFAULT_255_1_388
10
5.022948
20
12.9354652
11
5.1810718
21
12.9354652
0
LINE
8
DEFAULT_255_1_388
10
5.2479356
20
13.2508092
11
5.2036609
21
13.2146666
0
ARC
8
DEFAULT_255_1_388
10
5.4475613
20
13.0340241
40
0.4141476
50
93.7181681
51
120.253934
0
ARC
8
DEFAULT_255_1_388
10
5.4581665
20
12.9431284
40
0.5055616
50
89.9660471
51
94.2495185
0
ARC
8
DEFAULT_255_1_388
10
5.4627487
20
13.0094154
40
0.4392953
50
73.8045384
51
90.5585736
0
ARC
8
DEFAULT_255_1_388
10
5.4891745
20
13.105952
40
0.3392225
50
41.3071072
51
73.543002
0
ARC
8
DEFAULT_255_1_388
10
5.4423565
20
13.0656461
40
0.4009977
50
13.5075837
51
41.2174839
0
ARC
8
DEFAULT_255_1_388
10
5.2576662
20
13.0172907
40
0.5918864
50
1.1330171
51
13.8830737
0
ARC
8
DEFAULT_255_1_388
10
5.0980308
20
13.0087522
40
0.7516787
50
359.9925091
51
1.5431298
0
ARC
8
DEFAULT_255_1_388
10
5.2424923
20
13.0041027
40
0.6072343
50
347.8572712
51
0.4294349
0
ARC
8
DEFAULT_255_1_388
10
5.4394058
20
12.9594898
40
0.4053482
50
323.6727442
51
348.1674594
0
ARC
8
DEFAULT_255_1_388
10
5.4725022
20
12.9393175
40
0.3667495
50
316.8171818
51
323.1486802
0
ARC
8
DEFAULT_255_1_388
10
5.4794146
20
12.9351612
40
0.358869
50
281.839603
51
316.5458142
0
ARC
8
DEFAULT_255_1_388
10
5.4371434
20
13.1101363
40
0.5388223
50
269.5770964
51
282.4214641
0
ARC
8
DEFAULT_255_1_388
10
5.4291354
20
13.086093
40
0.5147801
50
256.2425863
51
270.4486481
0
ARC
8
DEFAULT_255_1_388
10
5.3954882
20
12.9511124
40
0.3756708
50
228.9024379
51
256.33135
0
ARC
8
DEFAULT_255_1_388
10
5.3871862
20
12.9380054
40
0.360344
50
193.7536029
51
228.5272638
0
ARC
8
DEFAULT_255_1_388
10
5.5264427
20
12.9788463
40
0.5053599
50
184.9244437
51
194.4976052
0
ARC
8
DEFAULT_255_1_388
10
5.5481068
20
12.9828722
40
0.3700839
50
187.3596909
51
198.6733728
0
ARC
8
DEFAULT_255_1_388
10
5.4300312
20
12.9419373
40
0.2451195
50
198.4453795
51
217.7945479
0
ARC
8
DEFAULT_255_1_388
10
5.3967484
20
12.9183563
40
0.2043754
50
218.2887146
51
228.5613203
0
ARC
8
DEFAULT_255_1_388
10
5.4077491
20
12.9331902
40
0.2227819
50
228.9652423
51
258.1237049
0
ARC
8
DEFAULT_255_1_388
10
5.4308929
20
13.0322964
40
0.3245374
50
257.7260585
51
270.4013717
0
ARC
8
DEFAULT_255_1_388
10
5.4359427
20
12.9822255
40
0.2744726
50
269.4204315
51
286.420998
0
ARC
8
DEFAULT_255_1_388
10
5.4526482
20
12.9215705
40
0.2115721
50
286.7250065
51
320.6004665
0
ARC
8
DEFAULT_255_1_388
10
5.4095398
20
12.9565527
40
0.2670878
50
320.6712228
51
344.5440474
0
ARC
8
DEFAULT_255_1_388
10
5.2794112
20
12.9947394
40
0.4026927
50
344.241448
51
356.735803
0
ARC
8
DEFAULT_255_1_388
10
5.1390419
20
13.0063656
40
0.5435085
50
356.3547471
51
0.0507222
0
ARC
8
DEFAULT_255_1_388
10
5.2892684
20
13.0098812
40
0.3932934
50
359.5579289
51
12.9534322
0
ARC
8
DEFAULT_255_1_388
10
5.4079524
20
13.0386586
40
0.2711827
50
12.6489751
51
41.608121
0
ARC
8
DEFAULT_255_1_388
10
5.4338684
20
13.0606946
40
0.2371737
50
41.7851122
51
85.9892156
0
ARC
8
DEFAULT_255_1_388
10
5.4199994
20
12.9691738
40
0.3295244
50
84.6965848
51
90.0672125
0
ARC
8
DEFAULT_255_1_388
10
5.4173561
20
12.8940118
40
0.4046926
50
89.6804991
51
99.161352
0
ARC
8
DEFAULT_255_1_388
10
5.3942571
20
13.0320848
40
0.2647044
50
98.9836248
51
113.8905702
0
ARC
8
DEFAULT_255_1_388
10
5.3684246
20
13.0930118
40
0.1985386
50
114.195234
51
127.3641866
0
LINE
8
DEFAULT_255_1_388
10
4.6356985
20
21.8488148
11
4.6356985
21
20.5269
0
LINE
8
DEFAULT_255_1_388
10
4.6356985
20
20.5269
11
4.4676355
21
20.5269
0
LINE
8
DEFAULT_255_1_388
10
4.4676355
20
20.5269
11
4.4676355
21
21.640995
0
LINE
8
DEFAULT_255_1_388
10
4.4676355
20
21.640995
11
4.130606
21
21.5172066
0
LINE
8
DEFAULT_255_1_388
10
4.130606
20
21.5172066
11
4.130606
21
21.6690055
0
LINE
8
DEFAULT_255_1_388
10
4.130606
20
21.6690055
11
4.6094951
21
21.8488148
0
LINE
8
DEFAULT_255_1_388
10
4.6094951
20
21.8488148
11
4.6356985
21
21.8488148
0
LINE
8
DEFAULT_255_1_388
10
5.8311143
20
21.8424898
11
5.8311143
21
20.968743
0
LINE
8
DEFAULT_255_1_388
10
5.8311143
20
20.968743
11
6.0136343
21
20.968743
0
LINE
8
DEFAULT_255_1_388
10
6.0136343
20
20.968743
11
6.0136343
21
20.8323048
0
LINE
8
DEFAULT_255_1_388
10
6.0136343
20
20.8323048
11
5.8311143
21
20.8323048
0
LINE
8
DEFAULT_255_1_388
10
5.8311143
20
20.8323048
11
5.8311143
21
20.5269
0
LINE
8
DEFAULT_255_1_388
10
5.8311143
20
20.5269
11
5.6630513
21
20.5269
0
LINE
8
DEFAULT_255_1_388
10
5.6630513
20
20.5269
11
5.6630513
21
20.8323048
0
LINE
8
DEFAULT_255_1_388
10
5.6630513
20
20.8323048
11
5.063988
21
20.8323048
0
LINE
8
DEFAULT_255_1_388
10
5.063988
20
20.8323048
11
5.063988
21
20.9307933
0
LINE
8
DEFAULT_255_1_388
10
5.063988
20
20.9307933
11
5.6531121
21
21.8424898
0
LINE
8
DEFAULT_255_1_388
10
5.6531121
20
21.8424898
11
5.8311143
21
21.8424898
0
LINE
8
DEFAULT_255_1_388
10
5.6431729
20
21.5777455
11
5.2537366
21
20.968743
0
LINE
8
DEFAULT_255_1_388
10
5.2537366
20
20.968743
11
5.6630513
21
20.968743
0
LINE
8
DEFAULT_255_1_388
10
5.6630513
20
20.968743
11
5.6630513
21
21.613888
0
LINE
8
DEFAULT_255_1_388
10
5.6630513
20
21.613888
11
5.6431729
21
21.5777455
0
LINE
8
DEFAULT_255_1_388
10
4.5033985
20
29.7863148
11
4.5033985
21
28.4644
0
LINE
8
DEFAULT_255_1_388
10
4.5033985
20
28.4644
11
4.3353355
21
28.4644
0
LINE
8
DEFAULT_255_1_388
10
4.3353355
20
28.4644
11
4.3353355
21
29.578495
0
LINE
8
DEFAULT_255_1_388
10
4.3353355
20
29.578495
11
3.998306
21
29.4547066
0
LINE
8
DEFAULT_255_1_388
10
3.998306
20
29.4547066
11
3.998306
21
29.6065055
0
LINE
8
DEFAULT_255_1_388
10
3.998306
20
29.6065055
11
4.4771951
21
29.7863148
0
LINE
8
DEFAULT_255_1_388
10
4.4771951
20
29.7863148
11
4.5033985
21
29.7863148
0
LINE
8
DEFAULT_255_1_388
10
5.2361893
20
29.0670775
11
5.2361893
21
29.2035157
0
LINE
8
DEFAULT_255_1_388
10
5.2361893
20
29.2035157
11
5.3617847
21
29.2035157
0
LINE
8
DEFAULT_255_1_388
10
5.1476399
20
29.4348282
11
4.9804805
21
29.4348282
0
LINE
8
DEFAULT_255_1_388
10
4.9687342
20
28.8113688
11
5.1367972
21
28.8113688
0
LINE
8
DEFAULT_255_1_388
10
5.3617847
20
29.0670775
11
5.2361893
21
29.0670775
0
ARC
8
DEFAULT_255_1_388
10
5.3585074
20
29.5851922
40
0.3816905
50
270.491971
51
281.8953028
0
ARC
8
DEFAULT_255_1_388
10
5.3856501
20
29.4612199
40
0.2547877
50
281.6690378
51
301.2943765
0
ARC
8
DEFAULT_255_1_388
10
5.4047952
20
29.4261926
40
0.2149197
50
301.7834992
51
311.754567
0
ARC
8
DEFAULT_255_1_388
10
5.4150993
20
29.414765
40
0.1995326
50
311.7325027
51
354.2803031
0
ARC
8
DEFAULT_255_1_388
10
5.3333409
20
29.428828
40
0.2823461
50
353.0941646
51
0.1174696
0
ARC
8
DEFAULT_255_1_388
10
5.2814967
20
29.4341874
40
0.3342238
50
359.1804452
51
15.0452323
0
ARC
8
DEFAULT_255_1_388
10
5.4329026
20
29.4783546
40
0.1765747
50
13.957816
51
77.6713812
0
ARC
8
DEFAULT_255_1_388
10
5.3894261
20
29.3225464
40
0.3381982
50
76.111571
51
90.7028736
0
ARC
8
DEFAULT_255_1_388
10
5.3827673
20
29.353325
40
0.3074046
50
89.5321574
51
103.5319393
0
ARC
8
DEFAULT_255_1_388
10
5.3602057
20
29.4432443
40
0.2147041
50
103.2930114
51
133.5619756
0
ARC
8
DEFAULT_255_1_388
10
5.3551999
20
29.4499351
40
0.2064084
50
133.8349761
51
173.5343225
0
ARC
8
DEFAULT_255_1_388
10
5.4365656
20
29.4355144
40
0.2889266
50
172.5097183
51
180.1360699
0
ARC
8
DEFAULT_255_1_388
10
5.329542
20
29.439388
40
0.3490913
50
155.3483706
51
180.7484035
0
ARC
8
DEFAULT_255_1_388
10
5.3240396
20
29.4361519
40
0.3454798
50
131.5745177
51
154.4799474
0
ARC
8
DEFAULT_255_1_388
10
5.3592678
20
29.4005422
40
0.3955058
50
96.9874487
51
131.9690874
0
ARC
8
DEFAULT_255_1_388
10
5.3839571
20
29.2604407
40
0.537622
50
89.8592909
51
97.7827481
0
ARC
8
DEFAULT_255_1_388
10
5.389368
20
29.230936
40
0.5671399
50
78.3654493
51
90.4132586
0
ARC
8
DEFAULT_255_1_388
10
5.4296321
20
29.4175918
40
0.3762034
50
56.6229818
51
78.6387103
0
ARC
8
DEFAULT_255_1_388
10
5.453815
20
29.4598846
40
0.3275964
50
47.0254604
51
56.085558
0
ARC
8
DEFAULT_255_1_388
10
5.4560401
20
29.4643189
40
0.3228382
50
10.9207523
51
46.777927
0
ARC
8
DEFAULT_255_1_388
10
5.3025995
20
29.4288401
40
0.4802559
50
359.6364235
51
11.6087615
0
ARC
8
DEFAULT_255_1_388
10
5.5090161
20
29.4271404
40
0.273833
50
332.3549969
51
359.7179765
0
ARC
8
DEFAULT_255_1_388
10
5.4358562
20
29.4618285
40
0.3547505
50
325.2332381
51
332.8746682
0
ARC
8
DEFAULT_255_1_388
10
5.4530144
20
29.4498763
40
0.3338396
50
292.9803892
51
325.2391113
0
ARC
8
DEFAULT_255_1_388
10
5.421934
20
29.5103679
40
0.4016959
50
292.542178
51
293.6931461
0
ARC
8
DEFAULT_255_1_388
10
5.4662912
20
28.7838036
40
0.372079
50
57.643292
51
72.8626085
0
ARC
8
DEFAULT_255_1_388
10
5.5061747
20
28.8484273
40
0.2961455
50
36.7246661
51
57.4701329
0
ARC
8
DEFAULT_255_1_388
10
5.5048903
20
28.849847
40
0.2963321
50
8.054535
51
36.3561529
0
ARC
8
DEFAULT_255_1_388
10
5.4078576
20
28.8324073
40
0.3948682
50
359.8316595
51
8.5873361
0
ARC
8
DEFAULT_255_1_388
10
5.365605
20
28.826997
40
0.4371398
50
343.9831631
51
0.557075
0
ARC
8
DEFAULT_255_1_388
10
5.46531
20
28.7996963
40
0.3337749
50
311.6358204
51
343.7652116
0
ARC
8
DEFAULT_255_1_388
10
5.4227353
20
28.8476955
40
0.3979351
50
279.7829743
51
311.625622
0
ARC
8
DEFAULT_255_1_388
10
5.3888489
20
29.0093642
40
0.5630417
50
269.7285092
51
280.3857694
0
ARC
8
DEFAULT_255_1_388
10
5.3818802
20
29.0047241
40
0.5584119
50
256.6827433
51
270.4412869
0
ARC
8
DEFAULT_255_1_388
10
5.3437788
20
28.8489698
40
0.3980715
50
229.4223821
51
256.8554507
0
ARC
8
DEFAULT_255_1_388
10
5.2971342
20
28.7964683
40
0.3278564
50
181.8183354
51
229.6455015
0
ARC
8
DEFAULT_255_1_388
10
5.4140951
20
28.8111825
40
0.4453611
50
179.9760419
51
183.2330638
0
ARC
8
DEFAULT_255_1_388
10
5.3947503
20
28.8088781
40
0.2579652
50
179.4467996
51
196.2871626
0
ARC
8
DEFAULT_255_1_388
10
5.3398957
20
28.7938709
40
0.2011057
50
196.5661293
51
227.7059371
0
ARC
8
DEFAULT_255_1_388
10
5.3583564
20
28.8145155
40
0.2287994
50
227.7653015
51
257.8763321
0
ARC
8
DEFAULT_255_1_388
10
5.3836647
20
28.9205961
40
0.3378385
50
257.4583525
51
270.4267406
0
ARC
8
DEFAULT_255_1_388
10
5.3887897
20
28.953223
40
0.3704652
50
269.5965319
51
280.8788143
0
ARC
8
DEFAULT_255_1_388
10
5.4146125
20
28.8242529
40
0.2389415
50
280.6347277
51
299.8594068
0
ARC
8
DEFAULT_255_1_388
10
5.4360895
20
28.7834736
40
0.19289
50
300.3575552
51
314.5515667
0
ARC
8
DEFAULT_255_1_388
10
5.426757
20
28.7903025
40
0.204312
50
315.0730962
51
345.0429362
0
ARC
8
DEFAULT_255_1_388
10
5.3229078
20
28.8205539
40
0.31246
50
344.598526
51
357.9270698
0
ARC
8
DEFAULT_255_1_388
10
5.2219383
20
28.8274705
40
0.4136265
50
357.4755098
51
0.0224936
0
ARC
8
DEFAULT_255_1_388
10
5.337226
20
28.8302099
40
0.2983498
50
359.5051035
51
13.4236939
0
ARC
8
DEFAULT_255_1_388
10
5.434735
20
28.8551637
40
0.1977186
50
12.9497905
51
48.7550905
0
ARC
8
DEFAULT_255_1_388
10
5.4142272
20
28.8271373
40
0.2323321
50
49.509109
51
72.1832965
0
ARC
8
DEFAULT_255_1_388
10
5.373974
20
28.7076632
40
0.358397
50
71.9008458
51
84.3555134
0
ARC
8
DEFAULT_255_1_388
10
5.3558135
20
28.5544712
40
0.512641
50
84.019632
51
89.3326067
0
LINE
8
DEFAULT_255_1_388
10
4.923032
20
36.8193468
11
5.0974199
21
36.8193468
0
LINE
8
DEFAULT_255_1_388
10
4.0845242
20
36.9982525
11
4.0845242
21
37.1247516
0
LINE
8
DEFAULT_255_1_388
10
5.0974199
20
37.2946217
11
4.923032
21
37.2946217
0
LINE
8
DEFAULT_255_1_388
10
4.2589121
20
37.1202337
11
4.2589121
21
36.9928312
0
ARC
8
DEFAULT_255_1_388
10
4.4808433
20
36.8865329
40
0.6202263
50
340.1774904
51
353.7812217
0
ARC
8
DEFAULT_255_1_388
10
4.6576286
20
36.8206893
40
0.4315926
50
311.4560052
51
340.4420756
0
ARC
8
DEFAULT_255_1_388
10
4.6538826
20
36.8331665
40
0.4434573
50
282.4332229
51
310.7514507
0
ARC
8
DEFAULT_255_1_388
10
4.6044644
20
37.0373703
40
0.6535262
50
269.9358869
51
282.8096729
0
ARC
8
DEFAULT_255_1_388
10
4.5986583
20
37.1886329
40
0.8048043
50
269.9995752
51
270.3612856
0
ARC
8
DEFAULT_255_1_388
10
4.5927073
20
36.9087781
40
0.5249831
50
250.7885263
51
270.6488451
0
ARC
8
DEFAULT_255_1_388
10
4.5737898
20
36.8370853
40
0.4510942
50
219.3628377
51
250.0611024
0
ARC
8
DEFAULT_255_1_388
10
4.6670772
20
36.9163653
40
0.5735046
50
193.5480293
51
219.5755675
0
ARC
8
DEFAULT_255_1_388
10
4.9338981
20
36.985652
40
0.849146
50
181.1220183
51
193.8754971
0
ARC
8
DEFAULT_255_1_388
10
5.1662214
20
36.9980914
40
1.0816971
50
179.9914644
51
181.5398227
0
ARC
8
DEFAULT_255_1_388
10
4.9585525
20
37.1289586
40
0.8740384
50
169.5837606
51
180.275782
0
ARC
8
DEFAULT_255_1_388
10
4.7518873
20
37.1671439
40
0.6638751
50
155.0367033
51
169.6002779
0
ARC
8
DEFAULT_255_1_388
10
4.6241331
20
37.2287336
40
0.5220662
50
136.7831557
51
155.2472983
0
ARC
8
DEFAULT_255_1_388
10
4.5803122
20
37.2659577
40
0.4646502
50
121.7633063
51
136.4281161
0
ARC
8
DEFAULT_255_1_388
10
4.5954962
20
37.2379049
40
0.4964979
50
95.6460018
51
121.5489589
0
ARC
8
DEFAULT_255_1_388
10
4.6131936
20
37.1131704
40
0.6223912
50
89.9245727
51
96.1375919
0
ARC
8
DEFAULT_255_1_388
10
4.6188641
20
37.1265721
40
0.6090084
50
76.6779212
51
90.456405
0
ARC
8
DEFAULT_255_1_388
10
4.6631454
20
37.305506
40
0.42469
50
47.4858803
51
76.9287069
0
ARC
8
DEFAULT_255_1_388
10
4.6466068
20
37.2942623
40
0.4441778
50
16.5424081
51
46.8934505
0
ARC
8
DEFAULT_255_1_388
10
4.4657118
20
37.2348265
40
0.6345318
50
5.4072971
51
17.0363711
0
ARC
8
DEFAULT_255_1_388
10
4.3038843
20
37.2088304
40
0.6250632
50
7.8888693
51
15.9242022
0
ARC
8
DEFAULT_255_1_388
10
4.5273828
20
37.2737309
40
0.3923364
50
15.7650676
51
27.9410069
0
ARC
8
DEFAULT_255_1_388
10
4.6515997
20
37.3402317
40
0.2514401
50
27.8167196
51
46.4007942
0
ARC
8
DEFAULT_255_1_388
10
4.6571839
20
37.3395882
40
0.2480958
50
47.4372362
51
75.0695672
0
ARC
8
DEFAULT_255_1_388
10
4.6224675
20
37.2187277
40
0.3738281
50
74.7009379
51
87.8124314
0
ARC
8
DEFAULT_255_1_388
10
4.6142292
20
37.1003659
40
0.4924321
50
87.3802571
51
90.0251599
0
ARC
8
DEFAULT_255_1_388
10
4.6098939
20
37.2323997
40
0.3604218
50
89.3451886
51
108.5744412
0
ARC
8
DEFAULT_255_1_388
10
4.5944931
20
37.2901836
40
0.3007661
50
109.2998307
51
143.3037387
0
ARC
8
DEFAULT_255_1_388
10
4.6802221
20
37.2242584
40
0.4089031
50
143.075267
51
163.1918576
0
ARC
8
DEFAULT_255_1_388
10
4.8998055
20
37.1549652
40
0.6391492
50
162.9375929
51
174.6208776
0
ARC
8
DEFAULT_255_1_388
10
5.1952437
20
37.1225711
40
0.9363344
50
174.342123
51
180.1430283
0
ARC
8
DEFAULT_255_1_388
10
5.0904978
20
36.9882117
40
0.8315986
50
179.6817261
51
189.150555
0
ARC
8
DEFAULT_255_1_388
10
4.8091727
20
36.9413559
40
0.5464044
50
188.9911061
51
203.5772363
0
ARC
8
DEFAULT_255_1_388
10
4.6877019
20
36.8909539
40
0.4149206
50
203.9075402
51
215.1312435
0
ARC
8
DEFAULT_255_1_388
10
4.5838817
20
36.8104907
40
0.2837747
50
213.9071511
51
263.8848919
0
ARC
8
DEFAULT_255_1_388
10
4.597981
20
36.8987519
40
0.3730641
50
263.1757928
51
270.1031044
0
ARC
8
DEFAULT_255_1_388
10
4.601589
20
37.0390511
40
0.5133712
50
269.6722503
51
279.0606936
0
ARC
8
DEFAULT_255_1_388
10
4.6316045
20
36.857615
40
0.3294739
50
278.8749101
51
293.6349581
0
ARC
8
DEFAULT_255_1_388
10
4.6676249
20
36.7730251
40
0.2375405
50
293.8553806
51
310.0518171
0
ARC
8
DEFAULT_255_1_388
10
4.6681758
20
36.7660021
40
0.2318463
50
311.0644687
51
332.0111037
0
ARC
8
DEFAULT_255_1_388
10
4.5340431
20
36.8399702
40
0.3850112
50
331.6586806
51
343.2877423
0
ARC
8
DEFAULT_255_1_388
10
4.3019896
20
36.9112806
40
0.6277712
50
343.1446576
51
351.0103568
0
ARC
8
DEFAULT_255_1_388
10
4.138722
20
36.9412873
40
0.7937327
50
350.71248
51
351.1626997
0
LINE
8
DEFAULT_255_1_388
10
5.9964666
20
37.7174898
11
5.9964666
21
36.843743
0
LINE
8
DEFAULT_255_1_388
10
5.9964666
20
36.843743
11
6.1789866
21
36.843743
0
LINE
8
DEFAULT_255_1_388
10
6.1789866
20
36.843743
11
6.1789866
21
36.7073048
0
LINE
8
DEFAULT_255_1_388
10
6.1789866
20
36.7073048
11
5.9964666
21
36.7073048
0
LINE
8
DEFAULT_255_1_388
10
5.9964666
20
36.7073048
11
5.9964666
21
36.4019
0
LINE
8
DEFAULT_255_1_388
10
5.9964666
20
36.4019
11
5.8284036
21
36.4019
0
LINE
8
DEFAULT_255_1_388
10
5.8284036
20
36.4019
11
5.8284036
21
36.7073048
0
LINE
8
DEFAULT_255_1_388
10
5.8284036
20
36.7073048
11
5.2293403
21
36.7073048
0
LINE
8
DEFAULT_255_1_388
10
5.2293403
20
36.7073048
11
5.2293403
21
36.8057933
0
LINE
8
DEFAULT_255_1_388
10
5.2293403
20
36.8057933
11
5.8184644
21
37.7174898
0
LINE
8
DEFAULT_255_1_388
10
5.8184644
20
37.7174898
11
5.9964666
21
37.7174898
0
LINE
8
DEFAULT_255_1_388
10
5.8085251
20
37.4527455
11
5.4190889
21
36.843743
0
LINE
8
DEFAULT_255_1_388
10
5.4190889
20
36.843743
11
5.8284036
21
36.843743
0
LINE
8
DEFAULT_255_1_388
10
5.8284036
20
36.843743
11
5.8284036
21
37.488888
0
LINE
8
DEFAULT_255_1_388
10
5.8284036
20
37.488888
11
5.8085251
21
37.4527455
0
LINE
8
DEFAULT_255_1_388
10
4.5033985
20
45.6613148
11
4.5033985
21
44.3394
0
LINE
8
DEFAULT_255_1_388
10
4.5033985
20
44.3394
11
4.3353355
21
44.3394
0
LINE
8
DEFAULT_255_1_388
10
4.3353355
20
44.3394
11
4.3353355
21
45.453495
0
LINE
8
DEFAULT_255_1_388
10
4.3353355
20
45.453495
11
3.998306
21
45.3297066
0
LINE
8
DEFAULT_255_1_388
10
3.998306
20
45.3297066
11
3.998306
21
45.4815055
0
LINE
8
DEFAULT_255_1_388
10
3.998306
20
45.4815055
11
4.4771951
21
45.6613148
0
LINE
8
DEFAULT_255_1_388
10
4.4771951
20
45.6613148
11
4.5033985
21
45.6613148
0
LINE
8
DEFAULT_255_1_388
10
5.8551309
20
44.4758382
11
5.8551309
21
44.3394
0
LINE
8
DEFAULT_255_1_388
10
5.8551309
20
44.3394
11
4.9931304
21
44.3394
0
LINE
8
DEFAULT_255_1_388
10
4.9931304
20
44.3394
11
4.9931304
21
44.4595741
0
LINE
8
DEFAULT_255_1_388
10
4.9931304
20
44.4595741
11
5.4485269
21
44.9655702
0
LINE
8
DEFAULT_255_1_388
10
5.13499
20
45.2673607
11
4.9678306
21
45.2673607
0
LINE
8
DEFAULT_255_1_388
10
5.5470154
20
44.858046
11
5.1946253
21
44.4758382
0
LINE
8
DEFAULT_255_1_388
10
5.1946253
20
44.4758382
11
5.8551309
21
44.4758382
0
ARC
8
DEFAULT_255_1_388
10
3.9309329
20
46.3075983
40
2.0258655
50
318.5132526
51
320.7829045
0
ARC
8
DEFAULT_255_1_388
10
4.5257286
20
45.8234929
40
1.2589638
50
320.7372878
51
323.9739031
0
ARC
8
DEFAULT_255_1_388
10
4.9666217
20
45.5040554
40
0.7145141
50
323.8962701
51
328.64194
0
ARC
8
DEFAULT_255_1_388
10
5.1968475
20
45.3620545
40
0.4440242
50
328.8294576
51
331.7891185
0
ARC
8
DEFAULT_255_1_388
10
5.3090795
20
45.3041374
40
0.3177517
50
331.4254512
51
352.9365785
0
ARC
8
DEFAULT_255_1_388
10
5.3243795
20
45.300705
40
0.3021496
50
353.2257659
51
0.0166158
0
ARC
8
DEFAULT_255_1_388
10
5.3480555
20
45.3032894
40
0.2784847
50
359.486299
51
15.9343185
0
ARC
8
DEFAULT_255_1_388
10
5.4050822
20
45.3186269
40
0.2194403
50
16.1712913
51
43.5286088
0
ARC
8
DEFAULT_255_1_388
10
5.4137767
20
45.3273191
40
0.2071504
50
43.4417391
51
83.1661095
0
ARC
8
DEFAULT_255_1_388
10
5.3986928
20
45.2444316
40
0.2912888
50
82.160179
51
90.1505708
0
ARC
8
DEFAULT_255_1_388
10
5.395141
20
45.1840279
40
0.3517025
50
89.5460741
51
102.5418361
0
ARC
8
DEFAULT_255_1_388
10
5.367813
20
45.2999933
40
0.2325748
50
102.1738499
51
129.206123
0
ARC
8
DEFAULT_255_1_388
10
5.3589583
20
45.3139664
40
0.2161591
50
129.72865
51
135.753947
0
ARC
8
DEFAULT_255_1_388
10
5.3726065
20
45.3030728
40
0.2335433
50
136.1757367
51
166.3673339
0
ARC
8
DEFAULT_255_1_388
10
5.4858754
20
45.2727148
40
0.3507873
50
165.9090694
51
178.8684636
0
ARC
8
DEFAULT_255_1_388
10
5.5834525
20
45.2674263
40
0.4484624
50
178.4391136
51
180.0083808
0
ARC
8
DEFAULT_255_1_388
10
5.4255227
20
45.2718197
40
0.4577138
50
163.2878482
51
180.5581842
0
ARC
8
DEFAULT_255_1_388
10
5.3353268
20
45.2966393
40
0.3641968
50
133.4540601
51
162.947111
0
ARC
8
DEFAULT_255_1_388
10
5.3554149
20
45.2752789
40
0.3935189
50
100.7869829
51
133.4382499
0
ARC
8
DEFAULT_255_1_388
10
5.3945394
20
45.1010399
40
0.5720313
50
89.660664
51
101.3702276
0
ARC
8
DEFAULT_255_1_388
10
5.4020003
20
45.1079263
40
0.5651495
50
78.2172678
51
90.412935
0
ARC
8
DEFAULT_255_1_388
10
5.4419469
20
45.2906511
40
0.378122
50
55.9269121
51
78.4888449
0
ARC
8
DEFAULT_255_1_388
10
5.4640184
20
45.3287187
40
0.3342379
50
47.929771
51
55.4049217
0
ARC
8
DEFAULT_255_1_388
10
5.4754715
20
45.3403618
40
0.3179217
50
4.334829
51
48.0560205
0
ARC
8
DEFAULT_255_1_388
10
5.3522516
20
45.3212487
40
0.442341
50
359.9251713
51
5.5971671
0
ARC
8
DEFAULT_255_1_388
10
5.4004671
20
45.3275728
40
0.3941854
50
337.8914027
51
358.9967534
0
ARC
8
DEFAULT_255_1_388
10
5.0952241
20
45.4453295
40
0.7213271
50
326.9132501
51
338.3508308
0
ARC
8
DEFAULT_255_1_388
10
4.6468353
20
45.7327105
40
1.2538973
50
319.6471833
51
327.0959558
0
ARC
8
DEFAULT_255_1_388
10
4.2155011
20
46.088505
40
1.8129975
50
317.2588228
51
319.9045804
0
LINE
8
DEFAULT_255_1_388
10
4.4959985
20
53.5988148
11
4.4959985
21
52.2769
0
LINE
8
DEFAULT_255_1_388
10
4.4959985
20
52.2769
11
4.3279355
21
52.2769
0
LINE
8
DEFAULT_255_1_388
10
4.3279355
20
52.2769
11
4.3279355
21
53.390995
0
LINE
8
DEFAULT_255_1_388
10
4.3279355
20
53.390995
11
3.990906
21
53.2672066
0
LINE
8
DEFAULT_255_1_388
10
3.990906
20
53.2672066
11
3.990906
21
53.4190055
0
LINE
8
DEFAULT_255_1_388
10
3.990906
20
53.4190055
11
4.4697951
21
53.5988148
0
LINE
8
DEFAULT_255_1_388
10
4.4697951
20
53.5988148
11
4.4959985
21
53.5988148
0
LINE
8
DEFAULT_255_1_388
10
5.5350976
20
53.5988148
11
5.5350976
21
52.2769
0
LINE
8
DEFAULT_255_1_388
10
5.5350976
20
52.2769
11
5.3670346
21
52.2769
0
LINE
8
DEFAULT_255_1_388
10
5.3670346
20
52.2769
11
5.3670346
21
53.390995
0
LINE
8
DEFAULT_255_1_388
10
5.3670346
20
53.390995
11
5.0300051
21
53.2672066
0
LINE
8
DEFAULT_255_1_388
10
5.0300051
20
53.2672066
11
5.0300051
21
53.4190055
0
LINE
8
DEFAULT_255_1_388
10
5.0300051
20
53.4190055
11
5.5088942
21
53.5988148
0
LINE
8
DEFAULT_255_1_388
10
5.5088942
20
53.5988148
11
5.5350976
21
53.5988148
0
LINE
8
DEFAULT_255_1_388
10
4.5033985
20
61.5363148
11
4.5033985
21
60.2144
0
LINE
8
DEFAULT_255_1_388
10
4.5033985
20
60.2144
11
4.3353355
21
60.2144
0
LINE
8
DEFAULT_255_1_388
10
4.3353355
20
60.2144
11
4.3353355
21
61.328495
0
LINE
8
DEFAULT_255_1_388
10
4.3353355
20
61.328495
11
3.998306
21
61.2047066
0
LINE
8
DEFAULT_255_1_388
10
3.998306
20
61.2047066
11
3.998306
21
61.3565055
0
LINE
8
DEFAULT_255_1_388
10
3.998306
20
61.3565055
11
4.4771951
21
61.5363148
0
LINE
8
DEFAULT_255_1_388
10
4.4771951
20
61.5363148
11
4.5033985
21
61.5363148
0
LINE
8
DEFAULT_255_1_388
10
5.8180848
20
60.992369
11
5.8180848
21
60.7755135
0
LINE
8
DEFAULT_255_1_388
10
4.987709
20
60.7529244
11
4.987709
21
60.9761048
0
LINE
8
DEFAULT_255_1_388
10
5.6509253
20
60.7303353
11
5.6509253
21
61.0041153
0
LINE
8
DEFAULT_255_1_388
10
5.1548685
20
61.0167652
11
5.1548685
21
60.7493102
0
ARC
8
DEFAULT_255_1_388
10
4.4403182
20
60.7700118
40
1.3777776
50
353.8440855
51
0.2287917
0
ARC
8
DEFAULT_255_1_388
10
4.9622199
20
60.7117414
40
0.852639
50
344.4934746
51
353.9763743
0
ARC
8
DEFAULT_255_1_388
10
5.2989006
20
60.6160191
40
0.5026273
50
329.2803599
51
344.7473406
0
ARC
8
DEFAULT_255_1_388
10
5.4104502
20
60.5548038
40
0.3754848
50
324.9361395
51
328.6153007
0
ARC
8
DEFAULT_255_1_388
10
5.4530152
20
60.5250586
40
0.3235566
50
280.5801797
51
324.9173226
0
ARC
8
DEFAULT_255_1_388
10
5.407878
20
60.7130236
40
0.5167077
50
269.5979457
51
281.6732777
0
ARC
8
DEFAULT_255_1_388
10
5.3997684
20
60.6995113
40
0.5032026
50
256.6228565
51
270.5105488
0
ARC
8
DEFAULT_255_1_388
10
5.3545427
20
60.5253345
40
0.3233092
50
215.8618351
51
257.2787793
0
ARC
8
DEFAULT_255_1_388
10
5.4694134
20
60.6024106
40
0.4615831
50
197.9695203
51
215.2622745
0
ARC
8
DEFAULT_255_1_388
10
5.7489809
20
60.6967641
40
0.7566307
50
187.8816486
51
198.2346584
0
ARC
8
DEFAULT_255_1_388
10
6.1943048
20
60.7610453
40
1.2065653
50
180.8977266
51
188.0054894
0
ARC
8
DEFAULT_255_1_388
10
6.4993261
20
60.77254
40
1.5117443
50
180.7434591
51
181.152202
0
ARC
8
DEFAULT_255_1_388
10
6.3318257
20
60.9815371
40
1.3441277
50
173.7674302
51
180.2315596
0
ARC
8
DEFAULT_255_1_388
10
5.8236126
20
61.0389779
40
0.8326847
50
164.3058537
51
173.9000553
0
ARC
8
DEFAULT_255_1_388
10
5.4960126
20
61.1333652
40
0.4917711
50
148.7922028
51
164.5682288
0
ARC
8
DEFAULT_255_1_388
10
5.3890864
20
61.1930457
40
0.3694204
50
144.5883979
51
148.1161588
0
ARC
8
DEFAULT_255_1_388
10
5.3503609
20
61.2200667
40
0.322202
50
101.6440149
51
144.5142619
0
ARC
8
DEFAULT_255_1_388
10
5.3981801
20
61.0300337
40
0.5180451
50
89.528284
51
102.5820197
0
ARC
8
DEFAULT_255_1_388
10
5.4070793
20
61.0256376
40
0.5224441
50
77.0437914
51
90.508231
0
ARC
8
DEFAULT_255_1_388
10
5.4523047
20
61.2104272
40
0.3322297
50
48.2777708
51
77.4996087
0
ARC
8
DEFAULT_255_1_388
10
5.4604787
20
61.2249557
40
0.315966
50
36.3141586
51
47.6307332
0
ARC
8
DEFAULT_255_1_388
10
5.3627509
20
61.1591159
40
0.4337313
50
18.2931065
51
35.6770203
0
ARC
8
DEFAULT_255_1_388
10
5.076635
20
61.0609107
40
0.7362203
50
8.0246996
51
18.5605636
0
ARC
8
DEFAULT_255_1_388
10
4.6082705
20
60.9917432
40
1.2096583
50
1.127539
51
8.1718423
0
ARC
8
DEFAULT_255_1_388
10
4.2433839
20
60.9774374
40
1.5747719
50
0.5432713
51
1.38669
0
ARC
8
DEFAULT_255_1_388
10
4.4491217
20
61.0081163
40
1.2018103
50
359.8092569
51
4.9408001
0
ARC
8
DEFAULT_255_1_388
10
4.9227799
20
61.05039
40
0.7262727
50
4.8364937
51
12.2906017
0
ARC
8
DEFAULT_255_1_388
10
5.2327263
20
61.1194485
40
0.4087324
50
12.0806994
51
23.8171225
0
ARC
8
DEFAULT_255_1_388
10
5.3647659
20
61.1753508
40
0.2653719
50
24.2874621
51
31.3934353
0
ARC
8
DEFAULT_255_1_388
10
5.4238095
20
61.2139822
40
0.1948607
50
30.7407708
51
82.4658033
0
ARC
8
DEFAULT_255_1_388
10
5.4035756
20
61.1146017
40
0.2961198
50
81.1057101
51
90.2187368
0
ARC
8
DEFAULT_255_1_388
10
5.3995568
20
61.1436421
40
0.2670929
50
89.380395
51
105.6763916
0
ARC
8
DEFAULT_255_1_388
10
5.378929
20
61.218632
40
0.1893189
50
105.7980655
51
149.7387869
0
ARC
8
DEFAULT_255_1_388
10
5.498643
20
61.1466719
40
0.3289892
50
149.4208441
51
163.628295
0
ARC
8
DEFAULT_255_1_388
10
5.733866
20
61.0749345
40
0.5749004
50
163.3764549
51
172.141138
0
ARC
8
DEFAULT_255_1_388
10
6.1051381
20
61.0217582
40
0.9499585
50
172.0258462
51
178.0705453
0
ARC
8
DEFAULT_255_1_388
10
6.4472934
20
61.0055682
40
1.2924734
50
177.8639301
51
179.5036263
0
ARC
8
DEFAULT_255_1_388
10
6.3253953
20
60.7452151
40
1.170534
50
179.7995545
51
185.246089
0
ARC
8
DEFAULT_255_1_388
10
5.8705546
20
60.7021404
40
0.7136613
50
185.1411911
51
193.0082205
0
ARC
8
DEFAULT_255_1_388
10
5.5731806
20
60.6318441
40
0.4080987
50
192.7897338
51
205.2507384
0
ARC
8
DEFAULT_255_1_388
10
5.4554016
20
60.5792538
40
0.2791522
50
205.8001921
51
211.2545876
0
ARC
8
DEFAULT_255_1_388
10
5.3965555
20
60.5398132
40
0.2084074
50
210.3789935
51
238.4007996
0
ARC
8
DEFAULT_255_1_388
10
5.3943641
20
60.5450786
40
0.2117943
50
239.6521916
51
265.9793852
0
ARC
8
DEFAULT_255_1_388
10
5.403949
20
60.6207358
40
0.2879689
50
265.1324455
51
270.0603288
0
ARC
8
DEFAULT_255_1_388
10
5.4071867
20
60.5842418
40
0.2514919
50
269.3314378
51
287.2180039
0
ARC
8
DEFAULT_255_1_388
10
5.422695
20
60.5276291
40
0.1928357
50
287.7957942
51
329.0808983
0
ARC
8
DEFAULT_255_1_388
10
5.3149707
20
60.5948651
40
0.319808
50
328.6635261
51
343.3325043
0
ARC
8
DEFAULT_255_1_388
10
5.0705165
20
60.6710195
40
0.5758408
50
343.0498092
51
351.9392499
0
ARC
8
DEFAULT_255_1_388
10
4.6804487
20
60.7285205
40
0.9701202
50
351.8071632
51
357.7957897
0
ARC
8
DEFAULT_255_1_388
10
4.3169964
20
60.7473724
40
1.3340376
50
357.5870923
51
359.2682493
0
LINE
8
DEFAULT_255_1_388
10
4.7629215
20
68.9416153
11
4.7629215
21
68.8928229
0
LINE
8
DEFAULT_255_1_388
10
4.1530155
20
68.1509964
11
4.1204872
21
68.1509964
0
LINE
8
DEFAULT_255_1_388
10
4.1204872
20
68.1509964
11
4.1204872
21
68.2919525
0
LINE
8
DEFAULT_255_1_388
10
4.1204872
20
68.2919525
11
4.1557262
21
68.2919525
0
LINE
8
DEFAULT_255_1_388
10
4.5957621
20
68.909087
11
4.5957621
21
68.9759508
0
ARC
8
DEFAULT_255_1_388
10
4.2814713
20
68.9929877
40
0.4089973
50
297.4036461
51
320.0168133
0
ARC
8
DEFAULT_255_1_388
10
4.3140893
20
68.9303072
40
0.3383378
50
270.2631886
51
297.3852322
0
ARC
8
DEFAULT_255_1_388
10
4.3102569
20
68.9840343
40
0.3920983
50
269.9969069
51
270.7871389
0
ARC
8
DEFAULT_255_1_388
10
4.3073892
20
68.9822737
40
0.3903482
50
254.5997295
51
270.4178147
0
ARC
8
DEFAULT_255_1_388
10
4.2913424
20
68.9187693
40
0.3248657
50
236.4717231
51
254.3539376
0
ARC
8
DEFAULT_255_1_388
10
4.3089155
20
68.9423999
40
0.3542746
50
208.4727261
51
236.2134628
0
ARC
8
DEFAULT_255_1_388
10
4.3807919
20
68.9863676
40
0.4384402
50
204.3450776
51
209.0455365
0
ARC
8
DEFAULT_255_1_388
10
4.4572295
20
69.01878
40
0.5214459
50
183.9375459
51
204.1275509
0
ARC
8
DEFAULT_255_1_388
10
4.5594601
20
69.0297863
40
0.6242037
50
179.9652726
51
184.3010611
0
ARC
8
DEFAULT_255_1_388
10
4.5324146
20
69.0335004
40
0.5971675
50
166.7585952
51
180.3200491
0
ARC
8
DEFAULT_255_1_388
10
4.4371954
20
69.0541979
40
0.4997418
50
154.6954866
51
166.5679151
0
ARC
8
DEFAULT_255_1_388
10
4.3412194
20
69.1025411
40
0.3923208
50
136.3325251
51
155.0871367
0
ARC
8
DEFAULT_255_1_388
10
4.3096114
20
69.1296271
40
0.3507618
50
121.2365985
51
135.9680081
0
ARC
8
DEFAULT_255_1_388
10
4.3254178
20
69.1003541
40
0.3839917
50
96.8454764
51
120.9881329
0
ARC
8
DEFAULT_255_1_388
10
4.3417984
20
68.9950942
40
0.4904679
50
89.887204
51
97.2797758
0
ARC
8
DEFAULT_255_1_388
10
4.3476957
20
69.0668652
40
0.418725
50
70.6505767
51
90.6748382
0
ARC
8
DEFAULT_255_1_388
10
4.3624654
20
69.1246091
40
0.3593866
50
36.7493297
51
69.8220487
0
ARC
8
DEFAULT_255_1_388
10
4.2501001
20
69.0370446
40
0.5018201
50
15.3958155
51
37.0841102
0
ARC
8
DEFAULT_255_1_388
10
4.0105286
20
68.9672111
40
0.7513436
50
3.9487796
51
15.6798517
0
ARC
8
DEFAULT_255_1_388
10
3.7403928
20
68.942881
40
1.0225293
50
359.9290791
51
4.266464
0
ARC
8
DEFAULT_255_1_388
10
3.2222845
20
68.8853372
40
1.5406551
50
352.8365702
51
0.2783851
0
ARC
8
DEFAULT_255_1_388
10
3.8171076
20
68.8080664
40
0.9408425
50
341.8359339
51
352.9884057
0
ARC
8
DEFAULT_255_1_388
10
4.1792063
20
68.6860144
40
0.5587481
50
322.8579243
51
342.1527461
0
ARC
8
DEFAULT_255_1_388
10
4.2763755
20
68.619735
40
0.4413099
50
319.3348471
51
322.100194
0
ARC
8
DEFAULT_255_1_388
10
4.2415687
20
68.6546814
40
0.4904992
50
285.954114
51
318.8878716
0
ARC
8
DEFAULT_255_1_388
10
4.1598124
20
68.9145865
40
0.7628991
50
272.9280841
51
286.4924389
0
ARC
8
DEFAULT_255_1_388
10
4.1384428
20
69.168024
40
1.017132
50
270.8209173
51
273.4010121
0
ARC
8
DEFAULT_255_1_388
10
4.1484451
20
68.9632073
40
0.6712943
50
270.6214576
51
281.4062333
0
ARC
8
DEFAULT_255_1_388
10
4.1968176
20
68.731925
40
0.4350167
50
281.1852583
51
299.0622058
0
ARC
8
DEFAULT_255_1_388
10
4.2388421
20
68.6508138
40
0.3437146
50
299.5068171
51
313.1200142
0
ARC
8
DEFAULT_255_1_388
10
4.2413158
20
68.6418959
40
0.3355418
50
313.8525725
51
338.5989631
0
ARC
8
DEFAULT_255_1_388
10
4.0586286
20
68.7169576
40
0.5330317
50
338.2523315
51
351.2431701
0
ARC
8
DEFAULT_255_1_388
10
3.7874037
20
68.7630494
40
0.8081235
50
350.940933
51
357.6690137
0
ARC
8
DEFAULT_255_1_388
10
4.3375917
20
68.9883048
40
0.2581236
50
269.9447107
51
306.8249644
0
ARC
8
DEFAULT_255_1_388
10
4.3109219
20
69.035906
40
0.3122948
50
305.5071046
51
327.0773808
0
ARC
8
DEFAULT_255_1_388
10
4.3242271
20
69.0252445
40
0.2953369
50
327.4106457
51
336.8396801
0
ARC
8
DEFAULT_255_1_388
10
3.9761984
20
68.9795932
40
0.6195743
50
359.663158
51
10.1176387
0
ARC
8
DEFAULT_255_1_388
10
4.1734747
20
69.0160922
40
0.4189561
50
9.9431549
51
26.7699242
0
ARC
8
DEFAULT_255_1_388
10
4.2406733
20
69.0470796
40
0.3450125
50
27.2018067
51
34.6833639
0
ARC
8
DEFAULT_255_1_388
10
4.2957346
20
69.088456
40
0.2762035
50
34.124913
51
50.30709
0
ARC
8
DEFAULT_255_1_388
10
4.3459829
20
69.1485741
40
0.1978518
50
50.3850304
51
90.6705051
0
ARC
8
DEFAULT_255_1_388
10
4.3407223
20
69.1143074
40
0.2321235
50
89.2729817
51
111.9140267
0
ARC
8
DEFAULT_255_1_388
10
4.338531
20
69.1301308
40
0.2166604
50
112.9381864
51
142.5320936
0
ARC
8
DEFAULT_255_1_388
10
4.3999799
20
69.0802392
40
0.2957902
50
142.1024021
51
166.3835244
0
ARC
8
DEFAULT_255_1_388
10
4.5328769
20
69.0459213
40
0.4330361
50
166.1100968
51
178.6653563
0
ARC
8
DEFAULT_255_1_388
10
4.6510695
20
69.0393061
40
0.5513642
50
178.2641888
51
180.010994
0
ARC
8
DEFAULT_255_1_388
10
4.5605196
20
69.0361136
40
0.4608248
50
179.6162225
51
191.8786013
0
ARC
8
DEFAULT_255_1_388
10
4.4232506
20
69.005759
40
0.3202502
50
191.6192934
51
215.2970746
0
ARC
8
DEFAULT_255_1_388
10
4.3993161
20
68.9914963
40
0.2924827
50
215.7258926
51
216.5355437
0
ARC
8
DEFAULT_255_1_388
10
4.3404782
20
68.9441919
40
0.2170661
50
215.7486606
51
239.9728403
0
ARC
8
DEFAULT_255_1_388
10
4.3325947
20
68.9384838
40
0.208217
50
241.065081
51
269.280972
0
ARC
8
DEFAULT_255_1_388
10
4.3373106
20
68.9940327
40
0.2638514
50
268.4083352
51
270.0069622
0
LINE
8
DEFAULT_255_1_388
10
4.790732
20
76.5068468
11
4.9651199
21
76.5068468
0
LINE
8
DEFAULT_255_1_388
10
3.9522242
20
76.6857525
11
3.9522242
21
76.8122516
0
LINE
8
DEFAULT_255_1_388
10
4.9651199
20
76.9821217
11
4.790732
21
76.9821217
0
LINE
8
DEFAULT_255_1_388
10
4.1266121
20
76.8077337
11
4.1266121
21
76.6803312
0
ARC
8
DEFAULT_255_1_388
10
4.3485433
20
76.5740329
40
0.6202263
50
340.1774904
51
353.7812217
0
ARC
8
DEFAULT_255_1_388
10
4.5253286
20
76.5081893
40
0.4315926
50
311.4560052
51
340.4420756
0
ARC
8
DEFAULT_255_1_388
10
4.5215826
20
76.5206665
40
0.4434573
50
282.4332229
51
310.7514507
0
ARC
8
DEFAULT_255_1_388
10
4.4721644
20
76.7248703
40
0.6535262
50
269.9358869
51
282.8096729
0
ARC
8
DEFAULT_255_1_388
10
4.4663583
20
76.8761329
40
0.8048043
50
269.9995752
51
270.3612856
0
ARC
8
DEFAULT_255_1_388
10
4.4604073
20
76.5962781
40
0.5249831
50
250.7885263
51
270.6488451
0
ARC
8
DEFAULT_255_1_388
10
4.4414898
20
76.5245853
40
0.4510942
50
219.3628377
51
250.0611024
0
ARC
8
DEFAULT_255_1_388
10
4.5347772
20
76.6038653
40
0.5735046
50
193.5480293
51
219.5755675
0
ARC
8
DEFAULT_255_1_388
10
4.8015981
20
76.673152
40
0.849146
50
181.1220183
51
193.8754971
0
ARC
8
DEFAULT_255_1_388
10
5.0339214
20
76.6855914
40
1.0816971
50
179.9914644
51
181.5398227
0
ARC
8
DEFAULT_255_1_388
10
4.8262525
20
76.8164586
40
0.8740384
50
169.5837606
51
180.275782
0
ARC
8
DEFAULT_255_1_388
10
4.6195873
20
76.8546439
40
0.6638751
50
155.0367033
51
169.6002779
0
ARC
8
DEFAULT_255_1_388
10
4.4918331
20
76.9162336
40
0.5220662
50
136.7831557
51
155.2472983
0
ARC
8
DEFAULT_255_1_388
10
4.4480122
20
76.9534577
40
0.4646502
50
121.7633063
51
136.4281161
0
ARC
8
DEFAULT_255_1_388
10
4.4631962
20
76.9254049
40
0.4964979
50
95.6460018
51
121.5489589
0
ARC
8
DEFAULT_255_1_388
10
4.4808936
20
76.8006704
40
0.6223912
50
89.9245727
51
96.1375919
0
ARC
8
DEFAULT_255_1_388
10
4.4865641
20
76.8140721
40
0.6090084
50
76.6779212
51
90.456405
0
ARC
8
DEFAULT_255_1_388
10
4.5308454
20
76.993006
40
0.42469
50
47.4858803
51
76.9287069
0
ARC
8
DEFAULT_255_1_388
10
4.5143068
20
76.9817623
40
0.4441778
50
16.5424081
51
46.8934505
0
ARC
8
DEFAULT_255_1_388
10
4.3334118
20
76.9223265
40
0.6345318
50
5.4072971
51
17.0363711
0
ARC
8
DEFAULT_255_1_388
10
4.1715843
20
76.8963304
40
0.6250632
50
7.8888693
51
15.9242022
0
ARC
8
DEFAULT_255_1_388
10
4.3950828
20
76.9612309
40
0.3923364
50
15.7650676
51
27.9410069
0
ARC
8
DEFAULT_255_1_388
10
4.5192997
20
77.0277317
40
0.2514401
50
27.8167196
51
46.4007942
0
ARC
8
DEFAULT_255_1_388
10
4.5248839
20
77.0270882
40
0.2480958
50
47.4372362
51
75.0695672
0
ARC
8
DEFAULT_255_1_388
10
4.4901675
20
76.9062277
40
0.3738281
50
74.7009379
51
87.8124314
0
ARC
8
DEFAULT_255_1_388
10
4.4819292
20
76.7878659
40
0.4924321
50
87.3802571
51
90.0251599
0
ARC
8
DEFAULT_255_1_388
10
4.4775939
20
76.9198997
40
0.3604218
50
89.3451886
51
108.5744412
0
ARC
8
DEFAULT_255_1_388
10
4.4621931
20
76.9776836
40
0.3007661
50
109.2998307
51
143.3037387
0
ARC
8
DEFAULT_255_1_388
10
4.5479221
20
76.9117584
40
0.4089031
50
143.075267
51
163.1918576
0
ARC
8
DEFAULT_255_1_388
10
4.7675055
20
76.8424652
40
0.6391492
50
162.9375929
51
174.6208776
0
ARC
8
DEFAULT_255_1_388
10
5.0629437
20
76.8100711
40
0.9363344
50
174.342123
51
180.1430283
0
ARC
8
DEFAULT_255_1_388
10
4.9581978
20
76.6757117
40
0.8315986
50
179.6817261
51
189.150555
0
ARC
8
DEFAULT_255_1_388
10
4.6768727
20
76.6288559
40
0.5464044
50
188.9911061
51
203.5772363
0
ARC
8
DEFAULT_255_1_388
10
4.5554019
20
76.5784539
40
0.4149206
50
203.9075402
51
215.1312435
0
ARC
8
DEFAULT_255_1_388
10
4.4515817
20
76.4979907
40
0.2837747
50
213.9071511
51
263.8848919
0
ARC
8
DEFAULT_255_1_388
10
4.465681
20
76.5862519
40
0.3730641
50
263.1757928
51
270.1031044
0
ARC
8
DEFAULT_255_1_388
10
4.469289
20
76.7265511
40
0.5133712
50
269.6722503
51
279.0606936
0
ARC
8
DEFAULT_255_1_388
10
4.4993045
20
76.545115
40
0.3294739
50
278.8749101
51
293.6349581
0
ARC
8
DEFAULT_255_1_388
10
4.5353249
20
76.4605251
40
0.2375405
50
293.8553806
51
310.0518171
0
ARC
8
DEFAULT_255_1_388
10
4.5358758
20
76.4535021
40
0.2318463
50
311.0644687
51
332.0111037
0
ARC
8
DEFAULT_255_1_388
10
4.4017431
20
76.5274702
40
0.3850112
50
331.6586806
51
343.2877423
0
ARC
8
DEFAULT_255_1_388
10
4.1696896
20
76.5987806
40
0.6277712
50
343.1446576
51
351.0103568
0
ARC
8
DEFAULT_255_1_388
10
4.006422
20
76.6287873
40
0.7937327
50
350.71248
51
351.1626997
0
LINE
8
DEFAULT_255_1_388
10
5.4015416
20
76.6920775
11
5.4015416
21
76.8285157
0
LINE
8
DEFAULT_255_1_388
10
5.4015416
20
76.8285157
11
5.527137
21
76.8285157
0
LINE
8
DEFAULT_255_1_388
10
5.3129922
20
77.0598282
11
5.1458328
21
77.0598282
0
LINE
8
DEFAULT_255_1_388
10
5.1340865
20
76.4363688
11
5.3021495
21
76.4363688
0
LINE
8
DEFAULT_255_1_388
10
5.527137
20
76.6920775
11
5.4015416
21
76.6920775
0
ARC
8
DEFAULT_255_1_388
10
5.5238597
20
77.2101922
40
0.3816905
50
270.491971
51
281.8953028
0
ARC
8
DEFAULT_255_1_388
10
5.5510024
20
77.0862199
40
0.2547877
50
281.6690378
51
301.2943765
0
ARC
8
DEFAULT_255_1_388
10
5.5701475
20
77.0511926
40
0.2149197
50
301.7834992
51
311.754567
0
ARC
8
DEFAULT_255_1_388
10
5.5804516
20
77.039765
40
0.1995326
50
311.7325027
51
354.2803031
0
ARC
8
DEFAULT_255_1_388
10
5.4986932
20
77.053828
40
0.2823461
50
353.0941646
51
0.1174696
0
ARC
8
DEFAULT_255_1_388
10
5.446849
20
77.0591874
40
0.3342238
50
359.1804452
51
15.0452323
0
ARC
8
DEFAULT_255_1_388
10
5.5982548
20
77.1033546
40
0.1765747
50
13.957816
51
77.6713812
0
ARC
8
DEFAULT_255_1_388
10
5.5547784
20
76.9475464
40
0.3381982
50
76.111571
51
90.7028736
0
ARC
8
DEFAULT_255_1_388
10
5.5481196
20
76.978325
40
0.3074046
50
89.5321574
51
103.5319393
0
ARC
8
DEFAULT_255_1_388
10
5.525558
20
77.0682443
40
0.2147041
50
103.2930114
51
133.5619756
0
ARC
8
DEFAULT_255_1_388
10
5.5205522
20
77.0749351
40
0.2064084
50
133.8349761
51
173.5343225
0
ARC
8
DEFAULT_255_1_388
10
5.6019179
20
77.0605144
40
0.2889266
50
172.5097183
51
180.1360699
0
ARC
8
DEFAULT_255_1_388
10
5.4948943
20
77.064388
40
0.3490913
50
155.3483706
51
180.7484035
0
ARC
8
DEFAULT_255_1_388
10
5.4893919
20
77.0611519
40
0.3454798
50
131.5745177
51
154.4799474
0
ARC
8
DEFAULT_255_1_388
10
5.5246201
20
77.0255422
40
0.3955058
50
96.9874487
51
131.9690874
0
ARC
8
DEFAULT_255_1_388
10
5.5493094
20
76.8854407
40
0.537622
50
89.8592909
51
97.7827481
0
ARC
8
DEFAULT_255_1_388
10
5.5547203
20
76.855936
40
0.5671399
50
78.3654493
51
90.4132586
0
ARC
8
DEFAULT_255_1_388
10
5.5949844
20
77.0425918
40
0.3762034
50
56.6229818
51
78.6387103
0
ARC
8
DEFAULT_255_1_388
10
5.6191673
20
77.0848846
40
0.3275964
50
47.0254604
51
56.085558
0
ARC
8
DEFAULT_255_1_388
10
5.6213924
20
77.0893189
40
0.3228382
50
10.9207523
51
46.777927
0
ARC
8
DEFAULT_255_1_388
10
5.4679518
20
77.0538401
40
0.4802559
50
359.6364235
51
11.6087615
0
ARC
8
DEFAULT_255_1_388
10
5.6743684
20
77.0521404
40
0.273833
50
332.3549969
51
359.7179765
0
ARC
8
DEFAULT_255_1_388
10
5.6012084
20
77.0868285
40
0.3547505
50
325.2332381
51
332.8746682
0
ARC
8
DEFAULT_255_1_388
10
5.6183667
20
77.0748763
40
0.3338396
50
292.9803892
51
325.2391113
0
ARC
8
DEFAULT_255_1_388
10
5.5872863
20
77.1353679
40
0.4016959
50
292.542178
51
293.6931461
0
ARC
8
DEFAULT_255_1_388
10
5.6316435
20
76.4088036
40
0.372079
50
57.643292
51
72.8626085
0
ARC
8
DEFAULT_255_1_388
10
5.671527
20
76.4734273
40
0.2961455
50
36.7246661
51
57.4701329
0
ARC
8
DEFAULT_255_1_388
10
5.6702426
20
76.474847
40
0.2963321
50
8.054535
51
36.3561529
0
ARC
8
DEFAULT_255_1_388
10
5.5732099
20
76.4574073
40
0.3948682
50
359.8316595
51
8.5873361
0
ARC
8
DEFAULT_255_1_388
10
5.5309573
20
76.451997
40
0.4371398
50
343.9831631
51
0.557075
0
ARC
8
DEFAULT_255_1_388
10
5.6306623
20
76.4246963
40
0.3337749
50
311.6358204
51
343.7652116
0
ARC
8
DEFAULT_255_1_388
10
5.5880876
20
76.4726955
40
0.3979351
50
279.7829743
51
311.625622
0
ARC
8
DEFAULT_255_1_388
10
5.5542012
20
76.6343642
40
0.5630417
50
269.7285092
51
280.3857694
0
ARC
8
DEFAULT_255_1_388
10
5.5472325
20
76.6297241
40
0.5584119
50
256.6827433
51
270.4412869
0
ARC
8
DEFAULT_255_1_388
10
5.5091311
20
76.4739698
40
0.3980715
50
229.4223821
51
256.8554507
0
ARC
8
DEFAULT_255_1_388
10
5.4624864
20
76.4214683
40
0.3278564
50
181.8183354
51
229.6455015
0
ARC
8
DEFAULT_255_1_388
10
5.5794474
20
76.4361825
40
0.4453611
50
179.9760419
51
183.2330638
0
ARC
8
DEFAULT_255_1_388
10
5.5601026
20
76.4338781
40
0.2579652
50
179.4467996
51
196.2871626
0
ARC
8
DEFAULT_255_1_388
10
5.505248
20
76.4188709
40
0.2011057
50
196.5661293
51
227.7059371
0
ARC
8
DEFAULT_255_1_388
10
5.5237087
20
76.4395155
40
0.2287994
50
227.7653015
51
257.8763321
0
ARC
8
DEFAULT_255_1_388
10
5.549017
20
76.5455961
40
0.3378385
50
257.4583525
51
270.4267406
0
ARC
8
DEFAULT_255_1_388
10
5.554142
20
76.578223
40
0.3704652
50
269.5965319
51
280.8788143
0
ARC
8
DEFAULT_255_1_388
10
5.5799648
20
76.4492529
40
0.2389415
50
280.6347277
51
299.8594068
0
ARC
8
DEFAULT_255_1_388
10
5.6014418
20
76.4084736
40
0.19289
50
300.3575552
51
314.5515667
0
ARC
8
DEFAULT_255_1_388
10
5.5921093
20
76.4153025
40
0.204312
50
315.0730962
51
345.0429362
0
ARC
8
DEFAULT_255_1_388
10
5.4882601
20
76.4455539
40
0.31246
50
344.598526
51
357.9270698
0
ARC
8
DEFAULT_255_1_388
10
5.3872906
20
76.4524705
40
0.4136265
50
357.4755098
51
0.0224936
0
ARC
8
DEFAULT_255_1_388
10
5.5025783
20
76.4552099
40
0.2983498
50
359.5051035
51
13.4236939
0
ARC
8
DEFAULT_255_1_388
10
5.6000873
20
76.4801637
40
0.1977186
50
12.9497905
51
48.7550905
0
ARC
8
DEFAULT_255_1_388
10
5.5795795
20
76.4521373
40
0.2323321
50
49.509109
51
72.1832965
0
ARC
8
DEFAULT_255_1_388
10
5.5393263
20
76.3326632
40
0.358397
50
71.9008458
51
84.3555134
0
ARC
8
DEFAULT_255_1_388
10
5.5211658
20
76.1794712
40
0.512641
50
84.019632
51
89.3326067
0
ARC
8
DEFAULT_255_1_388
10
4.4345818
20
84.996272
40
0.3175098
50
338.8762533
51
0.5167111
0
ARC
8
DEFAULT_255_1_388
10
4.4535412
20
84.99116
40
0.2979894
50
325.8415285
51
338.4793574
0
ARC
8
DEFAULT_255_1_388
10
4.4096046
20
85.0216242
40
0.351452
50
296.7587686
51
325.7536481
0
ARC
8
DEFAULT_255_1_388
10
4.3767673
20
85.0770363
40
0.4157374
50
296.0927901
51
297.3613472
0
ARC
8
DEFAULT_255_1_388
10
4.4061869
20
84.3387593
40
0.395855
50
47.9007294
51
67.1948823
0
ARC
8
DEFAULT_255_1_388
10
4.4282511
20
84.3664599
40
0.360516
50
35.2363914
51
47.551141
0
ARC
8
DEFAULT_255_1_388
10
4.4576915
20
84.3861093
40
0.3251343
50
359.2759765
51
35.4014143
0
ARC
8
DEFAULT_255_1_388
10
4.3738841
20
84.3778787
40
0.4089365
50
343.1293083
51
0.5775513
0
ARC
8
DEFAULT_255_1_388
10
4.4553955
20
84.3554336
40
0.3244269
50
310.8496669
51
342.7449331
0
ARC
8
DEFAULT_255_1_388
10
4.4083829
20
84.4090913
40
0.3957651
50
281.5472888
51
310.9170406
0
ARC
8
DEFAULT_255_1_388
10
4.3682704
20
84.5837814
40
0.5749654
50
269.619248
51
281.9789564
0
ARC
8
DEFAULT_255_1_388
10
4.3601482
20
84.5838776
40
0.5750649
50
257.4585678
51
270.4285689
0
ARC
8
DEFAULT_255_1_388
10
4.3173002
20
84.4034741
40
0.389671
50
228.7554326
51
257.8484789
0
ARC
8
DEFAULT_255_1_388
10
4.2824487
20
84.3615228
40
0.335154
50
184.0104975
51
228.5071184
0
ARC
8
DEFAULT_255_1_388
10
4.413288
20
84.381443
40
0.4671891
50
179.9315832
51
185.3253753
0
ARC
8
DEFAULT_255_1_388
10
4.2809392
20
84.3856592
40
0.33486
50
145.6796023
51
180.6259786
0
ARC
8
DEFAULT_255_1_388
10
4.2993158
20
84.3728271
40
0.3572723
50
115.5537685
51
145.6415986
0
ARC
8
DEFAULT_255_1_388
10
4.3376202
20
84.3042087
40
0.4357296
50
113.243307
51
116.2057839
0
ARC
8
DEFAULT_255_1_388
10
4.3204854
20
85.0239379
40
0.3549126
50
222.9549744
51
244.1370481
0
ARC
8
DEFAULT_255_1_388
10
4.3067497
20
85.0085378
40
0.3343711
50
213.3436887
51
222.6274467
0
ARC
8
DEFAULT_255_1_388
10
4.2851566
20
84.9938653
40
0.3082678
50
180.431584
51
213.271499
0
ARC
8
DEFAULT_255_1_388
10
4.3486565
20
84.9991296
40
0.3718363
50
179.9991191
51
181.1690594
0
ARC
8
DEFAULT_255_1_388
10
4.3959021
20
85.0030072
40
0.4190996
50
164.6186169
51
180.529336
0
ARC
8
DEFAULT_255_1_388
10
4.294867
20
85.030178
40
0.3144772
50
132.2455553
51
164.5090724
0
ARC
8
DEFAULT_255_1_388
10
4.3271649
20
84.993607
40
0.3632644
50
100.7053914
51
132.1386381
0
ARC
8
DEFAULT_255_1_388
10
4.361471
20
84.8386118
40
0.5219578
50
89.6730358
51
101.2451698
0
ARC
8
DEFAULT_255_1_388
10
4.3684701
20
84.8582648
40
0.5023124
50
76.287748
51
90.4586006
0
ARC
8
DEFAULT_255_1_388
10
4.4029203
20
84.9957671
40
0.3605639
50
47.8240511
51
76.4266241
0
ARC
8
DEFAULT_255_1_388
10
4.4279587
20
85.0250599
40
0.3220463
50
6.9168387
51
47.6262497
0
ARC
8
DEFAULT_255_1_388
10
4.294504
20
85.0004004
40
0.4575765
50
359.8415968
51
7.9697453
0
ARC
8
DEFAULT_255_1_388
10
4.332931
20
84.3883519
40
0.2827228
50
359.445363
51
16.9256873
0
ARC
8
DEFAULT_255_1_388
10
4.3856744
20
84.4028781
40
0.2280396
50
17.2920767
51
45.4630727
0
ARC
8
DEFAULT_255_1_388
10
4.3795879
20
84.3976324
40
0.2360485
50
45.30305
51
83.1920945
0
ARC
8
DEFAULT_255_1_388
10
4.3634624
20
84.3074473
40
0.3275527
50
82.2612665
51
90.1434275
0
ARC
8
DEFAULT_255_1_388
10
4.35999
20
84.3336869
40
0.3013237
50
89.4956434
51
104.8580688
0
ARC
8
DEFAULT_255_1_388
10
4.340109
20
84.4090455
40
0.2233867
50
104.8856641
51
135.244616
0
ARC
8
DEFAULT_255_1_388
10
4.3457079
20
84.4040352
40
0.2308906
50
135.3399546
51
172.1044062
0
ARC
8
DEFAULT_255_1_388
10
4.4364603
20
84.3866667
40
0.3232034
50
171.2645637
51
180.186429
0
ARC
8
DEFAULT_255_1_388
10
4.4174608
20
84.3830426
40
0.304213
50
179.5154935
51
193.6464289
0
ARC
8
DEFAULT_255_1_388
10
4.3256284
20
84.3596473
40
0.209456
50
193.3540274
51
225.8258581
0
ARC
8
DEFAULT_255_1_388
10
4.3302156
20
84.3676076
40
0.2183738
50
226.4180634
51
255.8552336
0
ARC
8
DEFAULT_255_1_388
10
4.3590623
20
84.4729521
40
0.3275812
50
255.4654104
51
268.7987425
0
ARC
8
DEFAULT_255_1_388
10
4.3643799
20
84.5671545
40
0.4218877
50
268.3449238
51
270.0094605
0
ARC
8
DEFAULT_255_1_388
10
4.3670032
20
84.4903094
40
0.3450519
50
269.5759586
51
282.0820163
0
ARC
8
DEFAULT_255_1_388
10
4.3923069
20
84.3784363
40
0.2303642
50
281.752014
51
306.6056188
0
ARC
8
DEFAULT_255_1_388
10
4.4033877
20
84.3602802
40
0.2091906
50
307.1346085
51
314.027845
0
ARC
8
DEFAULT_255_1_388
10
4.3993389
20
84.3632459
40
0.2141385
50
314.2552483
51
350.1694025
0
ARC
8
DEFAULT_255_1_388
10
4.3035626
20
84.3840175
40
0.312082
50
349.4140529
51
0.2933014
0
ARC
8
DEFAULT_255_1_388
10
4.3620903
20
84.9643924
40
0.2588377
50
89.477747
51
105.729729
0
ARC
8
DEFAULT_255_1_388
10
4.3467823
20
85.0212367
40
0.1999733
50
105.9233417
51
135.1660906
0
ARC
8
DEFAULT_255_1_388
10
4.3490854
20
85.0196412
40
0.2027322
50
135.3052302
51
168.9883645
0
ARC
8
DEFAULT_255_1_388
10
4.442187
20
84.9982996
40
0.2982129
50
168.3801673
51
180.3602268
0
ARC
8
DEFAULT_255_1_388
10
4.4164987
20
84.9940622
40
0.2725291
50
179.5033122
51
194.9125571
0
ARC
8
DEFAULT_255_1_388
10
4.3506394
20
84.9767427
40
0.204431
50
194.9720816
51
224.194444
0
ARC
8
DEFAULT_255_1_388
10
4.3474759
20
84.9741635
40
0.2003651
50
224.2962453
51
262.015664
0
ARC
8
DEFAULT_255_1_388
10
4.3634763
20
85.0564315
40
0.2840925
50
261.1245923
51
270.1962896
0
ARC
8
DEFAULT_255_1_388
10
4.3668244
20
85.0353859
40
0.2630559
50
269.4827276
51
285.0987215
0
ARC
8
DEFAULT_255_1_388
10
4.384168
20
84.9703175
40
0.1957162
50
285.1585357
51
315.9484501
0
ARC
8
DEFAULT_255_1_388
10
4.3741554
20
84.9795315
40
0.2093195
50
316.0413965
51
351.916092
0
ARC
8
DEFAULT_255_1_388
10
4.2916928
20
84.9954323
40
0.2932279
50
351.105835
51
0.1939062
0
ARC
8
DEFAULT_255_1_388
10
4.3212562
20
84.9988224
40
0.2636739
50
359.4789618
51
16.0678224
0
ARC
8
DEFAULT_255_1_388
10
4.3748034
20
85.0132721
40
0.2082215
50
16.3252067
51
44.7913869
0
ARC
8
DEFAULT_255_1_388
10
4.3728096
20
85.013332
40
0.2095992
50
44.3957814
51
88.2499162
0
ARC
8
DEFAULT_255_1_388
10
4.3645431
20
84.9445006
40
0.2787189
50
86.9833854
51
90.0192215
0
LINE
8
DEFAULT_255_1_388
10
4.8035819
20
93.2799898
11
4.8035819
21
93.1860191
0
LINE
8
DEFAULT_255_1_388
10
4.8035819
20
93.1860191
11
4.2587325
21
91.9644
0
LINE
8
DEFAULT_255_1_388
10
4.2587325
20
91.9644
11
4.083441
21
91.9644
0
LINE
8
DEFAULT_255_1_388
10
4.083441
20
91.9644
11
4.6264833
21
93.142648
0
LINE
8
DEFAULT_255_1_388
10
4.6264833
20
93.142648
11
3.9144745
21
93.142648
0
LINE
8
DEFAULT_255_1_388
10
3.9144745
20
93.142648
11
3.9144745
21
93.2799898
0
LINE
8
DEFAULT_255_1_388
10
3.9144745
20
93.2799898
11
4.8035819
21
93.2799898
0
LINE
8
DEFAULT_255_1_388
10
4.5804015
20
101.2183934
11
4.6102191
21
101.2183934
0
LINE
8
DEFAULT_255_1_388
10
4.6102191
20
101.2183934
11
4.6102191
21
101.0765338
0
LINE
8
DEFAULT_255_1_388
10
4.6102191
20
101.0765338
11
4.5794979
21
101.0765338
0
LINE
8
DEFAULT_255_1_388
10
3.9641705
20
100.4024747
11
3.9641705
21
100.4666278
0
LINE
8
DEFAULT_255_1_388
10
4.1322335
20
100.4449422
11
4.1322335
21
100.3834999
0
ARC
8
DEFAULT_255_1_388
10
4.5853871
20
100.5142826
40
0.562282
50
90.6001079
51
104.5146616
0
ARC
8
DEFAULT_255_1_388
10
4.541683
20
100.67681
40
0.3939917
50
104.2855758
51
133.8630124
0
ARC
8
DEFAULT_255_1_388
10
4.5601083
20
100.6646243
40
0.4155734
50
134.5304124
51
161.6210222
0
ARC
8
DEFAULT_255_1_388
10
4.7461015
20
100.5990421
40
0.6127682
50
161.2850533
51
174.2074364
0
ARC
8
DEFAULT_255_1_388
10
4.9050582
20
100.5771437
40
0.7731446
50
173.7817938
51
174.9251711
0
ARC
8
DEFAULT_255_1_388
10
4.3924775
20
100.421627
40
0.3412588
50
95.8332067
51
138.995412
0
ARC
8
DEFAULT_255_1_388
10
4.4176056
20
100.2777695
40
0.4870358
50
89.8755506
51
97.0540979
0
ARC
8
DEFAULT_255_1_388
10
4.4229445
20
100.3717841
40
0.3930432
50
71.6407016
51
90.6240821
0
ARC
8
DEFAULT_255_1_388
10
4.4398838
20
100.4341433
40
0.3285421
50
39.6368051
51
71.0190743
0
ARC
8
DEFAULT_255_1_388
10
4.3682746
20
100.3722586
40
0.4231706
50
10.6588054
51
39.9044509
0
ARC
8
DEFAULT_255_1_388
10
4.1941291
20
100.3344223
40
0.60133
50
359.6827842
51
11.1326896
0
ARC
8
DEFAULT_255_1_388
10
4.1896627
20
100.3264715
40
0.6058047
50
347.2485908
51
0.4371098
0
ARC
8
DEFAULT_255_1_388
10
4.3772413
20
100.2813379
40
0.4128987
50
318.1408565
51
347.6118497
0
ARC
8
DEFAULT_255_1_388
10
4.4138009
20
100.2512903
40
0.3656244
50
275.6342406
51
317.824739
0
ARC
8
DEFAULT_255_1_388
10
4.388953
20
100.3974827
40
0.513655
50
269.8872513
51
276.7916069
0
ARC
8
DEFAULT_255_1_388
10
4.3827723
20
100.2821181
40
0.398323
50
246.9139443
51
270.7436787
0
ARC
8
DEFAULT_255_1_388
10
4.3834919
20
100.2661044
40
0.3839368
50
218.1665534
51
245.8780431
0
ARC
8
DEFAULT_255_1_388
10
4.4824291
20
100.3488903
40
0.5128958
50
191.4115343
51
218.6077624
0
ARC
8
DEFAULT_255_1_388
10
4.7004607
20
100.3977777
40
0.7363054
50
179.6344971
51
191.7836758
0
ARC
8
DEFAULT_255_1_388
10
5.3284482
20
100.4741495
40
1.3642984
50
171.4523743
51
180.3158856
0
ARC
8
DEFAULT_255_1_388
10
4.8340209
20
100.5510895
40
0.8639311
50
157.9802296
51
171.6246761
0
ARC
8
DEFAULT_255_1_388
10
4.5849559
20
100.6504038
40
0.5958004
50
141.4299236
51
157.8541251
0
ARC
8
DEFAULT_255_1_388
10
4.5127643
20
100.7014746
40
0.5075416
50
102.871586
51
140.8564533
0
ARC
8
DEFAULT_255_1_388
10
4.5856195
20
100.4269943
40
0.7914163
50
90.377773
51
103.5868422
0
ARC
8
DEFAULT_255_1_388
10
4.3900717
20
100.3589543
40
0.2667015
50
89.8751238
51
126.2072139
0
ARC
8
DEFAULT_255_1_388
10
4.3952188
20
100.3415847
40
0.2838229
50
124.9742447
51
144.8960197
0
ARC
8
DEFAULT_255_1_388
10
4.3754433
20
100.3576981
40
0.2583845
50
145.2974778
51
160.2660922
0
ARC
8
DEFAULT_255_1_388
10
4.7210921
20
100.3799151
40
0.5888695
50
179.6512124
51
190.285571
0
ARC
8
DEFAULT_255_1_388
10
4.5305401
20
100.3439968
40
0.3949683
50
190.0944895
51
207.5099647
0
ARC
8
DEFAULT_255_1_388
10
4.4668982
20
100.3137177
40
0.3245464
50
207.9585471
51
216.325377
0
ARC
8
DEFAULT_255_1_388
10
4.4286619
20
100.2822712
40
0.2751259
50
215.7661336
51
232.5457193
0
ARC
8
DEFAULT_255_1_388
10
4.3855735
20
100.2275273
40
0.2054668
50
232.8005815
51
270.6605497
0
ARC
8
DEFAULT_255_1_388
10
4.390716
20
100.2684853
40
0.2464268
50
269.3550767
51
288.474612
0
ARC
8
DEFAULT_255_1_388
10
4.4011667
20
100.2291721
40
0.2058436
50
289.1831976
51
322.9685307
0
ARC
8
DEFAULT_255_1_388
10
4.3323768
20
100.2834279
40
0.2934408
50
322.6007085
51
346.5183319
0
ARC
8
DEFAULT_255_1_388
10
4.2021524
20
100.3166434
40
0.4278249
50
346.2584622
51
358.7739592
0
ARC
8
DEFAULT_255_1_388
10
4.08701
20
100.3228829
40
0.5430876
50
358.3757628
51
0.0082477
0
ARC
8
DEFAULT_255_1_388
10
4.1726918
20
100.3259856
40
0.4574157
50
359.6211417
51
11.28403
0
ARC
8
DEFAULT_255_1_388
10
4.3163524
20
100.3559535
40
0.3106708
50
11.0483152
51
31.8145585
0
ARC
8
DEFAULT_255_1_388
10
4.3511229
20
100.3748045
40
0.2711963
50
32.3028554
51
38.0820598
0
ARC
8
DEFAULT_255_1_388
10
4.3984462
20
100.4176717
40
0.2075566
50
36.8249851
51
85.741667
0
ARC
8
DEFAULT_255_1_388
10
4.3908875
20
100.3613065
40
0.2643487
50
85.0150021
51
90.050843
0
LINE
8
DEFAULT_255_1_388
10
4.1647618
20
108.4646666
11
4.0310343
21
108.4990021
0
LINE
8
DEFAULT_255_1_388
10
4.0310343
20
108.4990021
11
4.097898
21
109.1549898
0
LINE
8
DEFAULT_255_1_388
10
4.097898
20
109.1549898
11
4.7719571
21
109.1549898
0
LINE
8
DEFAULT_255_1_388
10
4.7719571
20
109.1549898
11
4.7719571
21
109.0004803
0
LINE
8
DEFAULT_255_1_388
10
4.7719571
20
109.0004803
11
4.2397577
21
109.0004803
0
LINE
8
DEFAULT_255_1_388
10
4.2397577
20
109.0004803
11
4.2000008
21
108.6417652
0
LINE
8
DEFAULT_255_1_388
10
3.9840489
20
108.1854652
11
4.1421727
21
108.1854652
0
LINE
8
DEFAULT_255_1_388
10
4.2090365
20
108.5008092
11
4.1647618
21
108.4646666
0
ARC
8
DEFAULT_255_1_388
10
4.4086622
20
108.2840241
40
0.4141476
50
93.7181681
51
120.253934
0
ARC
8
DEFAULT_255_1_388
10
4.4192674
20
108.1931284
40
0.5055616
50
89.9660471
51
94.2495185
0
ARC
8
DEFAULT_255_1_388
10
4.4238496
20
108.2594154
40
0.4392953
50
73.8045384
51
90.5585736
0
ARC
8
DEFAULT_255_1_388
10
4.4502754
20
108.355952
40
0.3392225
50
41.3071072
51
73.543002
0
ARC
8
DEFAULT_255_1_388
10
4.4034574
20
108.3156461
40
0.4009977
50
13.5075837
51
41.2174839
0
ARC
8
DEFAULT_255_1_388
10
4.2187671
20
108.2672907
40
0.5918864
50
1.1330171
51
13.8830737
0
ARC
8
DEFAULT_255_1_388
10
4.0591317
20
108.2587522
40
0.7516787
50
359.9925091
51
1.5431298
0
ARC
8
DEFAULT_255_1_388
10
4.2035932
20
108.2541027
40
0.6072343
50
347.8572712
51
0.4294349
0
ARC
8
DEFAULT_255_1_388
10
4.4005066
20
108.2094898
40
0.4053482
50
323.6727442
51
348.1674594
0
ARC
8
DEFAULT_255_1_388
10
4.4336031
20
108.1893175
40
0.3667495
50
316.8171818
51
323.1486802
0
ARC
8
DEFAULT_255_1_388
10
4.4405155
20
108.1851612
40
0.358869
50
281.839603
51
316.5458142
0
ARC
8
DEFAULT_255_1_388
10
4.3982442
20
108.3601363
40
0.5388223
50
269.5770964
51
282.4214641
0
ARC
8
DEFAULT_255_1_388
10
4.3902363
20
108.336093
40
0.5147801
50
256.2425863
51
270.4486481
0
ARC
8
DEFAULT_255_1_388
10
4.3565891
20
108.2011124
40
0.3756708
50
228.9024379
51
256.33135
0
ARC
8
DEFAULT_255_1_388
10
4.3482871
20
108.1880054
40
0.360344
50
193.7536029
51
228.5272638
0
ARC
8
DEFAULT_255_1_388
10
4.4875436
20
108.2288463
40
0.5053599
50
184.9244437
51
194.4976052
0
ARC
8
DEFAULT_255_1_388
10
4.5092077
20
108.2328722
40
0.3700839
50
187.3596909
51
198.6733728
0
ARC
8
DEFAULT_255_1_388
10
4.3911321
20
108.1919373
40
0.2451195
50
198.4453795
51
217.7945479
0
ARC
8
DEFAULT_255_1_388
10
4.3578493
20
108.1683563
40
0.2043754
50
218.2887146
51
228.5613203
0
ARC
8
DEFAULT_255_1_388
10
4.36885
20
108.1831902
40
0.2227819
50
228.9652423
51
258.1237049
0
ARC
8
DEFAULT_255_1_388
10
4.3919937
20
108.2822964
40
0.3245374
50
257.7260585
51
270.4013717
0
ARC
8
DEFAULT_255_1_388
10
4.3970435
20
108.2322255
40
0.2744726
50
269.4204315
51
286.420998
0
ARC
8
DEFAULT_255_1_388
10
4.4137491
20
108.1715705
40
0.2115721
50
286.7250065
51
320.6004665
0
ARC
8
DEFAULT_255_1_388
10
4.3706407
20
108.2065527
40
0.2670878
50
320.6712228
51
344.5440474
0
ARC
8
DEFAULT_255_1_388
10
4.240512
20
108.2447394
40
0.4026927
50
344.241448
51
356.735803
0
ARC
8
DEFAULT_255_1_388
10
4.1001428
20
108.2563656
40
0.5435085
50
356.3547471
51
0.0507222
0
ARC
8
DEFAULT_255_1_388
10
4.2503693
20
108.2598812
40
0.3932934
50
359.5579289
51
12.9534322
0
ARC
8
DEFAULT_255_1_388
10
4.3690533
20
108.2886586
40
0.2711827
50
12.6489751
51
41.608121
0
ARC
8
DEFAULT_255_1_388
10
4.3949693
20
108.3106946
40
0.2371737
50
41.7851122
51
85.9892156
0
ARC
8
DEFAULT_255_1_388
10
4.3811003
20
108.2191738
40
0.3295244
50
84.6965848
51
90.0672125
0
ARC
8
DEFAULT_255_1_388
10
4.378457
20
108.1440118
40
0.4046926
50
89.6804991
51
99.161352
0
ARC
8
DEFAULT_255_1_388
10
4.3553579
20
108.2820848
40
0.2647044
50
98.9836248
51
113.8905702
0
ARC
8
DEFAULT_255_1_388
10
4.3295254
20
108.3430118
40
0.1985386
50
114.195234
51
127.3641866
0
LINE
8
DEFAULT_255_1_388
10
4.790732
20
116.1943468
11
4.9651199
21
116.1943468
0
LINE
8
DEFAULT_255_1_388
10
3.9522242
20
116.3732525
11
3.9522242
21
116.4997516
0
LINE
8
DEFAULT_255_1_388
10
4.9651199
20
116.6696217
11
4.790732
21
116.6696217
0
LINE
8
DEFAULT_255_1_388
10
4.1266121
20
116.4952337
11
4.1266121
21
116.3678312
0
ARC
8
DEFAULT_255_1_388
10
4.3485433
20
116.2615329
40
0.6202263
50
340.1774904
51
353.7812217
0
ARC
8
DEFAULT_255_1_388
10
4.5253286
20
116.1956893
40
0.4315926
50
311.4560052
51
340.4420756
0
ARC
8
DEFAULT_255_1_388
10
4.5215826
20
116.2081665
40
0.4434573
50
282.4332229
51
310.7514507
0
ARC
8
DEFAULT_255_1_388
10
4.4721644
20
116.4123703
40
0.6535262
50
269.9358869
51
282.8096729
0
ARC
8
DEFAULT_255_1_388
10
4.4663583
20
116.5636329
40
0.8048043
50
269.9995752
51
270.3612856
0
ARC
8
DEFAULT_255_1_388
10
4.4604073
20
116.2837781
40
0.5249831
50
250.7885263
51
270.6488451
0
ARC
8
DEFAULT_255_1_388
10
4.4414898
20
116.2120853
40
0.4510942
50
219.3628377
51
250.0611024
0
ARC
8
DEFAULT_255_1_388
10
4.5347772
20
116.2913653
40
0.5735046
50
193.5480293
51
219.5755675
0
ARC
8
DEFAULT_255_1_388
10
4.8015981
20
116.360652
40
0.849146
50
181.1220183
51
193.8754971
0
ARC
8
DEFAULT_255_1_388
10
5.0339214
20
116.3730914
40
1.0816971
50
179.9914644
51
181.5398227
0
ARC
8
DEFAULT_255_1_388
10
4.8262525
20
116.5039586
40
0.8740384
50
169.5837606
51
180.275782
0
ARC
8
DEFAULT_255_1_388
10
4.6195873
20
116.5421439
40
0.6638751
50
155.0367033
51
169.6002779
0
ARC
8
DEFAULT_255_1_388
10
4.4918331
20
116.6037336
40
0.5220662
50
136.7831557
51
155.2472983
0
ARC
8
DEFAULT_255_1_388
10
4.4480122
20
116.6409577
40
0.4646502
50
121.7633063
51
136.4281161
0
ARC
8
DEFAULT_255_1_388
10
4.4631962
20
116.6129049
40
0.4964979
50
95.6460018
51
121.5489589
0
ARC
8
DEFAULT_255_1_388
10
4.4808936
20
116.4881704
40
0.6223912
50
89.9245727
51
96.1375919
0
ARC
8
DEFAULT_255_1_388
10
4.4865641
20
116.5015721
40
0.6090084
50
76.6779212
51
90.456405
0
ARC
8
DEFAULT_255_1_388
10
4.5308454
20
116.680506
40
0.42469
50
47.4858803
51
76.9287069
0
ARC
8
DEFAULT_255_1_388
10
4.5143068
20
116.6692623
40
0.4441778
50
16.5424081
51
46.8934505
0
ARC
8
DEFAULT_255_1_388
10
4.3334118
20
116.6098265
40
0.6345318
50
5.4072971
51
17.0363711
0
ARC
8
DEFAULT_255_1_388
10
4.1715843
20
116.5838304
40
0.6250632
50
7.8888693
51
15.9242022
0
ARC
8
DEFAULT_255_1_388
10
4.3950828
20
116.6487309
40
0.3923364
50
15.7650676
51
27.9410069
0
ARC
8
DEFAULT_255_1_388
10
4.5192997
20
116.7152317
40
0.2514401
50
27.8167196
51
46.4007942
0
ARC
8
DEFAULT_255_1_388
10
4.5248839
20
116.7145882
40
0.2480958
50
47.4372362
51
75.0695672
0
ARC
8
DEFAULT_255_1_388
10
4.4901675
20
116.5937277
40
0.3738281
50
74.7009379
51
87.8124314
0
ARC
8
DEFAULT_255_1_388
10
4.4819292
20
116.4753659
40
0.4924321
50
87.3802571
51
90.0251599
0
ARC
8
DEFAULT_255_1_388
10
4.4775939
20
116.6073997
40
0.3604218
50
89.3451886
51
108.5744412
0
ARC
8
DEFAULT_255_1_388
10
4.4621931
20
116.6651836
40
0.3007661
50
109.2998307
51
143.3037387
0
ARC
8
DEFAULT_255_1_388
10
4.5479221
20
116.5992584
40
0.4089031
50
143.075267
51
163.1918576
0
ARC
8
DEFAULT_255_1_388
10
4.7675055
20
116.5299652
40
0.6391492
50
162.9375929
51
174.6208776
0
ARC
8
DEFAULT_255_1_388
10
5.0629437
20
116.4975711
40
0.9363344
50
174.342123
51
180.1430283
0
ARC
8
DEFAULT_255_1_388
10
4.9581978
20
116.3632117
40
0.8315986
50
179.6817261
51
189.150555
0
ARC
8
DEFAULT_255_1_388
10
4.6768727
20
116.3163559
40
0.5464044
50
188.9911061
51
203.5772363
0
ARC
8
DEFAULT_255_1_388
10
4.5554019
20
116.2659539
40
0.4149206
50
203.9075402
51
215.1312435
0
ARC
8
DEFAULT_255_1_388
10
4.4515817
20
116.1854907
40
0.2837747
50
213.9071511
51
263.8848919
0
ARC
8
DEFAULT_255_1_388
10
4.465681
20
116.2737519
40
0.3730641
50
263.1757928
51
270.1031044
0
ARC
8
DEFAULT_255_1_388
10
4.469289
20
116.4140511
40
0.5133712
50
269.6722503
51
279.0606936
0
ARC
8
DEFAULT_255_1_388
10
4.4993045
20
116.232615
40
0.3294739
50
278.8749101
51
293.6349581
0
ARC
8
DEFAULT_255_1_388
10
4.5353249
20
116.1480251
40
0.2375405
50
293.8553806
51
310.0518171
0
ARC
8
DEFAULT_255_1_388
10
4.5358758
20
116.1410021
40
0.2318463
50
311.0644687
51
332.0111037
0
ARC
8
DEFAULT_255_1_388
10
4.4017431
20
116.2149702
40
0.3850112
50
331.6586806
51
343.2877423
0
ARC
8
DEFAULT_255_1_388
10
4.1696896
20
116.2862806
40
0.6277712
50
343.1446576
51
351.0103568
0
ARC
8
DEFAULT_255_1_388
10
4.006422
20
116.3162873
40
0.7937327
50
350.71248
51
351.1626997
0
LINE
8
DEFAULT_255_1_388
10
6.0204832
20
115.9133382
11
6.0204832
21
115.7769
0
LINE
8
DEFAULT_255_1_388
10
6.0204832
20
115.7769
11
5.1584827
21
115.7769
0
LINE
8
DEFAULT_255_1_388
10
5.1584827
20
115.7769
11
5.1584827
21
115.8970741
0
LINE
8
DEFAULT_255_1_388
10
5.1584827
20
115.8970741
11
5.6138792
21
116.4030702
0
LINE
8
DEFAULT_255_1_388
10
5.3003423
20
116.7048607
11
5.1331829
21
116.7048607
0
LINE
8
DEFAULT_255_1_388
10
5.7123677
20
116.295546
11
5.3599776
21
115.9133382
0
LINE
8
DEFAULT_255_1_388
10
5.3599776
20
115.9133382
11
6.0204832
21
115.9133382
0
ARC
8
DEFAULT_255_1_388
10
4.0962852
20
117.7450983
40
2.0258655
50
318.5132526
51
320.7829045
0
ARC
8
DEFAULT_255_1_388
10
4.6910808
20
117.2609929
40
1.2589638
50
320.7372878
51
323.9739031
0
ARC
8
DEFAULT_255_1_388
10
5.131974
20
116.9415554
40
0.7145141
50
323.8962701
51
328.64194
0
ARC
8
DEFAULT_255_1_388
10
5.3621998
20
116.7995545
40
0.4440242
50
328.8294576
51
331.7891185
0
ARC
8
DEFAULT_255_1_388
10
5.4744318
20
116.7416374
40
0.3177517
50
331.4254512
51
352.9365785
0
ARC
8
DEFAULT_255_1_388
10
5.4897318
20
116.738205
40
0.3021496
50
353.2257659
51
0.0166158
0
ARC
8
DEFAULT_255_1_388
10
5.5134078
20
116.7407894
40
0.2784847
50
359.486299
51
15.9343185
0
ARC
8
DEFAULT_255_1_388
10
5.5704345
20
116.7561269
40
0.2194403
50
16.1712913
51
43.5286088
0
ARC
8
DEFAULT_255_1_388
10
5.579129
20
116.7648191
40
0.2071504
50
43.4417391
51
83.1661095
0
ARC
8
DEFAULT_255_1_388
10
5.5640451
20
116.6819316
40
0.2912888
50
82.160179
51
90.1505708
0
ARC
8
DEFAULT_255_1_388
10
5.5604933
20
116.6215279
40
0.3517025
50
89.5460741
51
102.5418361
0
ARC
8
DEFAULT_255_1_388
10
5.5331653
20
116.7374933
40
0.2325748
50
102.1738499
51
129.206123
0
ARC
8
DEFAULT_255_1_388
10
5.5243106
20
116.7514664
40
0.2161591
50
129.72865
51
135.753947
0
ARC
8
DEFAULT_255_1_388
10
5.5379588
20
116.7405728
40
0.2335433
50
136.1757367
51
166.3673339
0
ARC
8
DEFAULT_255_1_388
10
5.6512276
20
116.7102148
40
0.3507873
50
165.9090694
51
178.8684636
0
ARC
8
DEFAULT_255_1_388
10
5.7488048
20
116.7049263
40
0.4484624
50
178.4391136
51
180.0083808
0
ARC
8
DEFAULT_255_1_388
10
5.5908749
20
116.7093197
40
0.4577138
50
163.2878482
51
180.5581842
0
ARC
8
DEFAULT_255_1_388
10
5.5006791
20
116.7341393
40
0.3641968
50
133.4540601
51
162.947111
0
ARC
8
DEFAULT_255_1_388
10
5.5207672
20
116.7127789
40
0.3935189
50
100.7869829
51
133.4382499
0
ARC
8
DEFAULT_255_1_388
10
5.5598917
20
116.5385399
40
0.5720313
50
89.660664
51
101.3702276
0
ARC
8
DEFAULT_255_1_388
10
5.5673526
20
116.5454263
40
0.5651495
50
78.2172678
51
90.412935
0
ARC
8
DEFAULT_255_1_388
10
5.6072992
20
116.7281511
40
0.378122
50
55.9269121
51
78.4888449
0
ARC
8
DEFAULT_255_1_388
10
5.6293707
20
116.7662187
40
0.3342379
50
47.929771
51
55.4049217
0
ARC
8
DEFAULT_255_1_388
10
5.6408238
20
116.7778618
40
0.3179217
50
4.334829
51
48.0560205
0
ARC
8
DEFAULT_255_1_388
10
5.5176039
20
116.7587487
40
0.442341
50
359.9251713
51
5.5971671
0
ARC
8
DEFAULT_255_1_388
10
5.5658194
20
116.7650728
40
0.3941854
50
337.8914027
51
358.9967534
0
ARC
8
DEFAULT_255_1_388
10
5.2605764
20
116.8828295
40
0.7213271
50
326.9132501
51
338.3508308
0
ARC
8
DEFAULT_255_1_388
10
4.8121876
20
117.1702105
40
1.2538973
50
319.6471833
51
327.0959558
0
ARC
8
DEFAULT_255_1_388
10
4.3808534
20
117.526005
40
1.8129975
50
317.2588228
51
319.9045804
0
LINE
8
DEFAULT_255_1_388
10
4.9245151
20
125.0299898
11
4.9245151
21
124.156243
0
LINE
8
DEFAULT_255_1_388
10
4.9245151
20
124.156243
11
5.1070352
21
124.156243
0
LINE
8
DEFAULT_255_1_388
10
5.1070352
20
124.156243
11
5.1070352
21
124.0198048
0
LINE
8
DEFAULT_255_1_388
10
5.1070352
20
124.0198048
11
4.9245151
21
124.0198048
0
LINE
8
DEFAULT_255_1_388
10
4.9245151
20
124.0198048
11
4.9245151
21
123.7144
0
LINE
8
DEFAULT_255_1_388
10
4.9245151
20
123.7144
11
4.7564521
21
123.7144
0
LINE
8
DEFAULT_255_1_388
10
4.7564521
20
123.7144
11
4.7564521
21
124.0198048
0
LINE
8
DEFAULT_255_1_388
10
4.7564521
20
124.0198048
11
4.1573889
21
124.0198048
0
LINE
8
DEFAULT_255_1_388
10
4.1573889
20
124.0198048
11
4.1573889
21
124.1182933
0
LINE
8
DEFAULT_255_1_388
10
4.1573889
20
124.1182933
11
4.7465129
21
125.0299898
0
LINE
8
DEFAULT_255_1_388
10
4.7465129
20
125.0299898
11
4.9245151
21
125.0299898
0
LINE
8
DEFAULT_255_1_388
10
4.7365737
20
124.7652455
11
4.3471375
21
124.156243
0
LINE
8
DEFAULT_255_1_388
10
4.3471375
20
124.156243
11
4.7564521
21
124.156243
0
LINE
8
DEFAULT_255_1_388
10
4.7564521
20
124.156243
11
4.7564521
21
124.801388
0
LINE
8
DEFAULT_255_1_388
10
4.7564521
20
124.801388
11
4.7365737
21
124.7652455
0
LINE
8
DEFAULT_255_1_388
10
4.1972901
20
132.2545775
11
4.1972901
21
132.3910157
0
LINE
8
DEFAULT_255_1_388
10
4.1972901
20
132.3910157
11
4.3228856
21
132.3910157
0
LINE
8
DEFAULT_255_1_388
10
4.1087408
20
132.6223282
11
3.9415814
21
132.6223282
0
LINE
8
DEFAULT_255_1_388
10
3.9298351
20
131.9988688
11
4.097898
21
131.9988688
0
LINE
8
DEFAULT_255_1_388
10
4.3228856
20
132.2545775
11
4.1972901
21
132.2545775
0
ARC
8
DEFAULT_255_1_388
10
4.3196082
20
132.7726922
40
0.3816905
50
270.491971
51
281.8953028
0
ARC
8
DEFAULT_255_1_388
10
4.3467509
20
132.6487199
40
0.2547877
50
281.6690378
51
301.2943765
0
ARC
8
DEFAULT_255_1_388
10
4.3658961
20
132.6136926
40
0.2149197
50
301.7834992
51
311.754567
0
ARC
8
DEFAULT_255_1_388
10
4.3762002
20
132.602265
40
0.1995326
50
311.7325027
51
354.2803031
0
ARC
8
DEFAULT_255_1_388
10
4.2944418
20
132.616328
40
0.2823461
50
353.0941646
51
0.1174696
0
ARC
8
DEFAULT_255_1_388
10
4.2425976
20
132.6216874
40
0.3342238
50
359.1804452
51
15.0452323
0
ARC
8
DEFAULT_255_1_388
10
4.3940034
20
132.6658546
40
0.1765747
50
13.957816
51
77.6713812
0
ARC
8
DEFAULT_255_1_388
10
4.350527
20
132.5100464
40
0.3381982
50
76.111571
51
90.7028736
0
ARC
8
DEFAULT_255_1_388
10
4.3438682
20
132.540825
40
0.3074046
50
89.5321574
51
103.5319393
0
ARC
8
DEFAULT_255_1_388
10
4.3213066
20
132.6307443
40
0.2147041
50
103.2930114
51
133.5619756
0
ARC
8
DEFAULT_255_1_388
10
4.3163007
20
132.6374351
40
0.2064084
50
133.8349761
51
173.5343225
0
ARC
8
DEFAULT_255_1_388
10
4.3976665
20
132.6230144
40
0.2889266
50
172.5097183
51
180.1360699
0
ARC
8
DEFAULT_255_1_388
10
4.2906429
20
132.626888
40
0.3490913
50
155.3483706
51
180.7484035
0
ARC
8
DEFAULT_255_1_388
10
4.2851404
20
132.6236519
40
0.3454798
50
131.5745177
51
154.4799474
0
ARC
8
DEFAULT_255_1_388
10
4.3203687
20
132.5880422
40
0.3955058
50
96.9874487
51
131.9690874
0
ARC
8
DEFAULT_255_1_388
10
4.345058
20
132.4479407
40
0.537622
50
89.8592909
51
97.7827481
0
ARC
8
DEFAULT_255_1_388
10
4.3504689
20
132.418436
40
0.5671399
50
78.3654493
51
90.4132586
0
ARC
8
DEFAULT_255_1_388
10
4.390733
20
132.6050918
40
0.3762034
50
56.6229818
51
78.6387103
0
ARC
8
DEFAULT_255_1_388
10
4.4149159
20
132.6473846
40
0.3275964
50
47.0254604
51
56.085558
0
ARC
8
DEFAULT_255_1_388
10
4.417141
20
132.6518189
40
0.3228382
50
10.9207523
51
46.777927
0
ARC
8
DEFAULT_255_1_388
10
4.2637004
20
132.6163401
40
0.4802559
50
359.6364235
51
11.6087615
0
ARC
8
DEFAULT_255_1_388
10
4.470117
20
132.6146404
40
0.273833
50
332.3549969
51
359.7179765
0
ARC
8
DEFAULT_255_1_388
10
4.396957
20
132.6493285
40
0.3547505
50
325.2332381
51
332.8746682
0
ARC
8
DEFAULT_255_1_388
10
4.4141153
20
132.6373763
40
0.3338396
50
292.9803892
51
325.2391113
0
ARC
8
DEFAULT_255_1_388
10
4.3830349
20
132.6978679
40
0.4016959
50
292.542178
51
293.6931461
0
ARC
8
DEFAULT_255_1_388
10
4.4273921
20
131.9713036
40
0.372079
50
57.643292
51
72.8626085
0
ARC
8
DEFAULT_255_1_388
10
4.4672755
20
132.0359273
40
0.2961455
50
36.7246661
51
57.4701329
0
ARC
8
DEFAULT_255_1_388
10
4.4659912
20
132.037347
40
0.2963321
50
8.054535
51
36.3561529
0
ARC
8
DEFAULT_255_1_388
10
4.3689585
20
132.0199073
40
0.3948682
50
359.8316595
51
8.5873361
0
ARC
8
DEFAULT_255_1_388
10
4.3267059
20
132.014497
40
0.4371398
50
343.9831631
51
0.557075
0
ARC
8
DEFAULT_255_1_388
10
4.4264108
20
131.9871963
40
0.3337749
50
311.6358204
51
343.7652116
0
ARC
8
DEFAULT_255_1_388
10
4.3838362
20
132.0351955
40
0.3979351
50
279.7829743
51
311.625622
0
ARC
8
DEFAULT_255_1_388
10
4.3499497
20
132.1968642
40
0.5630417
50
269.7285092
51
280.3857694
0
ARC
8
DEFAULT_255_1_388
10
4.342981
20
132.1922241
40
0.5584119
50
256.6827433
51
270.4412869
0
ARC
8
DEFAULT_255_1_388
10
4.3048797
20
132.0364698
40
0.3980715
50
229.4223821
51
256.8554507
0
ARC
8
DEFAULT_255_1_388
10
4.258235
20
131.9839683
40
0.3278564
50
181.8183354
51
229.6455015
0
ARC
8
DEFAULT_255_1_388
10
4.375196
20
131.9986825
40
0.4453611
50
179.9760419
51
183.2330638
0
ARC
8
DEFAULT_255_1_388
10
4.3558512
20
131.9963781
40
0.2579652
50
179.4467996
51
196.2871626
0
ARC
8
DEFAULT_255_1_388
10
4.3009966
20
131.9813709
40
0.2011057
50
196.5661293
51
227.7059371
0
ARC
8
DEFAULT_255_1_388
10
4.3194573
20
132.0020155
40
0.2287994
50
227.7653015
51
257.8763321
0
ARC
8
DEFAULT_255_1_388
10
4.3447656
20
132.1080961
40
0.3378385
50
257.4583525
51
270.4267406
0
ARC
8
DEFAULT_255_1_388
10
4.3498906
20
132.140723
40
0.3704652
50
269.5965319
51
280.8788143
0
ARC
8
DEFAULT_255_1_388
10
4.3757134
20
132.0117529
40
0.2389415
50
280.6347277
51
299.8594068
0
ARC
8
DEFAULT_255_1_388
10
4.3971903
20
131.9709736
40
0.19289
50
300.3575552
51
314.5515667
0
ARC
8
DEFAULT_255_1_388
10
4.3878579
20
131.9778025
40
0.204312
50
315.0730962
51
345.0429362
0
ARC
8
DEFAULT_255_1_388
10
4.2840087
20
132.0080539
40
0.31246
50
344.598526
51
357.9270698
0
ARC
8
DEFAULT_255_1_388
10
4.1830391
20
132.0149705
40
0.4136265
50
357.4755098
51
0.0224936
0
ARC
8
DEFAULT_255_1_388
10
4.2983269
20
132.0177099
40
0.2983498
50
359.5051035
51
13.4236939
0
ARC
8
DEFAULT_255_1_388
10
4.3958359
20
132.0426637
40
0.1977186
50
12.9497905
51
48.7550905
0
ARC
8
DEFAULT_255_1_388
10
4.3753281
20
132.0146373
40
0.2323321
50
49.509109
51
72.1832965
0
ARC
8
DEFAULT_255_1_388
10
4.3350749
20
131.8951632
40
0.358397
50
71.9008458
51
84.3555134
0
ARC
8
DEFAULT_255_1_388
10
4.3169144
20
131.7419712
40
0.512641
50
84.019632
51
89.3326067
0
LINE
8
DEFAULT_255_1_388
10
4.8162318
20
139.7258382
11
4.8162318
21
139.5894
0
LINE
8
DEFAULT_255_1_388
10
4.8162318
20
139.5894
11
3.9542313
21
139.5894
0
LINE
8
DEFAULT_255_1_388
10
3.9542313
20
139.5894
11
3.9542313
21
139.7095741
0
LINE
8
DEFAULT_255_1_388
10
3.9542313
20
139.7095741
11
4.4096278
21
140.2155702
0
LINE
8
DEFAULT_255_1_388
10
4.0960909
20
140.5173607
11
3.9289315
21
140.5173607
0
LINE
8
DEFAULT_255_1_388
10
4.5081163
20
140.108046
11
4.1557262
21
139.7258382
0
LINE
8
DEFAULT_255_1_388
10
4.1557262
20
139.7258382
11
4.8162318
21
139.7258382
0
ARC
8
DEFAULT_255_1_388
10
2.8920337
20
141.5575983
40
2.0258655
50
318.5132526
51
320.7829045
0
ARC
8
DEFAULT_255_1_388
10
3.4868294
20
141.0734929
40
1.2589638
50
320.7372878
51
323.9739031
0
ARC
8
DEFAULT_255_1_388
10
3.9277226
20
140.7540554
40
0.7145141
50
323.8962701
51
328.64194
0
ARC
8
DEFAULT_255_1_388
10
4.1579484
20
140.6120545
40
0.4440242
50
328.8294576
51
331.7891185
0
ARC
8
DEFAULT_255_1_388
10
4.2701804
20
140.5541374
40
0.3177517
50
331.4254512
51
352.9365785
0
ARC
8
DEFAULT_255_1_388
10
4.2854804
20
140.550705
40
0.3021496
50
353.2257659
51
0.0166158
0
ARC
8
DEFAULT_255_1_388
10
4.3091564
20
140.5532894
40
0.2784847
50
359.486299
51
15.9343185
0
ARC
8
DEFAULT_255_1_388
10
4.3661831
20
140.5686269
40
0.2194403
50
16.1712913
51
43.5286088
0
ARC
8
DEFAULT_255_1_388
10
4.3748776
20
140.5773191
40
0.2071504
50
43.4417391
51
83.1661095
0
ARC
8
DEFAULT_255_1_388
10
4.3597937
20
140.4944316
40
0.2912888
50
82.160179
51
90.1505708
0
ARC
8
DEFAULT_255_1_388
10
4.3562418
20
140.4340279
40
0.3517025
50
89.5460741
51
102.5418361
0
ARC
8
DEFAULT_255_1_388
10
4.3289138
20
140.5499933
40
0.2325748
50
102.1738499
51
129.206123
0
ARC
8
DEFAULT_255_1_388
10
4.3200592
20
140.5639664
40
0.2161591
50
129.72865
51
135.753947
0
ARC
8
DEFAULT_255_1_388
10
4.3337074
20
140.5530728
40
0.2335433
50
136.1757367
51
166.3673339
0
ARC
8
DEFAULT_255_1_388
10
4.4469762
20
140.5227148
40
0.3507873
50
165.9090694
51
178.8684636
0
ARC
8
DEFAULT_255_1_388
10
4.5445534
20
140.5174263
40
0.4484624
50
178.4391136
51
180.0083808
0
ARC
8
DEFAULT_255_1_388
10
4.3866235
20
140.5218197
40
0.4577138
50
163.2878482
51
180.5581842
0
ARC
8
DEFAULT_255_1_388
10
4.2964276
20
140.5466393
40
0.3641968
50
133.4540601
51
162.947111
0
ARC
8
DEFAULT_255_1_388
10
4.3165158
20
140.5252789
40
0.3935189
50
100.7869829
51
133.4382499
0
ARC
8
DEFAULT_255_1_388
10
4.3556403
20
140.3510399
40
0.5720313
50
89.660664
51
101.3702276
0
ARC
8
DEFAULT_255_1_388
10
4.3631012
20
140.3579263
40
0.5651495
50
78.2172678
51
90.412935
0
ARC
8
DEFAULT_255_1_388
10
4.4030478
20
140.5406511
40
0.378122
50
55.9269121
51
78.4888449
0
ARC
8
DEFAULT_255_1_388
10
4.4251193
20
140.5787187
40
0.3342379
50
47.929771
51
55.4049217
0
ARC
8
DEFAULT_255_1_388
10
4.4365723
20
140.5903618
40
0.3179217
50
4.334829
51
48.0560205
0
ARC
8
DEFAULT_255_1_388
10
4.3133525
20
140.5712487
40
0.442341
50
359.9251713
51
5.5971671
0
ARC
8
DEFAULT_255_1_388
10
4.361568
20
140.5775728
40
0.3941854
50
337.8914027
51
358.9967534
0
ARC
8
DEFAULT_255_1_388
10
4.056325
20
140.6953295
40
0.7213271
50
326.9132501
51
338.3508308
0
ARC
8
DEFAULT_255_1_388
10
3.6079362
20
140.9827105
40
1.2538973
50
319.6471833
51
327.0959558
0
ARC
8
DEFAULT_255_1_388
10
3.176602
20
141.338505
40
1.8129975
50
317.2588228
51
319.9045804
0
LINE
8
DEFAULT_255_1_388
10
4.4952985
20
148.8488148
11
4.4952985
21
147.5269
0
LINE
8
DEFAULT_255_1_388
10
4.4952985
20
147.5269
11
4.3272355
21
147.5269
0
LINE
8
DEFAULT_255_1_388
10
4.3272355
20
147.5269
11
4.3272355
21
148.640995
0
LINE
8
DEFAULT_255_1_388
10
4.3272355
20
148.640995
11
3.990206
21
148.5172066
0
LINE
8
DEFAULT_255_1_388
10
3.990206
20
148.5172066
11
3.990206
21
148.6690055
0
LINE
8
DEFAULT_255_1_388
10
3.990206
20
148.6690055
11
4.4690951
21
148.8488148
0
LINE
8
DEFAULT_255_1_388
10
4.4690951
20
148.8488148
11
4.4952985
21
148.8488148
0
LINE
8
DEFAULT_255_1_388
10
4.783332
20
155.8818468
11
4.9577199
21
155.8818468
0
LINE
8
DEFAULT_255_1_388
10
3.9448242
20
156.0607525
11
3.9448242
21
156.1872516
0
LINE
8
DEFAULT_255_1_388
10
4.9577199
20
156.3571217
11
4.783332
21
156.3571217
0
LINE
8
DEFAULT_255_1_388
10
4.1192121
20
156.1827337
11
4.1192121
21
156.0553312
0
ARC
8
DEFAULT_255_1_388
10
4.3411433
20
155.9490329
40
0.6202263
50
340.1774904
51
353.7812217
0
ARC
8
DEFAULT_255_1_388
10
4.5179286
20
155.8831893
40
0.4315926
50
311.4560052
51
340.4420756
0
ARC
8
DEFAULT_255_1_388
10
4.5141826
20
155.8956665
40
0.4434573
50
282.4332229
51
310.7514507
0
ARC
8
DEFAULT_255_1_388
10
4.4647644
20
156.0998703
40
0.6535262
50
269.9358869
51
282.8096729
0
ARC
8
DEFAULT_255_1_388
10
4.4589583
20
156.2511329
40
0.8048043
50
269.9995752
51
270.3612856
0
ARC
8
DEFAULT_255_1_388
10
4.4530073
20
155.9712781
40
0.5249831
50
250.7885263
51
270.6488451
0
ARC
8
DEFAULT_255_1_388
10
4.4340898
20
155.8995853
40
0.4510942
50
219.3628377
51
250.0611024
0
ARC
8
DEFAULT_255_1_388
10
4.5273772
20
155.9788653
40
0.5735046
50
193.5480293
51
219.5755675
0
ARC
8
DEFAULT_255_1_388
10
4.7941981
20
156.048152
40
0.849146
50
181.1220183
51
193.8754971
0
ARC
8
DEFAULT_255_1_388
10
5.0265214
20
156.0605914
40
1.0816971
50
179.9914644
51
181.5398227
0
ARC
8
DEFAULT_255_1_388
10
4.8188525
20
156.1914586
40
0.8740384
50
169.5837606
51
180.275782
0
ARC
8
DEFAULT_255_1_388
10
4.6121873
20
156.2296439
40
0.6638751
50
155.0367033
51
169.6002779
0
ARC
8
DEFAULT_255_1_388
10
4.4844331
20
156.2912336
40
0.5220662
50
136.7831557
51
155.2472983
0
ARC
8
DEFAULT_255_1_388
10
4.4406122
20
156.3284577
40
0.4646502
50
121.7633063
51
136.4281161
0
ARC
8
DEFAULT_255_1_388
10
4.4557962
20
156.3004049
40
0.4964979
50
95.6460018
51
121.5489589
0
ARC
8
DEFAULT_255_1_388
10
4.4734936
20
156.1756704
40
0.6223912
50
89.9245727
51
96.1375919
0
ARC
8
DEFAULT_255_1_388
10
4.4791641
20
156.1890721
40
0.6090084
50
76.6779212
51
90.456405
0
ARC
8
DEFAULT_255_1_388
10
4.5234454
20
156.368006
40
0.42469
50
47.4858803
51
76.9287069
0
ARC
8
DEFAULT_255_1_388
10
4.5069068
20
156.3567623
40
0.4441778
50
16.5424081
51
46.8934505
0
ARC
8
DEFAULT_255_1_388
10
4.3260118
20
156.2973265
40
0.6345318
50
5.4072971
51
17.0363711
0
ARC
8
DEFAULT_255_1_388
10
4.1641843
20
156.2713304
40
0.6250632
50
7.8888693
51
15.9242022
0
ARC
8
DEFAULT_255_1_388
10
4.3876828
20
156.3362309
40
0.3923364
50
15.7650676
51
27.9410069
0
ARC
8
DEFAULT_255_1_388
10
4.5118997
20
156.4027317
40
0.2514401
50
27.8167196
51
46.4007942
0
ARC
8
DEFAULT_255_1_388
10
4.5174839
20
156.4020882
40
0.2480958
50
47.4372362
51
75.0695672
0
ARC
8
DEFAULT_255_1_388
10
4.4827675
20
156.2812277
40
0.3738281
50
74.7009379
51
87.8124314
0
ARC
8
DEFAULT_255_1_388
10
4.4745292
20
156.1628659
40
0.4924321
50
87.3802571
51
90.0251599
0
ARC
8
DEFAULT_255_1_388
10
4.4701939
20
156.2948997
40
0.3604218
50
89.3451886
51
108.5744412
0
ARC
8
DEFAULT_255_1_388
10
4.4547931
20
156.3526836
40
0.3007661
50
109.2998307
51
143.3037387
0
ARC
8
DEFAULT_255_1_388
10
4.5405221
20
156.2867584
40
0.4089031
50
143.075267
51
163.1918576
0
ARC
8
DEFAULT_255_1_388
10
4.7601055
20
156.2174652
40
0.6391492
50
162.9375929
51
174.6208776
0
ARC
8
DEFAULT_255_1_388
10
5.0555437
20
156.1850711
40
0.9363344
50
174.342123
51
180.1430283
0
ARC
8
DEFAULT_255_1_388
10
4.9507978
20
156.0507117
40
0.8315986
50
179.6817261
51
189.150555
0
ARC
8
DEFAULT_255_1_388
10
4.6694727
20
156.0038559
40
0.5464044
50
188.9911061
51
203.5772363
0
ARC
8
DEFAULT_255_1_388
10
4.5480019
20
155.9534539
40
0.4149206
50
203.9075402
51
215.1312435
0
ARC
8
DEFAULT_255_1_388
10
4.4441817
20
155.8729907
40
0.2837747
50
213.9071511
51
263.8848919
0
ARC
8
DEFAULT_255_1_388
10
4.458281
20
155.9612519
40
0.3730641
50
263.1757928
51
270.1031044
0
ARC
8
DEFAULT_255_1_388
10
4.461889
20
156.1015511
40
0.5133712
50
269.6722503
51
279.0606936
0
ARC
8
DEFAULT_255_1_388
10
4.4919045
20
155.920115
40
0.3294739
50
278.8749101
51
293.6349581
0
ARC
8
DEFAULT_255_1_388
10
4.5279249
20
155.8355251
40
0.2375405
50
293.8553806
51
310.0518171
0
ARC
8
DEFAULT_255_1_388
10
4.5284758
20
155.8285021
40
0.2318463
50
311.0644687
51
332.0111037
0
ARC
8
DEFAULT_255_1_388
10
4.3943431
20
155.9024702
40
0.3850112
50
331.6586806
51
343.2877423
0
ARC
8
DEFAULT_255_1_388
10
4.1622896
20
155.9737806
40
0.6277712
50
343.1446576
51
351.0103568
0
ARC
8
DEFAULT_255_1_388
10
3.999022
20
156.0037873
40
0.7937327
50
350.71248
51
351.1626997
0
LINE
8
DEFAULT_255_1_388
10
5.7004499
20
156.7863148
11
5.7004499
21
155.4644
0
LINE
8
DEFAULT_255_1_388
10
5.7004499
20
155.4644
11
5.5323869
21
155.4644
0
LINE
8
DEFAULT_255_1_388
10
5.5323869
20
155.4644
11
5.5323869
21
156.578495
0
LINE
8
DEFAULT_255_1_388
10
5.5323869
20
156.578495
11
5.1953574
21
156.4547066
0
LINE
8
DEFAULT_255_1_388
10
5.1953574
20
156.4547066
11
5.1953574
21
156.6065055
0
LINE
8
DEFAULT_255_1_388
10
5.1953574
20
156.6065055
11
5.6742465
21
156.7863148
0
LINE
8
DEFAULT_255_1_388
10
5.6742465
20
156.7863148
11
5.7004499
21
156.7863148
0
LINE
8
DEFAULT_255_1_388
10
24.1657713
20
164.0289737
11
24.1657713
21
163.8925355
0
LINE
8
DEFAULT_255_1_388
10
24.1657713
20
163.8925355
11
23.7248319
21
163.8925355
0
LINE
8
DEFAULT_255_1_388
10
23.7248319
20
163.8925355
11
23.7248319
21
164.0289737
0
LINE
8
DEFAULT_255_1_388
10
23.7248319
20
164.0289737
11
24.1657713
21
164.0289737
0
ENDSEC
0
EOF