0
SECTION
2
HEADER
9
$MEASUREMENT
70
1
0
ENDSEC
0
SECTION
2
TABLES
0
TABLE
2
LTYPE
0
LTYPE
72
65
70
64
2
CONTINUOUS
3
______
73
0
40
0
0
ENDTAB
0
TABLE
2
LAYER
0
LAYER
2
DEFAULT_255_2_778
70
0
62
255
6
CONTINUOUS
0
LAYER
2
DEFAULT_255_1_234
70
0
62
255
6
CONTINUOUS
0
ENDTAB
0
ENDSEC
0
SECTION
2
ENTITIES
0
ARC
8
DEFAULT_255_2_778
10
3.5700693
20
171.0552017
40
0.7914215
50
129.1312896
51
180.1450914
0
ARC
8
DEFAULT_255_2_778
10
3.5703345
20
171.0556888
40
0.7912112
50
89.854026
51
129.1684493
0
ARC
8
DEFAULT_255_2_778
10
25.7993937
20
171.0553754
40
0.7915249
50
39.4792447
51
90.147911
0
ARC
8
DEFAULT_255_2_778
10
25.7999935
20
171.055222
40
0.7911595
50
359.8533901
51
39.5154338
0
ARC
8
DEFAULT_255_2_778
10
25.7996693
20
-1.9863506
40
0.7914836
50
309.4761667
51
0.1482649
0
ARC
8
DEFAULT_255_2_778
10
25.799398
20
-1.9867816
40
0.7913235
50
269.8517415
51
309.511178
0
ARC
8
DEFAULT_255_2_778
10
3.570342
20
-1.9867235
40
0.7913815
50
219.1282118
51
270.1454017
0
ARC
8
DEFAULT_255_2_778
10
3.5700247
20
-1.986341
40
0.7913769
50
179.8524075
51
219.1641908
0
LINE
8
DEFAULT_255_2_778
10
3.5723503
20
171.8468976
11
25.7973503
21
171.8468976
0
LINE
8
DEFAULT_255_2_778
10
26.5911503
20
171.0531976
11
26.5911503
21
-1.9843024
0
LINE
8
DEFAULT_255_2_778
10
25.7973503
20
-2.7781024
11
3.5723503
21
-2.7781024
0
LINE
8
DEFAULT_255_2_778
10
2.7786503
20
-1.9843024
11
2.7786503
21
171.0531976
0
LINE
8
DEFAULT_255_1_234
10
11.0997344
20
-0.1934909
11
10.8242458
21
-0.1934909
0
LINE
8
DEFAULT_255_1_234
10
10.8242458
20
-0.1934909
11
10.8242458
21
-0.6513
0
LINE
8
DEFAULT_255_1_234
10
10.8242458
20
-0.6513
11
10.6700364
21
-0.6513
0
LINE
8
DEFAULT_255_1_234
10
10.6700364
20
-0.6513
11
10.6700364
21
0.5181211
0
LINE
8
DEFAULT_255_1_234
10
10.6700364
20
0.5181211
11
11.1013407
21
0.5181211
0
LINE
8
DEFAULT_255_1_234
10
10.8242458
20
0.3912196
11
10.8242458
21
-0.0673926
0
LINE
8
DEFAULT_255_1_234
10
10.8242458
20
-0.0673926
11
11.1013407
21
-0.0673926
0
LINE
8
DEFAULT_255_1_234
10
11.1101756
20
0.3912196
11
10.8242458
21
0.3912196
0
ARC
8
DEFAULT_255_1_234
10
11.1055534
20
-0.0877805
40
0.6059162
50
78.8378113
51
90.3983573
0
ARC
8
DEFAULT_255_1_234
10
11.1471548
20
0.1142879
40
0.3996205
50
58.9632738
51
79.0810598
0
ARC
8
DEFAULT_255_1_234
10
11.177309
20
0.1702721
40
0.3361177
50
48.0197965
51
58.447194
0
ARC
8
DEFAULT_255_1_234
10
11.1861951
20
0.1788225
40
0.3238191
50
3.3375044
51
48.1766626
0
ARC
8
DEFAULT_255_1_234
10
11.063179
20
0.1611171
40
0.4477806
50
359.9477528
51
4.6829065
0
ARC
8
DEFAULT_255_1_234
10
11.0755107
20
0.1568628
40
0.4354656
50
346.1877825
51
0.5060252
0
ARC
8
DEFAULT_255_1_234
10
11.2113975
20
0.1215731
40
0.295089
50
310.8831995
51
346.5426355
0
ARC
8
DEFAULT_255_1_234
10
11.1805395
20
0.1632695
40
0.3468331
50
286.6925341
51
310.2288297
0
ARC
8
DEFAULT_255_1_234
10
11.1236226
20
0.3422882
40
0.5346654
50
274.6850312
51
287.0245141
0
ARC
8
DEFAULT_255_1_234
10
11.1010949
20
0.5631932
40
0.7566852
50
269.8969846
51
275.018904
0
ARC
8
DEFAULT_255_1_234
10
11.103854
20
0.3552707
40
0.4226708
50
269.6593078
51
279.4153575
0
ARC
8
DEFAULT_255_1_234
10
11.1295815
20
0.2062133
40
0.2714146
50
279.2049762
51
294.9900808
0
ARC
8
DEFAULT_255_1_234
10
11.1586141
20
0.1414508
40
0.2004525
50
295.2888114
51
311.2911209
0
ARC
8
DEFAULT_255_1_234
10
11.1657035
20
0.130922
40
0.1878703
50
311.7854996
51
347.2861051
0
ARC
8
DEFAULT_255_1_234
10
11.0673194
20
0.1562092
40
0.2894234
50
346.6893224
51
0.1059443
0
ARC
8
DEFAULT_255_1_234
10
10.9918089
20
0.1590685
40
0.3649409
50
359.6350983
51
0.0053152
0
ARC
8
DEFAULT_255_1_234
10
11.0888417
20
0.1615937
40
0.2679199
50
359.4672059
51
15.5933957
0
ARC
8
DEFAULT_255_1_234
10
11.1513306
20
0.1784779
40
0.2031932
50
15.7442113
51
46.6203375
0
ARC
8
DEFAULT_255_1_234
10
11.1365527
20
0.1614484
40
0.2257226
50
46.8628658
51
75.6676503
0
ARC
8
DEFAULT_255_1_234
10
11.1071347
20
0.0555718
40
0.3355939
50
75.276167
51
88.2915297
0
ARC
8
DEFAULT_255_1_234
10
11.1013054
20
-0.0322476
40
0.4235602
50
87.8575022
51
88.8000139
0
LINE
8
DEFAULT_255_1_234
10
11.8852384
20
-0.1155831
11
11.8852384
21
0.0056962
0
LINE
8
DEFAULT_255_1_234
10
11.8852384
20
0.0056962
11
11.9968795
21
0.0056962
0
LINE
8
DEFAULT_255_1_234
10
11.8065273
20
0.2113087
11
11.6579402
21
0.2113087
0
LINE
8
DEFAULT_255_1_234
10
11.6474989
20
-0.3428812
11
11.7968893
21
-0.3428812
0
LINE
8
DEFAULT_255_1_234
10
11.9968795
20
-0.1155831
11
11.8852384
21
-0.1155831
0
ARC
8
DEFAULT_255_1_234
10
11.9939662
20
0.3449713
40
0.3392876
50
270.4919872
51
281.8951556
0
ARC
8
DEFAULT_255_1_234
10
12.0180923
20
0.2347702
40
0.2264817
50
281.6691735
51
301.2943132
0
ARC
8
DEFAULT_255_1_234
10
12.0351134
20
0.2036304
40
0.1910381
50
301.7833094
51
311.7545298
0
ARC
8
DEFAULT_255_1_234
10
12.0442709
20
0.1934748
40
0.1773635
50
311.7323931
51
354.2802411
0
ARC
8
DEFAULT_255_1_234
10
11.9716335
20
0.2059722
40
0.2509385
50
353.0937916
51
0.1181479
0
ARC
8
DEFAULT_255_1_234
10
11.925512
20
0.2107386
40
0.2970898
50
359.1805295
51
15.0453146
0
ARC
8
DEFAULT_255_1_234
10
12.0600957
20
0.2499992
40
0.1569564
50
13.9577229
51
77.6713066
0
ARC
8
DEFAULT_255_1_234
10
12.0214486
20
0.1114949
40
0.3006298
50
76.1116566
51
90.7026153
0
ARC
8
DEFAULT_255_1_234
10
12.0155324
20
0.1388545
40
0.2732568
50
89.5324876
51
103.531937
0
ARC
8
DEFAULT_255_1_234
10
11.9954768
20
0.2187884
40
0.1908508
50
103.2931773
51
133.5619022
0
ARC
8
DEFAULT_255_1_234
10
11.9910256
20
0.2247375
40
0.1834746
50
133.8349307
51
173.5344437
0
ARC
8
DEFAULT_255_1_234
10
12.06333
20
0.2119213
40
0.2568033
50
172.5096846
51
180.1366907
0
ARC
8
DEFAULT_255_1_234
10
11.9682193
20
0.2153622
40
0.3103056
50
155.3484492
51
180.7484736
0
ARC
8
DEFAULT_255_1_234
10
11.9633283
20
0.2124846
40
0.3070957
50
131.5744599
51
154.4798489
0
ARC
8
DEFAULT_255_1_234
10
11.994643
20
0.180831
40
0.3515643
50
96.9875458
51
131.9690667
0
ARC
8
DEFAULT_255_1_234
10
12.016591
20
0.0562636
40
0.4779224
50
89.8596053
51
97.7825159
0
ARC
8
DEFAULT_255_1_234
10
12.0213973
20
0.0300616
40
0.5041361
50
78.3655447
51
90.4131539
0
ARC
8
DEFAULT_255_1_234
10
12.0571891
20
0.1959887
40
0.3344039
50
56.6229102
51
78.638727
0
ARC
8
DEFAULT_255_1_234
10
12.0786834
20
0.2335805
40
0.2912001
50
47.0253525
51
56.0854072
0
ARC
8
DEFAULT_255_1_234
10
12.0806614
20
0.2375223
40
0.2869704
50
10.9208013
51
46.7778124
0
ARC
8
DEFAULT_255_1_234
10
11.9442681
20
0.2059857
40
0.426899
50
359.6364486
51
11.6087304
0
ARC
8
DEFAULT_255_1_234
10
12.1277525
20
0.2044752
40
0.243409
50
332.3549906
51
359.7179418
0
ARC
8
DEFAULT_255_1_234
10
12.0627126
20
0.2353142
40
0.3153459
50
325.2333722
51
332.8745602
0
ARC
8
DEFAULT_255_1_234
10
12.077975
20
0.2246828
40
0.2967456
50
292.9802137
51
325.2392345
0
ARC
8
DEFAULT_255_1_234
10
12.0505124
20
0.2780863
40
0.3566604
50
292.5402179
51
293.6924929
0
ARC
8
DEFAULT_255_1_234
10
12.089772
20
-0.3673909
40
0.3307468
50
57.6435486
51
72.8625112
0
ARC
8
DEFAULT_255_1_234
10
12.125222
20
-0.3099451
40
0.2632492
50
36.7248896
51
57.4697979
0
ARC
8
DEFAULT_255_1_234
10
12.1240852
20
-0.308678
40
0.2634081
50
8.0545065
51
36.356114
0
ARC
8
DEFAULT_255_1_234
10
12.0378038
20
-0.3241826
40
0.3510261
50
359.8320645
51
8.5869982
0
ARC
8
DEFAULT_255_1_234
10
12.0002814
20
-0.3289899
40
0.3885653
50
343.9829931
51
0.5571613
0
ARC
8
DEFAULT_255_1_234
10
12.0889011
20
-0.3532562
40
0.2966924
50
311.6359546
51
343.7651759
0
ARC
8
DEFAULT_255_1_234
10
12.051058
20
-0.3105898
40
0.3537231
50
279.7829875
51
311.6255694
0
ARC
8
DEFAULT_255_1_234
10
12.0209356
20
-0.166872
40
0.5004971
50
269.7286406
51
280.3856417
0
ARC
8
DEFAULT_255_1_234
10
12.0147429
20
-0.1710004
40
0.4963778
50
256.6828919
51
270.4412052
0
ARC
8
DEFAULT_255_1_234
10
11.9808725
20
-0.3094606
40
0.3538406
50
229.4223008
51
256.8556159
0
ARC
8
DEFAULT_255_1_234
10
11.9394118
20
-0.3561264
40
0.2914296
50
181.818294
51
229.6455059
0
ARC
8
DEFAULT_255_1_234
10
12.0434074
20
-0.3430504
40
0.3959084
50
179.9755256
51
183.2323064
0
ARC
8
DEFAULT_255_1_234
10
12.026182
20
-0.3450963
40
0.2293034
50
179.4465117
51
196.2869258
0
ARC
8
DEFAULT_255_1_234
10
11.9774228
20
-0.3584349
40
0.1787621
50
196.5661473
51
227.705904
0
ARC
8
DEFAULT_255_1_234
10
11.9938323
20
-0.3400845
40
0.2033784
50
227.7652068
51
257.8762805
0
ARC
8
DEFAULT_255_1_234
10
12.0163293
20
-0.2457844
40
0.3003081
50
257.4584385
51
270.426602
0
ARC
8
DEFAULT_255_1_234
10
12.0208859
20
-0.2168004
40
0.329292
50
269.5962073
51
280.8789248
0
ARC
8
DEFAULT_255_1_234
10
12.0438388
20
-0.3314315
40
0.2123908
50
280.6346389
51
299.8595945
0
ARC
8
DEFAULT_255_1_234
10
12.0629294
20
-0.3676788
40
0.171457
50
300.3576302
51
314.5517981
0
ARC
8
DEFAULT_255_1_234
10
12.0546354
20
-0.3616081
40
0.1816095
50
315.0728369
51
345.0431014
0
ARC
8
DEFAULT_255_1_234
10
11.9623169
20
-0.3347159
40
0.2777492
50
344.5986631
51
357.9269593
0
ARC
8
DEFAULT_255_1_234
10
11.8727495
20
-0.3285724
40
0.3674917
50
357.4748886
51
0.0231117
0
ARC
8
DEFAULT_255_1_234
10
11.9750604
20
-0.3261321
40
0.2651907
50
359.5047933
51
13.4239635
0
ARC
8
DEFAULT_255_1_234
10
12.0617248
20
-0.3039522
40
0.1757509
50
12.9498199
51
48.7551375
0
ARC
8
DEFAULT_255_1_234
10
12.0434982
20
-0.32886
40
0.2065134
50
49.5088623
51
72.1836453
0
ARC
8
DEFAULT_255_1_234
10
12.0077135
20
-0.4350709
40
0.3185836
50
71.9010081
51
84.3554254
0
ARC
8
DEFAULT_255_1_234
10
11.9915766
20
-0.5711674
40
0.4556151
50
84.0193428
51
89.333121
0
LINE
8
DEFAULT_255_1_234
10
12.9173167
20
-0.0938974
11
12.9173167
21
-0.2151766
0
LINE
8
DEFAULT_255_1_234
10
12.9173167
20
-0.2151766
11
12.5253679
21
-0.2151766
0
LINE
8
DEFAULT_255_1_234
10
12.5253679
20
-0.2151766
11
12.5253679
21
-0.0938974
0
LINE
8
DEFAULT_255_1_234
10
12.5253679
20
-0.0938974
11
12.9173167
21
-0.0938974
0
LINE
8
DEFAULT_255_1_234
10
13.5349574
20
0.5237433
11
13.5349574
21
-0.6513
0
LINE
8
DEFAULT_255_1_234
10
13.5349574
20
-0.6513
11
13.3855671
21
-0.6513
0
LINE
8
DEFAULT_255_1_234
10
13.3855671
20
-0.6513
11
13.3855671
21
0.3390133
0
LINE
8
DEFAULT_255_1_234
10
13.3855671
20
0.3390133
11
13.0859833
21
0.2289785
0
LINE
8
DEFAULT_255_1_234
10
13.0859833
20
0.2289785
11
13.0859833
21
0.3639117
0
LINE
8
DEFAULT_255_1_234
10
13.0859833
20
0.3639117
11
13.5116654
21
0.5237433
0
LINE
8
DEFAULT_255_1_234
10
13.5116654
20
0.5237433
11
13.5349574
21
0.5237433
0
LINE
8
DEFAULT_255_1_234
10
14.5268771
20
0.5189243
11
14.5533818
21
0.5189243
0
LINE
8
DEFAULT_255_1_234
10
14.5533818
20
0.5189243
11
14.5533818
21
0.392826
0
LINE
8
DEFAULT_255_1_234
10
14.5533818
20
0.392826
11
14.5260739
21
0.392826
0
LINE
8
DEFAULT_255_1_234
10
13.9791125
20
-0.2063417
11
13.9791125
21
-0.1493164
0
LINE
8
DEFAULT_255_1_234
10
14.1285029
20
-0.1685925
11
14.1285029
21
-0.2232083
0
ARC
8
DEFAULT_255_1_234
10
14.5313087
20
-0.1069545
40
0.4998079
50
90.6001036
51
104.514704
0
ARC
8
DEFAULT_255_1_234
10
14.4924603
20
0.0375131
40
0.3502176
50
104.2855254
51
133.862935
0
ARC
8
DEFAULT_255_1_234
10
14.508836
20
0.026683
40
0.3693984
50
134.5302688
51
161.6210873
0
ARC
8
DEFAULT_255_1_234
10
14.6741549
20
-0.0316105
40
0.5446739
50
161.2849839
51
174.2076652
0
ARC
8
DEFAULT_255_1_234
10
14.8148486
20
-0.0510213
40
0.6866274
50
173.7810589
51
174.9254635
0
ARC
8
DEFAULT_255_1_234
10
14.3598318
20
-0.1893161
40
0.3033419
50
95.8330959
51
138.9954921
0
ARC
8
DEFAULT_255_1_234
10
14.3821674
20
-0.3171625
40
0.4328947
50
89.8753725
51
97.0544009
0
ARC
8
DEFAULT_255_1_234
10
14.386914
20
-0.2336252
40
0.3493769
50
71.6407809
51
90.6240094
0
ARC
8
DEFAULT_255_1_234
10
14.4019713
20
-0.1781918
40
0.2920396
50
39.6367836
51
71.019018
0
ARC
8
DEFAULT_255_1_234
10
14.3383186
20
-0.2332002
40
0.3761538
50
10.658731
51
39.9043955
0
ARC
8
DEFAULT_255_1_234
10
14.1835269
20
-0.2668314
40
0.5345136
50
359.682601
51
11.132623
0
ARC
8
DEFAULT_255_1_234
10
14.17954
20
-0.273899
40
0.5385081
50
347.2486944
51
0.4369317
0
ARC
8
DEFAULT_255_1_234
10
14.3462877
20
-0.3140193
40
0.3670249
50
318.1409698
51
347.6118597
0
ARC
8
DEFAULT_255_1_234
10
14.378787
20
-0.3407298
40
0.3250007
50
275.6342139
51
317.8248465
0
ARC
8
DEFAULT_255_1_234
10
14.3566981
20
-0.2107781
40
0.4565864
50
269.8874292
51
276.7917694
0
ARC
8
DEFAULT_255_1_234
10
14.3512052
20
-0.3133257
40
0.3540676
50
246.9140195
51
270.7437342
0
ARC
8
DEFAULT_255_1_234
10
14.3518442
20
-0.3275616
40
0.3412781
50
218.1665114
51
245.878116
0
ARC
8
DEFAULT_255_1_234
10
14.4397903
20
-0.2539721
40
0.455911
50
191.4115814
51
218.6077802
0
ARC
8
DEFAULT_255_1_234
10
14.6335992
20
-0.2105167
40
0.6545001
50
179.6345085
51
191.7836486
0
ARC
8
DEFAULT_255_1_234
10
15.1918329
20
-0.1426303
40
1.2127388
50
171.4525249
51
180.3158839
0
ARC
8
DEFAULT_255_1_234
10
14.7523205
20
-0.0742392
40
0.7679464
50
157.9802646
51
171.6246686
0
ARC
8
DEFAULT_255_1_234
10
14.5309226
20
0.0140421
40
0.5296008
50
141.4298019
51
157.854097
0
ARC
8
DEFAULT_255_1_234
10
14.4667546
20
0.0594381
40
0.4511509
50
102.8715806
51
140.8564722
0
ARC
8
DEFAULT_255_1_234
10
14.5315162
20
-0.1845448
40
0.7034845
50
90.3778349
51
103.5869322
0
ARC
8
DEFAULT_255_1_234
10
14.3576938
20
-0.245027
40
0.2370698
50
89.8751008
51
126.2071704
0
ARC
8
DEFAULT_255_1_234
10
14.3622728
20
-0.2604697
40
0.2522934
50
124.9745049
51
144.895901
0
ARC
8
DEFAULT_255_1_234
10
14.3446918
20
-0.246144
40
0.2296779
50
145.2974905
51
160.2660252
0
ARC
8
DEFAULT_255_1_234
10
14.6519457
20
-0.2263929
40
0.5234525
50
179.6514266
51
190.2855912
0
ARC
8
DEFAULT_255_1_234
10
14.4825594
20
-0.2583214
40
0.3510893
50
190.0945431
51
207.5098196
0
ARC
8
DEFAULT_255_1_234
10
14.4259864
20
-0.2852377
40
0.288489
50
207.9583163
51
216.3251085
0
ARC
8
DEFAULT_255_1_234
10
14.3919972
20
-0.3131895
40
0.2445587
50
215.7661442
51
232.5456785
0
ARC
8
DEFAULT_255_1_234
10
14.3536955
20
-0.3618518
40
0.1826382
50
232.8005391
51
270.6605633
0
ARC
8
DEFAULT_255_1_234
10
14.3582656
20
-0.3254388
40
0.2190529
50
269.35537
51
288.4744281
0
ARC
8
DEFAULT_255_1_234
10
14.3675553
20
-0.3603882
40
0.1829749
50
289.1833337
51
322.9683818
0
ARC
8
DEFAULT_255_1_234
10
14.3064075
20
-0.3121609
40
0.2608399
50
322.6007884
51
346.5182367
0
ARC
8
DEFAULT_255_1_234
10
14.1906671
20
-0.2826384
40
0.3802777
50
346.2582162
51
358.7741648
0
ARC
8
DEFAULT_255_1_234
10
14.088834
20
-0.2771035
40
0.4822176
50
358.3755224
51
0.0098023
0
ARC
8
DEFAULT_255_1_234
10
14.1644527
20
-0.2743343
40
0.4066078
50
359.6214041
51
11.2839074
0
ARC
8
DEFAULT_255_1_234
10
14.2921674
20
-0.2476934
40
0.2761514
50
11.0482309
51
31.8146458
0
ARC
8
DEFAULT_255_1_234
10
14.3230717
20
-0.2309416
40
0.2410679
50
32.3035391
51
38.082671
0
ARC
8
DEFAULT_255_1_234
10
14.3651377
20
-0.1928338
40
0.1844966
50
36.825067
51
85.7415724
0
ARC
8
DEFAULT_255_1_234
10
14.358421
20
-0.2428699
40
0.2349122
50
85.0140713
51
90.0513278
0
LINE
8
DEFAULT_255_1_234
10
15.7404728
20
0.5181211
11
15.7404728
21
0.3912196
0
LINE
8
DEFAULT_255_1_234
10
15.7404728
20
0.3912196
11
15.3645874
21
0.3912196
0
LINE
8
DEFAULT_255_1_234
10
15.3645874
20
0.3912196
11
15.3645874
21
-0.6513
0
LINE
8
DEFAULT_255_1_234
10
15.3645874
20
-0.6513
11
15.2111812
21
-0.6513
0
LINE
8
DEFAULT_255_1_234
10
15.2111812
20
-0.6513
11
15.2111812
21
0.3912196
0
LINE
8
DEFAULT_255_1_234
10
15.2111812
20
0.3912196
11
14.836099
21
0.3912196
0
LINE
8
DEFAULT_255_1_234
10
14.836099
20
0.3912196
11
14.836099
21
0.5181211
0
LINE
8
DEFAULT_255_1_234
10
14.836099
20
0.5181211
11
15.7404728
21
0.5181211
0
LINE
8
DEFAULT_255_1_234
10
16.2376374
20
-0.6513
11
15.9139583
21
-0.6513
0
LINE
8
DEFAULT_255_1_234
10
15.9139583
20
-0.6513
11
15.9139583
21
0.5181211
0
LINE
8
DEFAULT_255_1_234
10
15.9139583
20
0.5181211
11
16.2440627
21
0.5181211
0
LINE
8
DEFAULT_255_1_234
10
16.7597003
20
-0.0272339
11
16.7597003
21
-0.1019291
0
LINE
8
DEFAULT_255_1_234
10
16.2480786
20
0.3912196
11
16.0681677
21
0.3912196
0
LINE
8
DEFAULT_255_1_234
10
16.0681677
20
0.3912196
11
16.0681677
21
-0.5252017
0
LINE
8
DEFAULT_255_1_234
10
16.0681677
20
-0.5252017
11
16.2304088
21
-0.5252017
0
LINE
8
DEFAULT_255_1_234
10
16.6070973
20
-0.0987164
11
16.6070973
21
-0.0304466
0
ARC
8
DEFAULT_255_1_234
10
16.247957
20
-0.0684106
40
0.5865446
50
75.4101064
51
90.3804066
0
ARC
8
DEFAULT_255_1_234
10
16.2709084
20
0.0272492
40
0.4881916
50
60.145586
51
75.1888407
0
ARC
8
DEFAULT_255_1_234
10
16.2867859
20
0.0549199
40
0.4562893
50
26.5253612
51
60.1450928
0
ARC
8
DEFAULT_255_1_234
10
16.1747608
20
-0.0044842
40
0.5830602
50
7.4030428
51
26.8320788
0
ARC
8
DEFAULT_255_1_234
10
16.0153365
20
-0.0293196
40
0.7443669
50
0.1605367
51
7.7176192
0
ARC
8
DEFAULT_255_1_234
10
16.0317269
20
-0.1057566
40
0.7279835
50
348.7289388
51
0.3012466
0
ARC
8
DEFAULT_255_1_234
10
16.19737
20
-0.1386614
40
0.559104
50
333.0706509
51
348.7181832
0
ARC
8
DEFAULT_255_1_234
10
16.2940458
20
-0.1911681
40
0.4491417
50
299.2531685
51
333.4571258
0
ARC
8
DEFAULT_255_1_234
10
16.2579597
20
-0.1226172
40
0.5265881
50
278.107187
51
299.0339503
0
ARC
8
DEFAULT_255_1_234
10
16.2323676
20
0.0281216
40
0.679442
50
270.4443897
51
278.4511052
0
ARC
8
DEFAULT_255_1_234
10
16.2344506
20
-0.0647787
40
0.4604407
50
269.4970433
51
284.0205042
0
ARC
8
DEFAULT_255_1_234
10
16.2699807
20
-0.2013022
40
0.3193797
50
283.7700273
51
318.1555492
0
ARC
8
DEFAULT_255_1_234
10
16.2362565
20
-0.1760633
40
0.3613588
50
318.7415601
51
343.6873628
0
ARC
8
DEFAULT_255_1_234
10
16.0558589
20
-0.1197168
40
0.5503313
50
343.3325091
51
355.8548958
0
ARC
8
DEFAULT_255_1_234
10
15.8460273
20
-0.0997681
40
0.7610708
50
355.4988528
51
0.0791727
0
ARC
8
DEFAULT_255_1_234
10
15.9242896
20
-0.026222
40
0.6828208
50
359.6455037
51
9.8607896
0
ARC
8
DEFAULT_255_1_234
10
16.1603593
20
0.0164099
40
0.4429406
50
9.6571907
51
26.1932807
0
ARC
8
DEFAULT_255_1_234
10
16.2531582
20
0.0595118
40
0.3406537
50
26.5777228
51
40.1532208
0
ARC
8
DEFAULT_255_1_234
10
16.2787308
20
0.0794619
40
0.308246
50
40.3840491
51
80.1431104
0
ARC
8
DEFAULT_255_1_234
10
16.2460426
20
-0.0654667
40
0.4566909
50
79.2152159
51
89.7445637
0
LINE
8
DEFAULT_255_1_234
10
17.7202962
20
-0.5300208
11
17.7202962
21
-0.6513
0
LINE
8
DEFAULT_255_1_234
10
17.7202962
20
-0.6513
11
16.9540684
21
-0.6513
0
LINE
8
DEFAULT_255_1_234
10
16.9540684
20
-0.6513
11
16.9540684
21
-0.5444779
0
LINE
8
DEFAULT_255_1_234
10
16.9540684
20
-0.5444779
11
17.358868
21
-0.0947005
0
LINE
8
DEFAULT_255_1_234
10
17.0801667
20
0.1735595
11
16.9315795
21
0.1735595
0
LINE
8
DEFAULT_255_1_234
10
17.446414
20
-0.1902782
11
17.1331762
21
-0.5300208
0
LINE
8
DEFAULT_255_1_234
10
17.1331762
20
-0.5300208
11
17.7202962
21
-0.5300208
0
ARC
8
DEFAULT_255_1_234
10
16.0098513
20
1.0982527
40
1.8008286
50
318.5132453
51
320.7828378
0
ARC
8
DEFAULT_255_1_234
10
16.5385488
20
0.6679426
40
1.1191493
50
320.7372736
51
323.9737074
0
ARC
8
DEFAULT_255_1_234
10
16.9305344
20
0.3839361
40
0.6350923
50
323.8961724
51
328.6421089
0
ARC
8
DEFAULT_255_1_234
10
17.135194
20
0.2577031
40
0.3946393
50
328.8299013
51
331.789948
0
ARC
8
DEFAULT_255_1_234
10
17.2349118
20
0.2062509
40
0.2824501
50
331.4255242
51
352.9364833
0
ARC
8
DEFAULT_255_1_234
10
17.2485619
20
0.2031976
40
0.2685315
50
353.2248685
51
0.0169286
0
ARC
8
DEFAULT_255_1_234
10
17.2695496
20
0.205495
40
0.2475536
50
359.4866256
51
15.9339782
0
ARC
8
DEFAULT_255_1_234
10
17.3202481
20
0.2191286
40
0.1950618
50
16.1714718
51
43.5284424
0
ARC
8
DEFAULT_255_1_234
10
17.3279789
20
0.2268573
40
0.184134
50
43.4415429
51
83.1661404
0
ARC
8
DEFAULT_255_1_234
10
17.3145708
20
0.1531771
40
0.258926
50
82.160215
51
90.1505798
0
ARC
8
DEFAULT_255_1_234
10
17.3114135
20
0.0994865
40
0.3126255
50
89.5460705
51
102.5418777
0
ARC
8
DEFAULT_255_1_234
10
17.2871221
20
0.2025665
40
0.2067346
50
102.1739365
51
129.2061916
0
ARC
8
DEFAULT_255_1_234
10
17.2792293
20
0.2150094
40
0.1921118
50
129.7279328
51
135.7542026
0
ARC
8
DEFAULT_255_1_234
10
17.291382
20
0.2053045
40
0.2075944
50
136.175737
51
166.3674722
0
ARC
8
DEFAULT_255_1_234
10
17.392074
20
0.1783182
40
0.3118201
50
165.9092917
51
178.8683903
0
ARC
8
DEFAULT_255_1_234
10
17.4785601
20
0.1736179
40
0.3983935
50
178.438168
51
180.0083905
0
ARC
8
DEFAULT_255_1_234
10
17.3384203
20
0.1775231
40
0.4068601
50
163.2878735
51
180.5581814
0
ARC
8
DEFAULT_255_1_234
10
17.2582464
20
0.199584
40
0.3237344
50
133.454115
51
162.9470031
0
ARC
8
DEFAULT_255_1_234
10
17.2761006
20
0.1806
40
0.349795
50
100.7869394
51
133.4384016
0
ARC
8
DEFAULT_255_1_234
10
17.3108777
20
0.0257319
40
0.5084616
50
89.6605301
51
101.3704185
0
ARC
8
DEFAULT_255_1_234
10
17.3175116
20
0.0318496
40
0.502348
50
78.2171172
51
90.4130393
0
ARC
8
DEFAULT_255_1_234
10
17.3530195
20
0.1942637
40
0.3361092
50
55.9268222
51
78.4888551
0
ARC
8
DEFAULT_255_1_234
10
17.3726635
20
0.2281324
40
0.2970617
50
47.9292255
51
55.4054003
0
ARC
8
DEFAULT_255_1_234
10
17.3828195
20
0.2384502
40
0.2825983
50
4.3347696
51
48.0560701
0
ARC
8
DEFAULT_255_1_234
10
17.2732589
20
0.2214601
40
0.393225
50
359.925209
51
5.5967654
0
ARC
8
DEFAULT_255_1_234
10
17.3161481
20
0.2270816
40
0.3503892
50
337.8914096
51
358.9967724
0
ARC
8
DEFAULT_255_1_234
10
17.0447893
20
0.3317706
40
0.6412172
50
326.9135351
51
338.3505194
0
ARC
8
DEFAULT_255_1_234
10
16.6462197
20
0.5872284
40
1.1146189
50
319.6472867
51
327.095818
0
ARC
8
DEFAULT_255_1_234
10
16.26292
20
0.9034
40
1.6114559
50
317.2586784
51
319.9046139
0
ARC
8
DEFAULT_255_2_778
10
21.9705968
20
168.4064327
40
0.3998203
50
186.2132484
51
214.6493538
0
ARC
8
DEFAULT_255_2_778
10
21.8841482
20
168.3667342
40
0.306577
50
217.73315
51
266.8103771
0
ARC
8
DEFAULT_255_2_778
10
21.9236889
20
168.577346
40
0.5198043
50
263.7489618
51
266.7837018
0
ARC
8
DEFAULT_255_2_778
10
21.9002315
20
168.3832587
40
0.2400661
50
195.3205632
51
268.6379359
0
ARC
8
DEFAULT_255_2_778
10
22.1727069
20
168.5090098
40
0.5383454
50
193.3112816
51
200.5737177
0
ARC
8
DEFAULT_255_2_778
10
21.9557782
20
168.3562585
40
0.3083015
50
141.9315536
51
174.6395313
0
ARC
8
DEFAULT_255_2_778
10
21.8946342
20
168.3821429
40
0.2448175
50
90.025547
51
137.8738944
0
ARC
8
DEFAULT_255_2_778
10
21.8900516
20
168.4002521
40
0.3116405
50
89.1775175
51
162.365692
0
ARC
8
DEFAULT_255_2_778
10
22.1498498
20
168.268457
40
0.6009893
50
157.8900335
51
162.6116752
0
LINE
8
DEFAULT_255_2_778
10
18.967225
20
168.4509604
11
18.967225
21
168.3631604
0
LINE
8
DEFAULT_255_2_778
10
18.967225
20
168.3631604
11
21.573125
21
168.3631604
0
LINE
8
DEFAULT_255_2_778
10
21.894525
20
168.0583604
11
21.894525
21
168.1432604
0
LINE
8
DEFAULT_255_2_778
10
21.894525
20
168.6269604
11
21.894525
21
168.7118604
0
LINE
8
DEFAULT_255_2_778
10
21.576325
20
168.4480604
11
18.973525
21
168.4480604
0
ARC
8
DEFAULT_255_2_778
10
19.6924911
20
169.7365064
40
0.0240119
50
28.9725327
51
103.4850922
0
ARC
8
DEFAULT_255_2_778
10
19.6675258
20
169.5213978
40
0.2392435
50
85.3570436
51
90.3180147
0
ARC
8
DEFAULT_255_2_778
10
19.6830481
20
169.1242259
40
0.7359887
50
91.4445043
51
94.5082143
0
ARC
8
DEFAULT_255_2_778
10
19.6762883
20
169.3495799
40
0.510537
50
90.0204411
51
91.3236595
0
ARC
8
DEFAULT_255_2_778
10
19.6819035
20
169.6251894
40
0.234999
50
77.9191012
51
91.4136047
0
ARC
8
DEFAULT_255_2_778
10
19.7290393
20
169.8214469
40
0.0335995
50
19.4828986
51
86.5059996
0
ARC
8
DEFAULT_255_2_778
10
19.7399806
20
169.829061
40
0.0210433
50
359.8753665
51
9.8287108
0
ARC
8
DEFAULT_255_2_778
10
19.7114031
20
169.8339275
40
0.0498633
50
318.6549341
51
354.3463421
0
ARC
8
DEFAULT_255_2_778
10
19.5933
20
169.9216044
40
0.1968255
50
312.3913188
51
322.2071703
0
ARC
8
DEFAULT_255_2_778
10
19.7074994
20
169.7333784
40
0.0466808
50
7.8211356
51
66.6544263
0
ARC
8
DEFAULT_255_2_778
10
19.5739503
20
169.7055306
40
0.1830194
50
4.3516874
51
10.7699648
0
ARC
8
DEFAULT_255_2_778
10
19.7790881
20
169.7156912
40
0.0229506
50
170.6553415
51
230.4661874
0
ARC
8
DEFAULT_255_2_778
10
19.7669101
20
169.7061667
40
0.0085297
50
253.4430888
51
270.5900942
0
ARC
8
DEFAULT_255_2_778
10
19.6866504
20
169.803095
40
0.0341371
50
13.1090465
51
106.1583193
0
ARC
8
DEFAULT_255_2_778
10
19.6697504
20
169.6580182
40
0.1780193
50
87.6176468
51
90.0490737
0
ARC
8
DEFAULT_255_2_778
10
19.6795828
20
169.8548746
40
0.0666888
50
261.3891358
51
304.5653386
0
ARC
8
DEFAULT_255_2_778
10
19.7083184
20
169.8075951
40
0.0118802
50
319.9940947
51
0.6866831
0
ARC
8
DEFAULT_255_2_778
10
19.6912745
20
169.7794613
40
0.1602765
50
89.8843696
51
180.00852
0
ARC
8
DEFAULT_255_2_778
10
19.6921123
20
169.7796526
40
0.1600857
50
359.923006
51
90.1841118
0
ARC
8
DEFAULT_255_2_778
10
19.6920276
20
169.7792075
40
0.1601705
50
269.8462838
51
0.0822692
0
ARC
8
DEFAULT_255_2_778
10
19.6911681
20
169.7792074
40
0.1601705
50
179.9177057
51
270.1537517
0
ARC
8
DEFAULT_255_2_778
10
19.6944702
20
169.7805588
40
0.1256773
50
179.9900739
51
180.5112141
0
ARC
8
DEFAULT_255_2_778
10
19.6932324
20
169.7806978
40
0.1244397
50
135.616881
51
180.0539568
0
ARC
8
DEFAULT_255_2_778
10
19.6929982
20
169.7809377
40
0.1241046
50
90.5079979
51
135.6204406
0
ARC
8
DEFAULT_255_2_778
10
19.6907186
20
169.7809908
40
0.1240523
50
44.368794
51
89.4552913
0
ARC
8
DEFAULT_255_2_778
10
19.6904635
20
169.7806978
40
0.1244397
50
359.9460432
51
44.383119
0
ARC
8
DEFAULT_255_2_778
10
19.6892256
20
169.7805588
40
0.1256775
50
359.4887859
51
0.0099261
0
ARC
8
DEFAULT_255_2_778
10
19.6892212
20
169.7783161
40
0.1256817
50
359.9900717
51
0.5112118
0
ARC
8
DEFAULT_255_2_778
10
19.6902314
20
169.7781718
40
0.1246718
50
315.6604182
51
0.0563277
0
ARC
8
DEFAULT_255_2_778
10
19.6905411
20
169.778201
40
0.1244709
50
270.6245561
51
315.5511616
0
ARC
8
DEFAULT_255_2_778
10
19.6931761
20
169.7782548
40
0.1245239
50
224.4596468
51
269.4118891
0
ARC
8
DEFAULT_255_2_778
10
19.6934644
20
169.7781718
40
0.1246718
50
179.9436723
51
224.3395818
0
ARC
8
DEFAULT_255_2_778
10
19.6944746
20
169.7783161
40
0.1256819
50
179.4887882
51
180.0099283
0
LINE
8
DEFAULT_255_2_778
10
19.7671979
20
169.6979375
11
19.7262979
21
169.6979375
0
LINE
8
DEFAULT_255_2_778
10
19.7262979
20
169.6979375
11
19.7134979
21
169.7481375
0
LINE
8
DEFAULT_255_2_778
10
19.6661979
20
169.7606375
11
19.6661979
21
169.6979375
0
LINE
8
DEFAULT_255_2_778
10
19.6661979
20
169.6979375
11
19.6283979
21
169.6979375
0
LINE
8
DEFAULT_255_2_778
10
19.6283979
20
169.6979375
11
19.6251979
21
169.8579375
0
LINE
8
DEFAULT_255_2_778
10
19.7669979
20
169.6976375
11
19.7671979
21
169.6979375
0
LINE
8
DEFAULT_255_2_778
10
19.6695979
20
169.8360375
11
19.6695979
21
169.7889375
0
LINE
8
DEFAULT_255_2_778
10
19.5309979
20
169.7794375
11
19.5309979
21
169.7794375
0
LINE
8
DEFAULT_255_2_778
10
19.5687979
20
169.7794375
11
19.5687979
21
169.7794375
0
ARC
8
DEFAULT_255_2_778
10
19.5739995
20
168.7132562
40
0.4679169
50
114.816099
51
123.1671443
0
ARC
8
DEFAULT_255_2_778
10
19.524052
20
168.8221633
40
0.3481031
50
104.1803266
51
114.8776204
0
ARC
8
DEFAULT_255_2_778
10
19.5023429
20
168.9094534
40
0.2581547
50
90.3368173
51
104.2549448
0
ARC
8
DEFAULT_255_2_778
10
19.5036163
20
168.9835304
40
0.1840945
50
63.1258397
51
90.8686801
0
ARC
8
DEFAULT_255_2_778
10
19.5291143
20
169.0307442
40
0.1304613
50
15.1320717
51
63.7415875
0
ARC
8
DEFAULT_255_2_778
10
19.5491883
20
169.0386768
40
0.1090393
50
0.0473462
51
13.8618027
0
ARC
8
DEFAULT_255_2_778
10
19.5515456
20
169.0387625
40
0.1066819
50
356.2550712
51
0.0023505
0
ARC
8
DEFAULT_255_2_778
10
19.5419228
20
169.0412506
40
0.1164614
50
310.1750055
51
355.3427743
0
ARC
8
DEFAULT_255_2_778
10
19.4908137
20
169.0985087
40
0.1931944
50
288.8572085
51
310.8015881
0
ARC
8
DEFAULT_255_2_778
10
19.4433414
20
169.230877
40
0.3338085
50
275.3110996
51
289.2247685
0
ARC
8
DEFAULT_255_2_778
10
19.4242391
20
169.39378
40
0.4977958
50
269.8679804
51
275.7647658
0
ARC
8
DEFAULT_255_2_778
10
19.4233676
20
169.503531
40
0.6075455
50
267.4793058
51
269.9740161
0
ARC
8
DEFAULT_255_2_778
10
19.4257943
20
169.5638112
40
0.6678741
50
266.4216467
51
267.4987577
0
ARC
8
DEFAULT_255_2_778
10
19.422452
20
168.2720134
40
0.5604389
50
91.0217468
51
93.9229074
0
ARC
8
DEFAULT_255_2_778
10
19.421632
20
168.306433
40
0.5260103
50
90.0043513
51
90.9992991
0
ARC
8
DEFAULT_255_2_778
10
19.4248572
20
168.4100358
40
0.4224201
50
76.9825049
51
90.4428784
0
ARC
8
DEFAULT_255_2_778
10
19.4590596
20
168.5533148
40
0.275121
50
58.6325554
51
77.2011897
0
ARC
8
DEFAULT_255_2_778
10
19.5161406
20
168.6439596
40
0.1680195
50
29.9877642
51
59.1630288
0
ARC
8
DEFAULT_255_2_778
10
19.5599511
20
168.6713921
40
0.1163776
50
9.0489212
51
29.0705153
0
ARC
8
DEFAULT_255_2_778
10
19.5730912
20
168.6740276
40
0.1029877
50
0.0324126
51
8.7506937
0
ARC
8
DEFAULT_255_2_778
10
19.5688012
20
168.6759846
40
0.1072945
50
305.5021173
51
358.9859994
0
ARC
8
DEFAULT_255_2_778
10
19.5189388
20
168.7396115
40
0.1880848
50
283.9052409
51
306.6117621
0
ARC
8
DEFAULT_255_2_778
10
19.4842897
20
168.8691786
40
0.3221912
50
270.2533372
51
284.3492228
0
ARC
8
DEFAULT_255_2_778
10
19.4797621
20
168.9647522
40
0.4178041
50
269.9968243
51
270.8162745
0
ARC
8
DEFAULT_255_2_778
10
19.4811269
20
169.0381966
40
0.4912505
50
263.1637922
51
269.8381166
0
ARC
8
DEFAULT_255_2_778
10
19.4991981
20
169.1917433
40
0.6458567
50
257.6179181
51
263.1934389
0
ARC
8
DEFAULT_255_2_778
10
19.5387802
20
169.3735151
40
0.831888
50
252.9189114
51
257.6396732
0
ARC
8
DEFAULT_255_2_778
10
19.5797461
20
169.511657
40
0.9759703
50
251.5522315
51
253.0020903
0
ARC
8
DEFAULT_255_2_778
10
19.5248934
20
169.0632091
40
0.6169724
50
245.6907954
51
253.3086054
0
ARC
8
DEFAULT_255_2_778
10
19.4937986
20
168.9589052
40
0.5081326
50
253.2890695
51
262.3539513
0
ARC
8
DEFAULT_255_2_778
10
19.4835519
20
168.8861064
40
0.4346178
50
262.4158537
51
269.9226498
0
ARC
8
DEFAULT_255_2_778
10
19.4858877
20
168.8088156
40
0.3573384
50
269.531384
51
291.1392741
0
ARC
8
DEFAULT_255_2_778
10
19.5139103
20
168.7385904
40
0.2817342
50
290.9743163
51
319.8315111
0
ARC
8
DEFAULT_255_2_778
10
19.5703324
20
168.6922128
40
0.208706
50
319.5693811
51
352.147275
0
ARC
8
DEFAULT_255_2_778
10
19.6080843
20
168.6841331
40
0.170228
50
353.1052432
51
359.9694768
0
ARC
8
DEFAULT_255_2_778
10
19.619217
20
168.6840923
40
0.1590954
50
359.9820323
51
48.1680262
0
ARC
8
DEFAULT_255_2_778
10
19.5685344
20
168.6291109
40
0.2338675
50
47.8999999
51
68.5994477
0
ARC
8
DEFAULT_255_2_778
10
19.515911
20
168.5003112
40
0.3729934
50
68.2925482
51
81.2254538
0
ARC
8
DEFAULT_255_2_778
10
19.5841972
20
169.0168084
40
0.148307
50
265.5964328
51
269.9780427
0
ARC
8
DEFAULT_255_2_778
10
19.5760096
20
169.0234336
40
0.1551453
50
273.004087
51
349.8612615
0
ARC
8
DEFAULT_255_2_778
10
19.5123628
20
169.0525954
40
0.2236176
50
345.3721348
51
359.9751256
0
ARC
8
DEFAULT_255_2_778
10
19.5339585
20
169.0524983
40
0.2020219
50
4e-7
51
0.2280423
0
ARC
8
DEFAULT_255_2_778
10
19.5597555
20
169.0596481
40
0.1763376
50
357.9376831
51
63.2925076
0
ARC
8
DEFAULT_255_2_778
10
19.5460136
20
169.0181165
40
0.2197074
50
64.9591354
51
87.7288567
0
ARC
8
DEFAULT_255_2_778
10
19.538318
20
168.9402926
40
0.2978108
50
86.8427678
51
90.0256913
0
ARC
8
DEFAULT_255_2_778
10
19.5400484
20
168.8650446
40
0.3730632
50
90.2862735
51
99.8078285
0
ARC
8
DEFAULT_255_2_778
10
19.5660703
20
168.7108047
40
0.5294817
50
99.7394106
51
106.9636812
0
ARC
8
DEFAULT_255_2_778
10
19.623885
20
168.5185819
40
0.7302097
50
106.9021021
51
112.2967575
0
ARC
8
DEFAULT_255_2_778
10
19.7194539
20
168.2847038
40
0.9828604
50
112.2786278
51
116.8488609
0
LINE
8
DEFAULT_255_2_778
10
19.2755562
20
169.1616129
11
19.27541
21
169.1615392
0
LINE
8
DEFAULT_255_2_778
10
19.38411
20
168.8972392
11
19.38411
21
168.8311392
0
LINE
8
DEFAULT_255_2_778
10
19.27091
20
168.5858392
11
19.27091
21
168.5009392
0
LINE
8
DEFAULT_255_2_778
10
19.27541
20
169.1615392
11
19.32251
21
169.1001392
0
ARC
8
DEFAULT_255_2_778
10
21.6488206
20
168.8479013
40
0.5330281
50
158.8297779
51
180.8126209
0
ARC
8
DEFAULT_255_2_778
10
21.343991
20
168.9740829
40
0.2033429
50
124.0119958
51
160.9659866
0
ARC
8
DEFAULT_255_2_778
10
21.2740044
20
169.067462
40
0.0869831
50
90.4994457
51
120.2017555
0
ARC
8
DEFAULT_255_2_778
10
21.259695
20
169.0290586
40
0.1261132
50
24.6798401
51
83.8315083
0
ARC
8
DEFAULT_255_2_778
10
21.0022098
20
168.873952
40
0.4261556
50
6.130385
51
29.1785479
0
ARC
8
DEFAULT_255_2_778
10
20.8145698
20
168.8409702
40
0.6163766
50
359.941576
51
7.3161118
0
ARC
8
DEFAULT_255_2_778
10
20.8987917
20
168.8327366
40
0.5322088
50
338.8055679
51
0.8187669
0
ARC
8
DEFAULT_255_2_778
10
21.2030615
20
168.7066684
40
0.203082
50
303.9150541
51
340.932466
0
ARC
8
DEFAULT_255_2_778
10
21.2725052
20
168.6137902
40
0.0874515
50
270.4854298
51
300.1080748
0
ARC
8
DEFAULT_255_2_778
10
21.2868786
20
168.6520041
40
0.1263997
50
204.3281643
51
263.8084993
0
ARC
8
DEFAULT_255_2_778
10
21.5494907
20
168.8080123
40
0.4313014
50
185.613152
51
208.8453558
0
ARC
8
DEFAULT_255_2_778
10
21.7379678
20
168.8397819
40
0.6221217
50
179.9484445
51
186.8272745
0
ARC
8
DEFAULT_255_2_778
10
21.5393129
20
168.8444048
40
0.5243157
50
152.5254433
51
180.7827883
0
ARC
8
DEFAULT_255_2_778
10
21.3135207
20
168.9718837
40
0.2653266
50
108.4095367
51
154.4544086
0
ARC
8
DEFAULT_255_2_778
10
21.2764902
20
169.0506783
40
0.1791635
50
90.0140927
51
105.1293658
0
ARC
8
DEFAULT_255_2_778
10
21.2620587
20
168.9989205
40
0.231369
50
28.2822033
51
86.4348199
0
ARC
8
DEFAULT_255_2_778
10
21.0415486
20
168.8517258
40
0.4959362
50
2.837394
51
31.1881489
0
ARC
8
DEFAULT_255_2_778
10
20.9400984
20
168.8373304
40
0.5980477
50
359.9914968
51
3.7337628
0
ARC
8
DEFAULT_255_2_778
10
21.0133925
20
168.8301164
40
0.524802
50
332.6504535
51
0.7779361
0
ARC
8
DEFAULT_255_2_778
10
21.2392804
20
168.7031026
40
0.265965
50
288.44039
51
334.5981325
0
ARC
8
DEFAULT_255_2_778
10
21.2764066
20
168.6243438
40
0.1798021
50
270.0125899
51
285.1541198
0
ARC
8
DEFAULT_255_2_778
10
21.29065
20
168.6751186
40
0.2310141
50
208.1688806
51
266.4749618
0
ARC
8
DEFAULT_255_2_778
10
21.5126878
20
168.8225235
40
0.4969751
50
182.8019459
51
211.0671432
0
ARC
8
DEFAULT_255_2_778
10
21.6166146
20
168.8371537
40
0.6015684
50
179.9916184
51
183.7098813
0
LINE
8
DEFAULT_255_2_778
10
21.1158462
20
168.8403417
11
21.1158462
21
168.8403417
0
LINE
8
DEFAULT_255_2_778
10
21.0150462
20
168.8372417
11
21.0150462
21
168.8372417
0
ARC
8
DEFAULT_255_2_778
10
21.0564338
20
168.8479013
40
0.5330281
50
158.8297779
51
180.8126209
0
ARC
8
DEFAULT_255_2_778
10
20.7516043
20
168.9740829
40
0.2033429
50
124.0119958
51
160.9659866
0
ARC
8
DEFAULT_255_2_778
10
20.6816176
20
169.067462
40
0.0869831
50
90.4994457
51
120.2017555
0
ARC
8
DEFAULT_255_2_778
10
20.6673082
20
169.0290586
40
0.1261132
50
24.6798401
51
83.8315083
0
ARC
8
DEFAULT_255_2_778
10
20.4098231
20
168.873952
40
0.4261556
50
6.130385
51
29.1785479
0
ARC
8
DEFAULT_255_2_778
10
20.2221831
20
168.8409702
40
0.6163766
50
359.941576
51
7.3161118
0
ARC
8
DEFAULT_255_2_778
10
20.3064049
20
168.8327366
40
0.5322088
50
338.8055679
51
0.8187669
0
ARC
8
DEFAULT_255_2_778
10
20.6106747
20
168.7066684
40
0.203082
50
303.9150541
51
340.932466
0
ARC
8
DEFAULT_255_2_778
10
20.6801185
20
168.6137902
40
0.0874515
50
270.4854298
51
300.1080748
0
ARC
8
DEFAULT_255_2_778
10
20.6944918
20
168.6520041
40
0.1263997
50
204.3281643
51
263.8084993
0
ARC
8
DEFAULT_255_2_778
10
20.9571039
20
168.8080123
40
0.4313014
50
185.613152
51
208.8453558
0
ARC
8
DEFAULT_255_2_778
10
21.145581
20
168.8397819
40
0.6221217
50
179.9484445
51
186.8272745
0
ARC
8
DEFAULT_255_2_778
10
20.9469261
20
168.8444048
40
0.5243157
50
152.5254433
51
180.7827883
0
ARC
8
DEFAULT_255_2_778
10
20.7211339
20
168.9718837
40
0.2653266
50
108.4095367
51
154.4544086
0
ARC
8
DEFAULT_255_2_778
10
20.6841034
20
169.0506783
40
0.1791635
50
90.0140927
51
105.1293658
0
ARC
8
DEFAULT_255_2_778
10
20.6696719
20
168.9989205
40
0.231369
50
28.2822033
51
86.4348199
0
ARC
8
DEFAULT_255_2_778
10
20.4491618
20
168.8517258
40
0.4959362
50
2.837394
51
31.1881489
0
ARC
8
DEFAULT_255_2_778
10
20.3477116
20
168.8373304
40
0.5980477
50
359.9914968
51
3.7337628
0
ARC
8
DEFAULT_255_2_778
10
20.4210058
20
168.8301164
40
0.524802
50
332.6504535
51
0.7779361
0
ARC
8
DEFAULT_255_2_778
10
20.6468936
20
168.7031026
40
0.265965
50
288.44039
51
334.5981325
0
ARC
8
DEFAULT_255_2_778
10
20.6840199
20
168.6243438
40
0.1798021
50
270.0125899
51
285.1541198
0
ARC
8
DEFAULT_255_2_778
10
20.6982632
20
168.6751186
40
0.2310141
50
208.1688806
51
266.4749618
0
ARC
8
DEFAULT_255_2_778
10
20.920301
20
168.8225235
40
0.4969751
50
182.8019459
51
211.0671432
0
ARC
8
DEFAULT_255_2_778
10
21.0242279
20
168.8371537
40
0.6015684
50
179.9916184
51
183.7098813
0
LINE
8
DEFAULT_255_2_778
10
20.5234594
20
168.8403417
11
20.5234594
21
168.8403417
0
LINE
8
DEFAULT_255_2_778
10
20.4226594
20
168.8372417
11
20.4226594
21
168.8372417
0
ARC
8
DEFAULT_255_2_778
10
20.4640338
20
168.8479013
40
0.5330281
50
158.8297779
51
180.8126209
0
ARC
8
DEFAULT_255_2_778
10
20.1592043
20
168.9740829
40
0.2033429
50
124.0119958
51
160.9659866
0
ARC
8
DEFAULT_255_2_778
10
20.0892176
20
169.067462
40
0.0869831
50
90.4994457
51
120.2017555
0
ARC
8
DEFAULT_255_2_778
10
20.0749082
20
169.0290586
40
0.1261132
50
24.6798401
51
83.8315083
0
ARC
8
DEFAULT_255_2_778
10
19.8174231
20
168.873952
40
0.4261556
50
6.130385
51
29.1785479
0
ARC
8
DEFAULT_255_2_778
10
19.6297831
20
168.8409702
40
0.6163766
50
359.941576
51
7.3161118
0
ARC
8
DEFAULT_255_2_778
10
19.7140049
20
168.8327366
40
0.5322088
50
338.8055679
51
0.8187669
0
ARC
8
DEFAULT_255_2_778
10
20.0182747
20
168.7066684
40
0.203082
50
303.9150541
51
340.932466
0
ARC
8
DEFAULT_255_2_778
10
20.0877185
20
168.6137902
40
0.0874515
50
270.4854298
51
300.1080748
0
ARC
8
DEFAULT_255_2_778
10
20.1020918
20
168.6520041
40
0.1263997
50
204.3281643
51
263.8084993
0
ARC
8
DEFAULT_255_2_778
10
20.3647039
20
168.8080123
40
0.4313014
50
185.613152
51
208.8453558
0
ARC
8
DEFAULT_255_2_778
10
20.553181
20
168.8397819
40
0.6221217
50
179.9484445
51
186.8272745
0
ARC
8
DEFAULT_255_2_778
10
20.3542427
20
168.8444257
40
0.5240325
50
152.511927
51
180.7855003
0
ARC
8
DEFAULT_255_2_778
10
20.1281483
20
168.9723056
40
0.264594
50
107.9689651
51
154.4798484
0
ARC
8
DEFAULT_255_2_778
10
20.0919909
20
169.0501433
40
0.1796984
50
90.01006
51
104.6572928
0
ARC
8
DEFAULT_255_2_778
10
20.0777541
20
168.9992502
40
0.2310286
50
28.1748595
51
86.4748124
0
ARC
8
DEFAULT_255_2_778
10
19.8559078
20
168.8519241
40
0.4967862
50
2.8051578
51
31.0734515
0
ARC
8
DEFAULT_255_2_778
10
19.7523096
20
168.8373293
40
0.6010497
50
359.9916466
51
3.711491
0
ARC
8
DEFAULT_255_2_778
10
19.8283191
20
168.8301382
40
0.5250883
50
332.6639313
51
0.7751279
0
ARC
8
DEFAULT_255_2_778
10
20.0541076
20
168.703345
40
0.2664398
50
288.748604
51
334.5889087
0
ARC
8
DEFAULT_255_2_778
10
20.091909
20
168.6237814
40
0.1792398
50
270.0161048
51
285.4790874
0
ARC
8
DEFAULT_255_2_778
10
20.1063274
20
168.6755162
40
0.231421
50
208.2265906
51
266.4404307
0
ARC
8
DEFAULT_255_2_778
10
20.327262
20
168.8227124
40
0.4963409
50
182.827365
51
211.1367331
0
ARC
8
DEFAULT_255_2_778
10
20.4293456
20
168.8371562
40
0.5990863
50
179.9918267
51
183.7255174
0
LINE
8
DEFAULT_255_2_778
10
19.9310594
20
168.8403417
11
19.9310594
21
168.8403417
0
LINE
8
DEFAULT_255_2_778
10
19.8302594
20
168.8372417
11
19.8302594
21
168.8372417
0
ARC
8
DEFAULT_255_2_778
10
22.0340737
20
168.3894444
40
0.1933064
50
91.2007449
51
181.3742454
0
ARC
8
DEFAULT_255_2_778
10
22.0259721
20
168.3894444
40
0.1933064
50
358.6257546
51
88.7992551
0
ARC
8
DEFAULT_255_2_778
10
22.0260368
20
168.3801105
40
0.1932432
50
271.1819413
51
1.3930197
0
ARC
8
DEFAULT_255_2_778
10
22.0340093
20
168.3801106
40
0.1932434
50
178.6070028
51
268.8179775
0
LINE
8
DEFAULT_255_2_778
10
21.8408229
20
168.3848083
11
21.8408229
21
168.3848083
0
ARC
8
DEFAULT_255_2_778
10
22.5002079
20
168.3895071
40
0.1932422
50
91.1816293
51
181.3933249
0
ARC
8
DEFAULT_255_2_778
10
22.4921721
20
168.3894444
40
0.1933064
50
358.6257546
51
88.7992551
0
ARC
8
DEFAULT_255_2_778
10
22.4922368
20
168.3801105
40
0.1932432
50
271.1819413
51
1.3930197
0
ARC
8
DEFAULT_255_2_778
10
22.5001435
20
168.3800476
40
0.193179
50
178.5878493
51
268.8370891
0
LINE
8
DEFAULT_255_2_778
10
22.3070229
20
168.3848083
11
22.3070229
21
168.3848083
0
ARC
8
DEFAULT_255_2_778
10
22.9667079
20
168.4022071
40
0.1932422
50
91.1816293
51
181.3933249
0
ARC
8
DEFAULT_255_2_778
10
22.9586721
20
168.4021444
40
0.1933064
50
358.6257546
51
88.7992551
0
ARC
8
DEFAULT_255_2_778
10
22.9587368
20
168.3928105
40
0.1932432
50
271.1819413
51
1.3930197
0
ARC
8
DEFAULT_255_2_778
10
22.9666435
20
168.3927476
40
0.193179
50
178.5878493
51
268.8370891
0
LINE
8
DEFAULT_255_2_778
10
22.7735229
20
168.3975083
11
22.7735229
21
168.3975083
0
LINE
8
DEFAULT_255_2_778
10
21.8953365
20
168.141124
11
21.8662365
21
168.145924
0
LINE
8
DEFAULT_255_2_778
10
21.8662365
20
168.145924
11
21.8056365
21
168.155724
0
LINE
8
DEFAULT_255_2_778
10
21.8056365
20
168.155724
11
21.7296365
21
168.213924
0
LINE
8
DEFAULT_255_2_778
10
21.7296365
20
168.213924
11
21.6725365
21
168.289624
0
LINE
8
DEFAULT_255_2_778
10
21.6725365
20
168.289624
11
21.6473365
21
168.383024
0
LINE
8
DEFAULT_255_2_778
10
21.6473365
20
168.383024
11
21.6725365
21
168.476624
0
LINE
8
DEFAULT_255_2_778
10
21.6725365
20
168.476624
11
21.7291365
21
168.553424
0
LINE
8
DEFAULT_255_2_778
10
21.7291365
20
168.553424
11
21.8050365
21
168.612924
0
LINE
8
DEFAULT_255_2_778
10
21.8050365
20
168.612924
11
21.8662365
21
168.622924
0
LINE
8
DEFAULT_255_2_778
10
21.8662365
20
168.622924
11
21.8955365
21
168.627724
0
LINE
8
DEFAULT_255_2_778
10
21.8955365
20
168.058124
11
21.8543365
21
168.063624
0
LINE
8
DEFAULT_255_2_778
10
21.8543365
20
168.063624
11
21.7704365
21
168.075024
0
LINE
8
DEFAULT_255_2_778
10
21.7704365
20
168.075024
11
21.6680365
21
168.149624
0
LINE
8
DEFAULT_255_2_778
10
21.6680365
20
168.149624
11
21.5947365
21
168.248324
0
LINE
8
DEFAULT_255_2_778
10
21.5947365
20
168.248324
11
21.5730365
21
168.363924
0
ARC
8
DEFAULT_255_2_778
10
8.4839378
20
169.3808433
40
0.4373747
50
56.3665942
51
72.7074496
0
ARC
8
DEFAULT_255_2_778
10
8.5212053
20
169.4944036
40
0.3178747
50
73.036784
51
89.7973226
0
ARC
8
DEFAULT_255_2_778
10
8.5285513
20
169.4720167
40
0.3403165
50
91.0475309
51
125.5485458
0
ARC
8
DEFAULT_255_2_778
10
8.6942904
20
169.2231582
40
0.6392287
50
124.6669492
51
139.114563
0
ARC
8
DEFAULT_255_2_778
10
8.9357319
20
168.9997476
40
0.9680575
50
138.4713305
51
142.1157612
0
ARC
8
DEFAULT_255_2_778
10
8.5582787
20
169.0304798
40
0.5212765
50
117.7453356
51
135.8758074
0
ARC
8
DEFAULT_255_2_778
10
8.4611378
20
169.2128273
40
0.3146729
50
90.4656379
51
117.5483702
0
ARC
8
DEFAULT_255_2_778
10
8.4550272
20
169.1975634
40
0.3299454
50
64.3679478
51
89.3829577
0
ARC
8
DEFAULT_255_2_778
10
8.4227062
20
169.1159901
40
0.4175182
50
64.8738747
51
65.2115951
0
LINE
8
DEFAULT_255_2_778
10
8.1716896
20
169.5942008
11
8.1716896
21
169.7702008
0
LINE
8
DEFAULT_255_2_778
10
8.1716896
20
169.7702008
11
7.8313896
21
169.7702008
0
LINE
8
DEFAULT_255_2_778
10
7.8313896
20
169.7702008
11
7.8313896
21
168.5515008
0
LINE
8
DEFAULT_255_2_778
10
7.8313896
20
168.5515008
11
8.1967896
21
168.5515008
0
LINE
8
DEFAULT_255_2_778
10
8.1967896
20
168.5515008
11
8.1840896
21
169.3934008
0
LINE
8
DEFAULT_255_2_778
10
8.5999896
20
169.4940008
11
8.7261896
21
169.7450008
0
ARC
8
DEFAULT_255_2_778
10
12.3459297
20
168.9389166
40
0.1058286
50
290.4109967
51
338.4144294
0
ARC
8
DEFAULT_255_2_778
10
12.161995
20
169.308021
40
0.5177505
50
282.5203845
51
295.2483499
0
ARC
8
DEFAULT_255_2_778
10
12.2164596
20
169.1746179
40
0.3756367
50
270.2518229
51
277.9224239
0
ARC
8
DEFAULT_255_2_778
10
12.2019255
20
168.9621058
40
0.163922
50
191.9135594
51
275.6664103
0
ARC
8
DEFAULT_255_2_778
10
12.266424
20
169.0896972
40
0.6680449
50
207.8643513
51
221.7718618
0
ARC
8
DEFAULT_255_2_778
10
12.0489477
20
168.8832613
40
0.3684417
50
220.3588923
51
270.0277924
0
ARC
8
DEFAULT_255_2_778
10
12.0434926
20
169.0153085
40
0.5005206
50
270.6449322
51
287.6494066
0
ARC
8
DEFAULT_255_2_778
10
11.9529907
20
169.3112608
40
0.8099892
50
287.4026496
51
297.6988649
0
ARC
8
DEFAULT_255_2_778
10
11.7449905
20
169.7144576
40
1.2636684
50
297.5514274
51
304.3018591
0
LINE
8
DEFAULT_255_2_778
10
12.0415344
20
168.9282664
11
12.0351344
21
169.7762664
0
LINE
8
DEFAULT_255_2_778
10
12.0351344
20
169.7762664
11
11.6758344
21
169.7762664
0
LINE
8
DEFAULT_255_2_778
10
11.6758344
20
169.7762664
11
11.6758344
21
168.7774664
0
LINE
8
DEFAULT_255_2_778
10
12.4571344
20
168.6705664
11
12.4698344
21
168.5575664
0
LINE
8
DEFAULT_255_2_778
10
12.4698344
20
168.5575664
11
12.8101344
21
168.5575664
0
LINE
8
DEFAULT_255_2_778
10
12.8101344
20
168.5575664
11
12.8101344
21
169.7889664
0
LINE
8
DEFAULT_255_2_778
10
12.8101344
20
169.7889664
11
12.4444344
21
169.7889664
0
LINE
8
DEFAULT_255_2_778
10
12.4444344
20
169.7889664
11
12.4444344
21
168.8967664
0
LINE
8
DEFAULT_255_2_778
10
15.1797344
20
168.5512664
11
15.1797344
21
169.7826664
0
LINE
8
DEFAULT_255_2_778
10
15.1797344
20
169.7826664
11
15.5453344
21
169.7826664
0
LINE
8
DEFAULT_255_2_778
10
15.5453344
20
169.7826664
11
15.5453344
21
168.5512664
0
LINE
8
DEFAULT_255_2_778
10
15.5453344
20
168.5512664
11
15.1797344
21
168.5512664
0
ARC
8
DEFAULT_255_2_778
10
15.3647435
20
170.175366
40
0.1978332
50
90.7257917
51
180.9507563
0
ARC
8
DEFAULT_255_2_778
10
15.3597161
20
170.1754493
40
0.1977501
50
359.0247012
51
89.2694187
0
ARC
8
DEFAULT_255_2_778
10
15.3597161
20
170.1687174
40
0.1977501
50
270.7305813
51
0.9752988
0
ARC
8
DEFAULT_255_2_778
10
15.3647435
20
170.1688007
40
0.1978332
50
179.0492437
51
269.2742083
0
LINE
8
DEFAULT_255_2_778
10
15.1669375
20
170.1720833
11
15.1669375
21
170.1720833
0
LINE
8
DEFAULT_255_2_778
10
16.8727729
20
168.5479854
11
16.8727729
21
169.7793854
0
LINE
8
DEFAULT_255_2_778
10
16.8727729
20
169.7793854
11
17.2384729
21
169.7793854
0
LINE
8
DEFAULT_255_2_778
10
17.2384729
20
169.7793854
11
17.2384729
21
168.5479854
0
LINE
8
DEFAULT_255_2_778
10
17.2384729
20
168.5479854
11
16.8727729
21
168.5479854
0
ARC
8
DEFAULT_255_2_778
10
17.0581435
20
170.172166
40
0.1978332
50
90.7257917
51
180.9507563
0
ARC
8
DEFAULT_255_2_778
10
17.0531161
20
170.1722493
40
0.1977501
50
359.0247012
51
89.2694187
0
ARC
8
DEFAULT_255_2_778
10
17.0531161
20
170.1655174
40
0.1977501
50
270.7305813
51
0.9752988
0
ARC
8
DEFAULT_255_2_778
10
17.0581435
20
170.1656007
40
0.1978332
50
179.0492437
51
269.2742083
0
LINE
8
DEFAULT_255_2_778
10
16.8603375
20
170.1688833
11
16.8603375
21
170.1688833
0
ARC
8
DEFAULT_255_2_778
10
13.7517901
20
168.9609013
40
0.434232
50
284.0737984
51
307.1283935
0
ARC
8
DEFAULT_255_2_778
10
13.660277
20
169.2974778
40
0.7829896
50
272.5675489
51
284.5802087
0
ARC
8
DEFAULT_255_2_778
10
13.6343582
20
169.6563726
40
1.1427274
50
269.9523961
51
273.0596894
0
ARC
8
DEFAULT_255_2_778
10
13.6382461
20
170.0380502
40
1.5244123
50
264.3721605
51
269.8181894
0
ARC
8
DEFAULT_255_2_778
10
13.7027307
20
170.7098242
40
2.1992727
50
260.3040359
51
264.4165702
0
ARC
8
DEFAULT_255_2_778
10
13.7920328
20
171.2622479
40
2.75885
50
259.2299789
51
260.4081406
0
ARC
8
DEFAULT_255_2_778
10
13.5129832
20
169.1118106
40
0.6077178
50
188.8927198
51
247.0988028
0
ARC
8
DEFAULT_255_2_778
10
13.8555322
20
169.202954
40
0.9609548
50
185.1081288
51
191.1050073
0
ARC
8
DEFAULT_255_2_778
10
13.7233219
20
169.1304493
40
0.8250312
50
161.5072483
51
180.9066349
0
ARC
8
DEFAULT_255_2_778
10
13.474388
20
169.209195
40
0.5639907
50
120.4701872
51
161.0725957
0
ARC
8
DEFAULT_255_2_778
10
13.5600359
20
169.1424593
40
0.6661417
50
90.0499347
51
123.9108507
0
ARC
8
DEFAULT_255_2_778
10
13.5729457
20
168.9859303
40
0.8227812
50
89.9974966
51
90.9394619
0
ARC
8
DEFAULT_255_2_778
10
13.5669956
20
168.8248917
40
0.9838382
50
77.8335832
51
89.6513936
0
ARC
8
DEFAULT_255_2_778
10
13.4795112
20
168.4069877
40
1.4107957
50
69.8093959
51
77.9373312
0
ARC
8
DEFAULT_255_2_778
10
13.3759492
20
168.1052231
40
1.7297745
50
69.0266426
51
70.0397415
0
ARC
8
DEFAULT_255_2_778
10
13.5343166
20
168.1271487
40
1.4359408
50
73.9178594
51
79.2452957
0
ARC
8
DEFAULT_255_2_778
10
13.6318162
20
168.6474429
40
0.9065925
50
79.1629935
51
86.6049203
0
ARC
8
DEFAULT_255_2_778
10
13.6498447
20
168.8987653
40
0.654651
50
86.8774046
51
89.9568351
0
ARC
8
DEFAULT_255_2_778
10
13.6423726
20
169.1360348
40
0.4174572
50
88.9067133
51
108.0688095
0
ARC
8
DEFAULT_255_2_778
10
13.5851449
20
169.3097782
40
0.2345328
50
107.942404
51
152.2459688
0
ARC
8
DEFAULT_255_2_778
10
14.2992743
20
168.9795195
40
1.0210941
50
154.5072776
51
162.5682748
0
ARC
8
DEFAULT_255_2_778
10
13.9273295
20
169.0942637
40
0.6318603
50
162.3915767
51
174.8213024
0
ARC
8
DEFAULT_255_2_778
10
13.7621865
20
169.1130744
40
0.4657093
50
175.2922289
51
179.9490984
0
ARC
8
DEFAULT_255_2_778
10
13.6350307
20
169.1056851
40
0.338643
50
178.6796766
51
234.9381893
0
ARC
8
DEFAULT_255_2_778
10
13.632674
20
169.11735
40
0.3469445
50
236.3635337
51
264.9414885
0
ARC
8
DEFAULT_255_2_778
10
13.6587382
20
169.2928364
40
0.5241505
50
263.7947872
51
270.1188666
0
ARC
8
DEFAULT_255_2_778
10
13.6534653
20
169.5302235
40
0.7615633
50
270.4785196
51
281.0719661
0
ARC
8
DEFAULT_255_2_778
10
13.5691544
20
169.9840841
40
1.2231753
50
280.8649891
51
287.2606546
0
ARC
8
DEFAULT_255_2_778
10
14.6238917
20
170.8170098
40
2.2970478
50
276.5245429
51
279.5045514
0
ARC
8
DEFAULT_255_2_778
10
14.6892816
20
170.2393746
40
1.7157236
50
272.7759418
51
276.5469051
0
ARC
8
DEFAULT_255_2_778
10
14.7090708
20
169.8591172
40
1.3349546
50
270.0439674
51
272.7180028
0
ARC
8
DEFAULT_255_2_778
10
14.7004544
20
169.3909578
40
0.8668484
50
258.6359382
51
270.6372354
0
ARC
8
DEFAULT_255_2_778
10
14.6077963
20
168.9550325
40
0.4212409
50
235.5405817
51
259.3086539
0
ARC
8
DEFAULT_255_2_778
10
14.5467089
20
168.8477012
40
0.2983588
50
181.5929591
51
233.550276
0
ARC
8
DEFAULT_255_2_778
10
14.744928
20
168.8776621
40
0.4979343
50
179.9387066
51
184.4062155
0
ARC
8
DEFAULT_255_2_778
10
14.8384963
20
168.9737319
40
0.2332136
50
194.3846046
51
259.805052
0
ARC
8
DEFAULT_255_2_778
10
14.9431283
20
169.3389805
40
0.6124159
50
256.2164989
51
270.9014371
0
ARC
8
DEFAULT_255_2_778
10
14.9522592
20
169.7059208
40
0.9792806
50
270.0294815
51
272.249316
0
LINE
8
DEFAULT_255_2_778
10
15.5955939
20
169.7761948
11
15.9421939
21
169.7761948
0
LINE
8
DEFAULT_255_2_778
10
15.9421939
20
169.7761948
11
16.2130939
21
169.0348948
0
LINE
8
DEFAULT_255_2_778
10
16.2130939
20
169.0348948
11
16.4839939
21
169.7825948
0
LINE
8
DEFAULT_255_2_778
10
16.4839939
20
169.7825948
11
16.7927939
21
169.7825948
0
LINE
8
DEFAULT_255_2_778
10
16.7927939
20
169.7825948
11
16.2884939
21
168.5323948
0
LINE
8
DEFAULT_255_2_778
10
16.2884939
20
168.5323948
11
16.0677939
21
168.5323948
0
LINE
8
DEFAULT_255_2_778
10
16.0677939
20
168.5323948
11
15.5955939
21
169.7761948
0
LINE
8
DEFAULT_255_2_778
10
6.2181939
20
170.4045948
11
6.3001939
21
170.4045948
0
LINE
8
DEFAULT_255_2_778
10
6.3001939
20
170.4045948
11
6.3001939
21
168.4476948
0
LINE
8
DEFAULT_255_2_778
10
6.3001939
20
168.4476948
11
18.5069939
21
168.4445948
0
LINE
8
DEFAULT_255_2_778
10
18.5069939
20
168.4445948
11
18.5101939
21
168.3627948
0
LINE
8
DEFAULT_255_2_778
10
18.5101939
20
168.3627948
11
6.2181939
21
168.3627948
0
LINE
8
DEFAULT_255_2_778
10
6.2181939
20
168.3627948
11
6.2181939
21
170.3982948
0
LINE
8
DEFAULT_255_2_778
10
13.9381939
20
168.8157948
11
14.0138939
21
168.6146948
0
LINE
8
DEFAULT_255_2_778
10
13.9950939
20
169.7203948
11
13.9320939
21
169.5068948
0
LINE
8
DEFAULT_255_2_778
10
14.2469939
20
168.8781948
11
14.2469939
21
169.5689948
0
LINE
8
DEFAULT_255_2_778
10
14.2469939
20
169.5689948
11
14.0577939
21
169.5689948
0
LINE
8
DEFAULT_255_2_778
10
14.0577939
20
169.5689948
11
14.0577939
21
169.7825948
0
LINE
8
DEFAULT_255_2_778
10
14.0577939
20
169.7825948
11
14.2469939
21
169.7825948
0
LINE
8
DEFAULT_255_2_778
10
14.2469939
20
169.7825948
11
14.3855939
21
170.2849948
0
LINE
8
DEFAULT_255_2_778
10
14.3855939
20
170.2849948
11
14.5998939
21
170.2849948
0
LINE
8
DEFAULT_255_2_778
10
14.5998939
20
170.2849948
11
14.6125939
21
169.7825948
0
LINE
8
DEFAULT_255_2_778
10
14.6125939
20
169.7825948
11
14.9528939
21
169.7825948
0
LINE
8
DEFAULT_255_2_778
10
14.9528939
20
169.7825948
11
14.9528939
21
169.5689948
0
LINE
8
DEFAULT_255_2_778
10
14.9528939
20
169.5689948
11
14.6125939
21
169.5689948
0
LINE
8
DEFAULT_255_2_778
10
14.6125939
20
169.5689948
11
14.6125939
21
168.9157948
0
LINE
8
DEFAULT_255_2_778
10
14.9906939
20
168.7273948
11
15.0031939
21
168.5514948
0
ARC
8
DEFAULT_255_2_778
10
18.2773623
20
168.4107188
40
0.588729
50
314.1492215
51
331.9331811
0
ARC
8
DEFAULT_255_2_778
10
18.4149706
20
168.2704819
40
0.3922582
50
269.0327782
51
313.9945782
0
ARC
8
DEFAULT_255_2_778
10
18.4132762
20
168.4627141
40
0.5844552
50
255.6362987
51
269.5169802
0
ARC
8
DEFAULT_255_2_778
10
18.4884838
20
168.7661704
40
0.8970861
50
246.6814554
51
255.7910989
0
ARC
8
DEFAULT_255_2_778
10
18.6133117
20
169.0692814
40
1.2248623
50
243.4464445
51
246.9318311
0
ARC
8
DEFAULT_255_2_778
10
18.337299
20
168.4984468
40
0.3644339
50
238.6793577
51
269.7549067
0
ARC
8
DEFAULT_255_2_778
10
18.3337129
20
168.5328517
40
0.3988407
50
270.291204
51
286.0311052
0
ARC
8
DEFAULT_255_2_778
10
18.3184816
20
168.3551248
40
0.2408146
50
301.3744029
51
328.6018723
0
ARC
8
DEFAULT_255_2_778
10
17.8323748
20
168.6819545
40
0.8264122
50
326.8184964
51
337.3943856
0
ARC
8
DEFAULT_255_2_778
10
16.7747134
20
169.1400751
40
1.978979
50
336.9203071
51
342.1242923
0
ARC
8
DEFAULT_255_2_778
10
18.1004201
20
168.9440584
40
0.1954042
50
190.120766
51
263.958695
0
ARC
8
DEFAULT_255_2_778
10
18.1765701
20
169.2466775
40
0.5062622
50
258.9866291
51
270.5697296
0
ARC
8
DEFAULT_255_2_778
10
18.1794576
20
169.5641093
40
0.8236717
50
270.1493118
51
275.0745303
0
ARC
8
DEFAULT_255_2_778
10
18.1624298
20
169.7812074
40
1.0414275
50
274.9512067
51
276.4741818
0
ARC
8
DEFAULT_255_2_778
10
17.886645
20
171.0368897
40
2.5191229
50
276.512331
51
279.4178265
0
ARC
8
DEFAULT_255_2_778
10
17.9624852
20
170.3667793
40
1.844735
50
272.9000807
51
276.5325546
0
ARC
8
DEFAULT_255_2_778
10
17.9861545
20
169.924706
40
1.4020311
50
270.0526278
51
272.8480745
0
ARC
8
DEFAULT_255_2_778
10
17.9781162
20
169.4159763
40
0.8933496
50
259.5051122
51
270.5981508
0
ARC
8
DEFAULT_255_2_778
10
17.8879991
20
168.9550767
40
0.4237712
50
238.7045764
51
260.1348639
0
ARC
8
DEFAULT_255_2_778
10
17.8042044
20
168.8087066
40
0.2552092
50
181.2540346
51
237.7100784
0
LINE
8
DEFAULT_255_2_778
10
11.0900564
20
169.5068213
11
11.0900564
21
168.8785213
0
ARC
8
DEFAULT_255_2_778
10
10.4261476
20
170.0707238
40
1.3645958
50
292.82637
51
299.1123799
0
ARC
8
DEFAULT_255_2_778
10
10.6927129
20
169.4288896
40
0.6696238
50
282.4400197
51
293.1090634
0
ARC
8
DEFAULT_255_2_778
10
10.7657535
20
169.1040188
40
0.3366487
50
270.5781586
51
282.2114611
0
ARC
8
DEFAULT_255_2_778
10
10.7638219
20
168.9380025
40
0.1706983
50
241.3905381
51
271.7888651
0
ARC
8
DEFAULT_255_2_778
10
10.747728
20
168.9012111
40
0.1307392
50
222.8359183
51
239.8616768
0
ARC
8
DEFAULT_255_2_778
10
10.8384234
20
169.0255377
40
0.2833169
50
195.5790395
51
228.8136819
0
ARC
8
DEFAULT_255_2_778
10
11.2237911
20
169.1493199
40
0.6879504
50
182.8967157
51
196.8898295
0
ARC
8
DEFAULT_255_2_778
10
11.7306858
20
169.1914695
40
1.1964408
50
179.9092738
51
183.6859184
0
ARC
8
DEFAULT_255_2_778
10
12.0984338
20
169.1918685
40
1.564188
50
177.2644099
51
179.9452207
0
ARC
8
DEFAULT_255_2_778
10
10.9853029
20
169.2456643
40
0.4497586
50
177.2655023
51
177.3418803
0
ARC
8
DEFAULT_255_2_778
10
11.0005314
20
169.2023533
40
0.4689689
50
149.0265023
51
172.0616653
0
ARC
8
DEFAULT_255_2_778
10
10.8347129
20
169.292706
40
0.2804063
50
88.5402025
51
147.4185874
0
ARC
8
DEFAULT_255_2_778
10
10.765833
20
168.7427465
40
0.833748
50
72.0191589
51
84.7683475
0
ARC
8
DEFAULT_255_2_778
10
10.8835174
20
169.1216106
40
0.4370876
50
61.8010517
51
71.3613167
0
ARC
8
DEFAULT_255_2_778
10
10.4736514
20
169.7910849
40
1.2921636
50
287.0718407
51
298.4918193
0
ARC
8
DEFAULT_255_2_778
10
10.6329455
20
169.2675683
40
0.744952
50
270.6824619
51
287.1805816
0
ARC
8
DEFAULT_255_2_778
10
10.6417292
20
169.1013517
40
0.5786826
50
267.7347632
51
270.0088495
0
ARC
8
DEFAULT_255_2_778
10
10.6222828
20
168.9423284
40
0.4192211
50
203.9093897
51
269.5317059
0
ARC
8
DEFAULT_255_2_778
10
11.0897602
20
169.2016638
40
0.9528801
50
192.6009015
51
206.7737237
0
ARC
8
DEFAULT_255_2_778
10
11.4915698
20
169.3099942
40
1.3687639
50
192.6165694
51
193.3570279
0
ARC
8
DEFAULT_255_2_778
10
11.1913353
20
169.2043735
40
1.0533763
50
182.6397763
51
190.5768818
0
ARC
8
DEFAULT_255_2_778
10
11.0376686
20
169.1947963
40
0.899435
50
180.0132575
51
182.4811747
0
ARC
8
DEFAULT_255_2_778
10
10.8120158
20
169.2106787
40
0.6739744
50
136.7445348
51
181.3680168
0
ARC
8
DEFAULT_255_2_778
10
10.662935
20
169.2991022
40
0.5062158
50
89.2409074
51
132.4668673
0
ARC
8
DEFAULT_255_2_778
10
10.6695554
20
169.1891706
40
0.6161029
50
87.804633
51
89.9919934
0
ARC
8
DEFAULT_255_2_778
10
10.680803
20
168.6474251
40
1.1574622
50
70.3133819
51
89.3884771
0
ARC
8
DEFAULT_255_2_778
10
10.5904169
20
168.343122
40
1.4745303
50
70.1933816
51
70.9898699
0
ARC
8
DEFAULT_255_2_778
10
9.3624696
20
169.1732942
40
0.1950108
50
91.6788031
51
181.813939
0
ARC
8
DEFAULT_255_2_778
10
9.3510433
20
169.1732942
40
0.1950108
50
358.186061
51
88.3211969
0
ARC
8
DEFAULT_255_2_778
10
9.3510433
20
169.1609484
40
0.1950108
50
271.6788031
51
1.813939
0
ARC
8
DEFAULT_255_2_778
10
9.3624696
20
169.1609484
40
0.1950108
50
178.186061
51
268.3211969
0
ARC
8
DEFAULT_255_2_778
10
9.5083893
20
169.1738546
40
0.4667814
50
145.0334623
51
180.8265163
0
ARC
8
DEFAULT_255_2_778
10
9.3653444
20
169.2815342
40
0.2879151
50
91.7092739
51
146.2799614
0
ARC
8
DEFAULT_255_2_778
10
9.3415333
20
169.2646136
40
0.3050877
50
23.4934874
51
87.1398977
0
ARC
8
DEFAULT_255_2_778
10
9.1870608
20
169.1707144
40
0.484809
50
359.5753549
51
26.3944218
0
ARC
8
DEFAULT_255_2_778
10
9.2053251
20
169.1603715
40
0.4665802
50
325.0256173
51
0.8288991
0
ARC
8
DEFAULT_255_2_778
10
9.3481982
20
169.0528215
40
0.2879274
50
271.7032906
51
326.2656695
0
ARC
8
DEFAULT_255_2_778
10
9.3719326
20
169.0697077
40
0.3050641
50
203.5053918
51
267.1485008
0
ARC
8
DEFAULT_255_2_778
10
9.5262703
20
169.1635158
40
0.4846274
50
179.5737352
51
206.399488
0
ARC
8
DEFAULT_255_2_778
10
9.3457714
20
169.1482876
40
0.6699322
50
95.9543621
51
178.9279918
0
ARC
8
DEFAULT_255_2_778
10
9.3689297
20
169.0794797
40
0.7409416
50
89.9824665
51
97.1836307
0
ARC
8
DEFAULT_255_2_778
10
9.3734037
20
169.109749
40
0.710685
50
48.754652
51
90.3424168
0
ARC
8
DEFAULT_255_2_778
10
9.4191906
20
169.1592682
40
0.6432677
50
0.1383337
51
48.9131618
0
ARC
8
DEFAULT_255_2_778
10
9.3926363
20
169.173368
40
0.6699376
50
275.9481082
51
358.9268911
0
ARC
8
DEFAULT_255_2_778
10
9.3693839
20
169.2425136
40
0.7412923
50
269.9824166
51
277.18192
0
ARC
8
DEFAULT_255_2_778
10
9.3648797
20
169.2115078
40
0.7102994
50
228.4135848
51
270.3449845
0
ARC
8
DEFAULT_255_2_778
10
9.3190178
20
169.1623099
40
0.6430631
50
180.1326312
51
228.5603801
0
ARC
8
DEFAULT_255_2_778
10
6.8108339
20
169.8578423
40
0.4410946
50
358.399361
51
20.0218069
0
ARC
8
DEFAULT_255_2_778
10
7.0253177
20
169.9339374
40
0.2135292
50
20.5419455
51
86.7410997
0
ARC
8
DEFAULT_255_2_778
10
6.9405407
20
169.8940724
40
0.314934
50
287.9227005
51
351.1869993
0
ARC
8
DEFAULT_255_2_778
10
7.0384907
20
169.8426459
40
0.6187549
50
4.9300483
51
29.901288
0
ARC
8
DEFAULT_255_2_778
10
7.1431875
20
169.8837073
40
0.5077965
50
31.774244
51
73.6174038
0
ARC
8
DEFAULT_255_2_778
10
7.0079481
20
169.5024064
40
0.9120309
50
72.2224415
51
84.9672302
0
ARC
8
DEFAULT_255_2_778
10
6.9734901
20
170.2659382
40
0.9424937
50
276.9758239
51
292.3160184
0
ARC
8
DEFAULT_255_2_778
10
7.1528558
20
169.8583093
40
0.4974119
50
291.0316637
51
353.5367683
0
ARC
8
DEFAULT_255_2_778
10
6.8831249
20
169.9135383
40
0.7720348
50
351.7170585
51
358.6850323
0
LINE
8
DEFAULT_255_2_778
10
18.0657564
20
167.9736213
11
18.1478564
21
168.1871213
0
LINE
8
DEFAULT_255_2_778
10
18.6581564
20
168.5326213
11
18.2295564
21
169.5629213
0
LINE
8
DEFAULT_255_2_778
10
18.2295564
20
169.5629213
11
17.9080564
21
169.5629213
0
LINE
8
DEFAULT_255_2_778
10
17.9080564
20
169.5629213
11
17.9080564
21
168.9097213
0
LINE
8
DEFAULT_255_2_778
10
18.2798564
20
168.7464213
11
18.2988564
21
168.5517213
0
LINE
8
DEFAULT_255_2_778
10
17.5490564
20
168.8031213
11
17.5363564
21
169.5695213
0
LINE
8
DEFAULT_255_2_778
10
17.5363564
20
169.5695213
11
17.3471564
21
169.5695213
0
LINE
8
DEFAULT_255_2_778
10
17.3471564
20
169.5695213
11
17.3471564
21
169.7831213
0
LINE
8
DEFAULT_255_2_778
10
17.3471564
20
169.7831213
11
17.5487564
21
169.7831213
0
LINE
8
DEFAULT_255_2_778
10
17.5487564
20
169.7831213
11
17.6747564
21
170.2855213
0
LINE
8
DEFAULT_255_2_778
10
17.6747564
20
170.2855213
11
17.8890564
21
170.2855213
0
LINE
8
DEFAULT_255_2_778
10
17.8890564
20
170.2855213
11
17.9017564
21
169.7831213
0
LINE
8
DEFAULT_255_2_778
10
17.9017564
20
169.7831213
11
18.5319564
21
169.7831213
0
LINE
8
DEFAULT_255_2_778
10
18.5319564
20
169.7831213
11
18.8343564
21
168.9539213
0
LINE
8
DEFAULT_255_2_778
10
18.8343564
20
168.9539213
11
19.1368564
21
169.7831213
0
LINE
8
DEFAULT_255_2_778
10
19.1368564
20
169.7831213
11
19.4519564
21
169.7831213
0
LINE
8
DEFAULT_255_2_778
10
19.4519564
20
169.7831213
11
18.7965564
21
168.1371213
0
LINE
8
DEFAULT_255_2_778
10
11.0900564
20
169.5068213
11
11.0900564
21
169.5068213
0
LINE
8
DEFAULT_255_2_778
10
11.0900564
20
169.7302213
11
11.0900564
21
170.4826213
0
LINE
8
DEFAULT_255_2_778
10
11.0900564
20
170.4826213
11
11.4538564
21
170.5239213
0
LINE
8
DEFAULT_255_2_778
10
11.4538564
20
170.5239213
11
11.4538564
21
168.5562213
0
LINE
8
DEFAULT_255_2_778
10
11.4538564
20
168.5562213
11
11.0982564
21
168.5562213
0
LINE
8
DEFAULT_255_2_778
10
11.0982564
20
168.5562213
11
11.0900564
21
168.6554213
0
LINE
8
DEFAULT_255_2_778
10
11.0900564
20
169.7304213
11
11.0900564
21
169.7302213
0
LINE
8
DEFAULT_255_2_778
10
9.1675564
20
169.1671213
11
9.1675564
21
169.1671213
0
LINE
8
DEFAULT_255_2_778
10
9.0416564
20
169.1671213
11
9.0416564
21
169.1671213
0
LINE
8
DEFAULT_255_2_778
10
8.6759564
20
169.1608213
11
8.6759564
21
169.1608213
0
LINE
8
DEFAULT_255_2_778
10
7.0374564
20
170.1471213
11
6.7728564
21
170.1471213
0
LINE
8
DEFAULT_255_2_778
10
6.7728564
20
170.1471213
11
6.7728564
21
169.5944213
0
LINE
8
DEFAULT_255_2_778
10
6.7728564
20
169.5944213
11
7.0374564
21
169.5944213
0
LINE
8
DEFAULT_255_2_778
10
7.2517564
20
169.8458213
11
7.2517564
21
169.8455213
0
LINE
8
DEFAULT_255_2_778
10
7.0879564
20
170.4109213
11
6.3820564
21
170.4109213
0
LINE
8
DEFAULT_255_2_778
10
6.3820564
20
170.4109213
11
6.3820564
21
168.5514213
0
LINE
8
DEFAULT_255_2_778
10
6.3820564
20
168.5514213
11
6.7728564
21
168.5514213
0
LINE
8
DEFAULT_255_2_778
10
6.7728564
20
168.5514213
11
6.7728564
21
169.3304213
0
LINE
8
DEFAULT_255_2_778
10
6.7728564
20
169.3304213
11
7.0879564
21
169.3304213
0
LINE
8
DEFAULT_255_2_778
10
7.6549564
20
169.8958213
11
7.6549564
21
169.8958213
0
LINE
8
DEFAULT_255_1_234
10
8.5475344
20
165.8325091
11
8.2720458
21
165.8325091
0
LINE
8
DEFAULT_255_1_234
10
8.2720458
20
165.8325091
11
8.2720458
21
165.3747
0
LINE
8
DEFAULT_255_1_234
10
8.2720458
20
165.3747
11
8.1178364
21
165.3747
0
LINE
8
DEFAULT_255_1_234
10
8.1178364
20
165.3747
11
8.1178364
21
166.5441211
0
LINE
8
DEFAULT_255_1_234
10
8.1178364
20
166.5441211
11
8.5491407
21
166.5441211
0
LINE
8
DEFAULT_255_1_234
10
8.2720458
20
166.4172196
11
8.2720458
21
165.9586074
0
LINE
8
DEFAULT_255_1_234
10
8.2720458
20
165.9586074
11
8.5491407
21
165.9586074
0
LINE
8
DEFAULT_255_1_234
10
8.5579756
20
166.4172196
11
8.2720458
21
166.4172196
0
ARC
8
DEFAULT_255_1_234
10
8.5533534
20
165.9382195
40
0.6059162
50
78.8378113
51
90.3983573
0
ARC
8
DEFAULT_255_1_234
10
8.5949548
20
166.1402879
40
0.3996205
50
58.9632738
51
79.0810598
0
ARC
8
DEFAULT_255_1_234
10
8.625109
20
166.1962721
40
0.3361177
50
48.0197965
51
58.447194
0
ARC
8
DEFAULT_255_1_234
10
8.6339951
20
166.2048225
40
0.3238191
50
3.3375044
51
48.1766626
0
ARC
8
DEFAULT_255_1_234
10
8.510979
20
166.1871171
40
0.4477806
50
359.9477528
51
4.6829065
0
ARC
8
DEFAULT_255_1_234
10
8.5233107
20
166.1828628
40
0.4354656
50
346.1877825
51
0.5060252
0
ARC
8
DEFAULT_255_1_234
10
8.6591975
20
166.1475731
40
0.295089
50
310.8831995
51
346.5426355
0
ARC
8
DEFAULT_255_1_234
10
8.6283395
20
166.1892695
40
0.3468331
50
286.6925341
51
310.2288297
0
ARC
8
DEFAULT_255_1_234
10
8.5714226
20
166.3682882
40
0.5346654
50
274.6850312
51
287.0245141
0
ARC
8
DEFAULT_255_1_234
10
8.5488949
20
166.5891932
40
0.7566852
50
269.8969846
51
275.018904
0
ARC
8
DEFAULT_255_1_234
10
8.551654
20
166.3812707
40
0.4226708
50
269.6593078
51
279.4153575
0
ARC
8
DEFAULT_255_1_234
10
8.5773815
20
166.2322133
40
0.2714146
50
279.2049762
51
294.9900808
0
ARC
8
DEFAULT_255_1_234
10
8.6064141
20
166.1674508
40
0.2004525
50
295.2888114
51
311.2911209
0
ARC
8
DEFAULT_255_1_234
10
8.6135035
20
166.156922
40
0.1878703
50
311.7854996
51
347.2861051
0
ARC
8
DEFAULT_255_1_234
10
8.5151194
20
166.1822092
40
0.2894234
50
346.6893224
51
0.1059443
0
ARC
8
DEFAULT_255_1_234
10
8.4396089
20
166.1850685
40
0.3649409
50
359.6350983
51
0.0053152
0
ARC
8
DEFAULT_255_1_234
10
8.5366417
20
166.1875937
40
0.2679199
50
359.4672059
51
15.5933957
0
ARC
8
DEFAULT_255_1_234
10
8.5991306
20
166.2044779
40
0.2031932
50
15.7442113
51
46.6203375
0
ARC
8
DEFAULT_255_1_234
10
8.5843527
20
166.1874484
40
0.2257226
50
46.8628658
51
75.6676503
0
ARC
8
DEFAULT_255_1_234
10
8.5549347
20
166.0815718
40
0.3355939
50
75.276167
51
88.2915297
0
ARC
8
DEFAULT_255_1_234
10
8.5491054
20
165.9937524
40
0.4235602
50
87.8575022
51
88.8000139
0
LINE
8
DEFAULT_255_1_234
10
9.5523048
20
166.2485531
11
9.5523048
21
166.1104072
0
LINE
8
DEFAULT_255_1_234
10
9.2808321
20
165.9915375
11
9.2808321
21
165.3747
0
LINE
8
DEFAULT_255_1_234
10
9.2808321
20
165.3747
11
9.1322449
21
165.3747
0
LINE
8
DEFAULT_255_1_234
10
9.1322449
20
165.3747
11
9.1322449
21
166.2437341
0
LINE
8
DEFAULT_255_1_234
10
9.1322449
20
166.2437341
11
9.2768162
21
166.2437341
0
LINE
8
DEFAULT_255_1_234
10
9.2768162
20
166.2437341
11
9.2792257
21
166.1433374
0
ARC
8
DEFAULT_255_1_234
10
9.4856454
20
165.7044342
40
0.4114092
50
80.6754243
51
86.8932892
0
ARC
8
DEFAULT_255_1_234
10
9.4795988
20
165.60767
40
0.5083596
50
86.8038578
51
90.0431435
0
ARC
8
DEFAULT_255_1_234
10
9.4758969
20
165.8533866
40
0.2626638
50
89.2759698
51
106.6213787
0
ARC
8
DEFAULT_255_1_234
10
9.4554533
20
165.927683
40
0.1856317
50
107.1346045
51
157.6458115
0
ARC
8
DEFAULT_255_1_234
10
9.5246134
20
165.8893311
40
0.2643398
50
155.6586782
51
157.2539184
0
ARC
8
DEFAULT_255_1_234
10
9.5041337
20
166.0062157
40
0.2634121
50
127.8165941
51
148.6302098
0
ARC
8
DEFAULT_255_1_234
10
9.4787806
20
166.0322218
40
0.2273596
50
91.3329982
51
126.7875809
0
ARC
8
DEFAULT_255_1_234
10
9.4863746
20
165.9607195
40
0.299078
50
89.986594
51
92.4688449
0
ARC
8
DEFAULT_255_1_234
10
9.4872141
20
165.9882078
40
0.2715908
50
85.3589899
51
90.1623399
0
ARC
8
DEFAULT_255_1_234
10
9.4956657
20
166.0886164
40
0.1708278
50
78.401942
51
85.4594656
0
ARC
8
DEFAULT_255_1_234
10
9.5101541
20
166.1577236
40
0.1002194
50
67.7858312
51
78.5728455
0
ARC
8
DEFAULT_255_1_234
10
9.5209393
20
166.1856887
40
0.0702548
50
63.4835954
51
67.3062642
0
LINE
8
DEFAULT_255_1_234
10
9.6334254
20
165.8068075
11
9.6334254
21
165.8172488
0
LINE
8
DEFAULT_255_1_234
10
10.4245516
20
165.8100202
11
10.4245516
21
165.799579
0
ARC
8
DEFAULT_255_1_234
10
10.1920433
20
165.8204837
40
0.5586273
50
166.3003825
51
180.3317926
0
ARC
8
DEFAULT_255_1_234
10
10.1057593
20
165.8397964
40
0.4702272
50
153.8608245
51
166.0967125
0
ARC
8
DEFAULT_255_1_234
10
10.0391995
20
165.875475
40
0.3947658
50
135.1316692
51
154.253643
0
ARC
8
DEFAULT_255_1_234
10
10.0113555
20
165.9000666
40
0.3576898
50
121.7044358
51
134.776924
0
ARC
8
DEFAULT_255_1_234
10
10.0180548
20
165.8871867
40
0.3721701
50
93.4002104
51
121.5398234
0
ARC
8
DEFAULT_255_1_234
10
10.0275504
20
165.8046228
40
0.4551749
50
89.9706281
51
93.9769836
0
ARC
8
DEFAULT_255_1_234
10
10.0322596
20
165.8436362
40
0.4161854
50
71.3323442
51
90.6161982
0
ARC
8
DEFAULT_255_1_234
10
10.0485293
20
165.9038578
40
0.3539455
50
41.1815071
51
70.707185
0
ARC
8
DEFAULT_255_1_234
10
10.0007693
20
165.8604919
40
0.4184468
50
12.1971897
51
41.3445735
0
ARC
8
DEFAULT_255_1_234
10
9.80817
20
165.8146425
40
0.616399
50
359.5703439
51
12.5804035
0
ARC
8
DEFAULT_255_1_234
10
9.8554775
20
165.7964116
40
0.5690829
50
347.0197749
51
0.3188898
0
ARC
8
DEFAULT_255_1_234
10
9.9513277
20
165.7757808
40
0.4710501
50
334.3504053
51
346.846361
0
ARC
8
DEFAULT_255_1_234
10
10.0358701
20
165.7318805
40
0.3758475
50
310.422922
51
334.8045033
0
ARC
8
DEFAULT_255_1_234
10
10.0440526
20
165.7254782
40
0.3656736
50
301.8486886
51
310.097356
0
ARC
8
DEFAULT_255_1_234
10
10.0408252
20
165.7330638
40
0.3738224
50
274.307774
51
301.655379
0
ARC
8
DEFAULT_255_1_234
10
10.029756
20
165.8208361
40
0.4621997
50
269.9546461
51
274.8588071
0
ARC
8
DEFAULT_255_1_234
10
10.0248493
20
165.7707249
40
0.4121134
50
250.888809
51
270.631312
0
ARC
8
DEFAULT_255_1_234
10
10.0098413
20
165.7148277
40
0.3544073
50
221.1701932
51
250.2227191
0
ARC
8
DEFAULT_255_1_234
10
10.0582568
20
165.7589439
40
0.4198961
50
191.6263638
51
221.3526367
0
ARC
8
DEFAULT_255_1_234
10
10.2470563
20
165.8026329
40
0.6136451
50
179.610213
51
192.0693181
0
ARC
8
DEFAULT_255_1_234
10
10.2893791
20
165.7963633
40
0.5065736
50
179.636298
51
190.6162791
0
ARC
8
DEFAULT_255_1_234
10
10.1251459
20
165.764359
40
0.3392576
50
190.4136628
51
208.7170242
0
ARC
8
DEFAULT_255_1_234
10
10.0741084
20
165.7390366
40
0.2823401
50
209.1867941
51
217.4225593
0
ARC
8
DEFAULT_255_1_234
10
10.0211918
20
165.6924558
40
0.2120636
50
216.1156896
51
265.2575835
0
ARC
8
DEFAULT_255_1_234
10
10.0291066
20
165.7498109
40
0.2698952
50
264.5897417
51
270.0601757
0
ARC
8
DEFAULT_255_1_234
10
10.0324127
20
165.7118185
40
0.2319225
50
269.2532621
51
291.8792492
0
ARC
8
DEFAULT_255_1_234
10
10.0353348
20
165.6940238
40
0.2143562
50
292.9269754
51
323.1776747
0
ARC
8
DEFAULT_255_1_234
10
9.996017
20
165.7288452
40
0.2667346
50
322.2518483
51
323.0930371
0
ARC
8
DEFAULT_255_1_234
10
9.9665829
20
165.746999
40
0.3011886
50
323.6941278
51
343.8493282
0
ARC
8
DEFAULT_255_1_234
10
9.8087372
20
165.795035
40
0.4661719
50
343.5748474
51
355.0079071
0
ARC
8
DEFAULT_255_1_234
10
9.6079618
20
165.8158424
40
0.6680042
50
354.7285225
51
0.1206288
0
ARC
8
DEFAULT_255_1_234
10
9.7848084
20
165.8204751
40
0.4911667
50
359.623636
51
11.2015604
0
ARC
8
DEFAULT_255_1_234
10
9.9382311
20
165.852064
40
0.3345323
50
10.9989411
51
30.8319188
0
ARC
8
DEFAULT_255_1_234
10
9.9778184
20
165.8729297
40
0.2898553
50
31.3008956
51
37.3959224
0
ARC
8
DEFAULT_255_1_234
10
10.0274762
20
165.9148653
40
0.2249582
50
36.5915954
51
62.2442953
0
ARC
8
DEFAULT_255_1_234
10
10.0321216
20
165.9145602
40
0.2231053
50
63.3365542
51
89.7195421
0
ARC
8
DEFAULT_255_1_234
10
10.0278069
20
165.8576884
40
0.2800267
50
88.8936788
51
90.0047485
0
ARC
8
DEFAULT_255_1_234
10
10.0246429
20
165.9149787
40
0.2227586
50
89.1921125
51
114.7099455
0
ARC
8
DEFAULT_255_1_234
10
10.0275193
20
165.9187628
40
0.2205633
50
115.7997161
51
142.2900762
0
ARC
8
DEFAULT_255_1_234
10
10.0713925
20
165.8797658
40
0.2791541
50
141.4658779
51
142.3795754
0
ARC
8
DEFAULT_255_1_234
10
10.082283
20
165.8754557
40
0.2904292
50
143.0175714
51
163.234115
0
ARC
8
DEFAULT_255_1_234
10
10.2401002
20
165.8255054
40
0.4559523
50
162.9447461
51
174.3732162
0
ARC
8
DEFAULT_255_1_234
10
10.4546816
20
165.8014143
40
0.6718682
50
174.1228657
51
180.1565175
0
LINE
8
DEFAULT_255_1_234
10
10.5747451
20
165.8052012
11
10.5747451
21
165.8164456
0
LINE
8
DEFAULT_255_1_234
10
11.1594557
20
166.155385
11
11.1594557
21
166.608375
0
LINE
8
DEFAULT_255_1_234
10
11.1594557
20
166.608375
11
11.3080428
21
166.608375
0
LINE
8
DEFAULT_255_1_234
10
11.3080428
20
166.608375
11
11.3080428
21
165.3747
0
LINE
8
DEFAULT_255_1_234
10
11.3080428
20
165.3747
11
11.1715033
21
165.3747
0
LINE
8
DEFAULT_255_1_234
10
11.1715033
20
165.3747
11
11.1642747
21
165.4678682
0
LINE
8
DEFAULT_255_1_234
10
11.1594557
20
165.6116363
11
11.1594557
21
166.0108137
0
ARC
8
DEFAULT_255_1_234
10
11.2622605
20
165.8208457
40
0.6875294
50
169.1661407
51
180.3666851
0
ARC
8
DEFAULT_255_1_234
10
11.042625
20
165.8646387
40
0.4635805
50
150.2838427
51
169.3798909
0
ARC
8
DEFAULT_255_1_234
10
10.9792867
20
165.8970238
40
0.392532
50
142.1062393
51
149.806405
0
ARC
8
DEFAULT_255_1_234
10
10.9220599
20
165.9468749
40
0.3167807
50
118.4283255
51
142.8643566
0
ARC
8
DEFAULT_255_1_234
10
10.9121944
20
165.9531137
40
0.3066506
50
89.9199246
51
117.3621547
0
ARC
8
DEFAULT_255_1_234
10
10.9176923
20
165.8773731
40
0.3824245
50
89.9987914
51
90.7595231
0
ARC
8
DEFAULT_255_1_234
10
10.9214314
20
165.9008667
40
0.3589502
50
72.8978905
51
90.5955712
0
ARC
8
DEFAULT_255_1_234
10
10.9412262
20
165.9723123
40
0.2848505
50
39.9932841
51
72.477307
0
ARC
8
DEFAULT_255_1_234
10
10.938301
20
165.6510579
40
0.2908996
50
275.084999
51
320.969419
0
ARC
8
DEFAULT_255_1_234
10
10.916873
20
165.7777893
40
0.4191533
50
269.8935077
51
276.4672393
0
ARC
8
DEFAULT_255_1_234
10
10.9100745
20
165.6510703
40
0.2924958
50
222.0839186
51
271.1792213
0
ARC
8
DEFAULT_255_1_234
10
10.9711255
20
165.7135816
40
0.3797413
50
217.5160585
51
222.9101888
0
ARC
8
DEFAULT_255_1_234
10
11.0205094
20
165.7475781
40
0.4396261
50
193.0962774
51
217.1109254
0
ARC
8
DEFAULT_255_1_234
10
11.2162193
20
165.7964128
40
0.6413192
50
181.1070734
51
193.3838631
0
ARC
8
DEFAULT_255_1_234
10
11.3828252
20
165.8050869
40
0.8080801
50
179.9919009
51
181.4937549
0
ARC
8
DEFAULT_255_1_234
10
11.3011854
20
165.796472
40
0.5778615
50
179.6919417
51
188.6549204
0
ARC
8
DEFAULT_255_1_234
10
11.099227
20
165.7646672
40
0.3734182
50
188.4936033
51
202.2187731
0
ARC
8
DEFAULT_255_1_234
10
11.0024978
20
165.7263391
40
0.2693801
50
202.4517848
51
215.9307642
0
ARC
8
DEFAULT_255_1_234
10
10.9432424
20
165.6791191
40
0.1937215
50
214.9062306
51
264.2077075
0
ARC
8
DEFAULT_255_1_234
10
10.9526252
20
165.738915
40
0.2541804
50
263.4637896
51
270.0934907
0
ARC
8
DEFAULT_255_1_234
10
10.9566169
20
165.7297045
40
0.2449958
50
269.1634649
51
291.0931088
0
ARC
8
DEFAULT_255_1_234
10
10.9647874
20
165.6964994
40
0.2111194
50
292.2674853
51
328.1937478
0
ARC
8
DEFAULT_255_1_234
10
10.8956292
20
165.7464026
40
0.2962539
50
327.0410354
51
332.9414029
0
ARC
8
DEFAULT_255_1_234
10
10.936949
20
165.8940886
40
0.2512647
50
27.6811062
51
48.7893196
0
ARC
8
DEFAULT_255_1_234
10
10.9652771
20
165.9201916
40
0.2130039
50
49.8959006
51
87.010286
0
ARC
8
DEFAULT_255_1_234
10
10.9548629
20
165.8414504
40
0.292249
50
85.7764096
51
90.0424572
0
ARC
8
DEFAULT_255_1_234
10
10.9519345
20
165.9074006
40
0.2263149
50
89.313423
51
109.4265906
0
ARC
8
DEFAULT_255_1_234
10
10.9445056
20
165.9378962
40
0.1951098
50
110.3478057
51
145.1577858
0
ARC
8
DEFAULT_255_1_234
10
11.0098849
20
165.890275
40
0.2759807
50
144.7982748
51
162.8715388
0
ARC
8
DEFAULT_255_1_234
10
11.1793499
20
165.8357842
40
0.453983
50
162.5984223
51
173.3418672
0
ARC
8
DEFAULT_255_1_234
10
11.4461277
20
165.8026851
40
0.7228019
50
173.1877442
51
180.2462216
0
LINE
8
DEFAULT_255_1_234
10
12.0782865
20
165.3747
11
12.0750738
21
165.4606396
0
LINE
8
DEFAULT_255_1_234
10
11.535341
20
165.6782997
11
11.535341
21
166.2437341
0
LINE
8
DEFAULT_255_1_234
10
11.535341
20
166.2437341
11
11.6839282
21
166.2437341
0
LINE
8
DEFAULT_255_1_234
10
11.6839282
20
166.2437341
11
11.6839282
21
165.6823156
0
LINE
8
DEFAULT_255_1_234
10
12.071058
20
165.6116363
11
12.071058
21
166.2437341
0
LINE
8
DEFAULT_255_1_234
10
12.071058
20
166.2437341
11
12.2196451
21
166.2437341
0
LINE
8
DEFAULT_255_1_234
10
12.2196451
20
166.2437341
11
12.2196451
21
165.3747
0
LINE
8
DEFAULT_255_1_234
10
12.2196451
20
165.3747
11
12.0782865
21
165.3747
0
ARC
8
DEFAULT_255_1_234
10
11.8635203
20
165.642406
40
0.2789157
50
282.5436552
51
319.3308843
0
ARC
8
DEFAULT_255_1_234
10
11.8248036
20
165.7930137
40
0.4343667
50
269.8917857
51
283.214153
0
ARC
8
DEFAULT_255_1_234
10
11.8204721
20
165.9090183
40
0.5503818
50
269.9995424
51
270.3655186
0
ARC
8
DEFAULT_255_1_234
10
11.8174197
20
165.739953
40
0.3813286
50
257.7355913
51
270.4579866
0
ARC
8
DEFAULT_255_1_234
10
11.7876896
20
165.6100503
40
0.2480795
50
233.3384413
51
258.0721298
0
ARC
8
DEFAULT_255_1_234
10
11.7742503
20
165.5881041
40
0.2224626
50
221.9626381
51
232.7401232
0
ARC
8
DEFAULT_255_1_234
10
11.8022552
20
165.609633
40
0.2576959
50
197.9450831
51
221.3585622
0
ARC
8
DEFAULT_255_1_234
10
11.9417747
20
165.6572997
40
0.4051213
50
185.8088195
51
198.2790125
0
ARC
8
DEFAULT_255_1_234
10
12.130955
20
165.6797963
40
0.5956158
50
180.1439627
51
186.1199408
0
ARC
8
DEFAULT_255_1_234
10
12.0408418
20
165.678756
40
0.3569313
50
179.4285986
51
191.0735588
0
ARC
8
DEFAULT_255_1_234
10
11.8724846
20
165.6440017
40
0.1850421
50
190.5251661
51
212.6990766
0
ARC
8
DEFAULT_255_1_234
10
11.8260639
20
165.618383
40
0.1321852
50
214.2246197
51
264.4398755
0
ARC
8
DEFAULT_255_1_234
10
11.8437975
20
165.7093426
40
0.224609
50
262.1850223
51
270.1952455
0
ARC
8
DEFAULT_255_1_234
10
11.8479865
20
165.8369524
40
0.3522342
50
269.4431043
51
282.9585023
0
ARC
8
DEFAULT_255_1_234
10
11.8816555
20
165.6999561
40
0.2111871
50
282.391263
51
311.9722193
0
ARC
8
DEFAULT_255_1_234
10
11.8824152
20
165.6926809
40
0.2053153
50
313.1724425
51
336.7506893
0
LINE
8
DEFAULT_255_1_234
10
12.9987237
20
165.6485823
11
13.1392792
21
165.6485823
0
LINE
8
DEFAULT_255_1_234
10
12.4067846
20
165.8011853
11
12.4067846
21
165.8260837
0
LINE
8
DEFAULT_255_1_234
10
13.1392792
20
165.9449534
11
12.9987237
21
165.9449534
0
LINE
8
DEFAULT_255_1_234
10
12.5553718
20
165.8204615
11
12.5553718
21
165.7923504
0
ARC
8
DEFAULT_255_1_234
10
12.7975273
20
165.6939121
40
0.2140268
50
269.0327816
51
309.2224514
0
ARC
8
DEFAULT_255_1_234
10
12.8185027
20
165.6724108
40
0.1841255
50
308.396669
51
329.6984113
0
ARC
8
DEFAULT_255_1_234
10
12.8322882
20
165.661982
40
0.166974
50
330.401383
51
355.3970571
0
ARC
8
DEFAULT_255_1_234
10
12.8779748
20
165.6637082
40
0.2617417
50
329.2357853
51
356.6870514
0
ARC
8
DEFAULT_255_1_234
10
12.822977
20
165.6927971
40
0.3238945
50
324.8706984
51
329.7905871
0
ARC
8
DEFAULT_255_1_234
10
12.8151489
20
165.6995106
40
0.3341614
50
298.8769168
51
324.7016144
0
ARC
8
DEFAULT_255_1_234
10
12.781968
20
165.7523917
40
0.3965068
50
296.9023738
51
299.385174
0
ARC
8
DEFAULT_255_1_234
10
12.7949294
20
165.7236422
40
0.365007
50
269.8406811
51
297.1299281
0
ARC
8
DEFAULT_255_1_234
10
12.789595
20
165.7874407
40
0.4288259
50
253.315473
51
270.5771285
0
ARC
8
DEFAULT_255_1_234
10
12.7648985
20
165.6980739
40
0.3361372
50
221.1002312
51
252.9744583
0
ARC
8
DEFAULT_255_1_234
10
12.8108983
20
165.737559
40
0.3967576
50
194.5394537
51
221.0302238
0
ARC
8
DEFAULT_255_1_234
10
12.9957804
20
165.7890952
40
0.5886672
50
182.0499201
51
194.8773585
0
ARC
8
DEFAULT_255_1_234
10
13.1728002
20
165.800906
40
0.7660157
50
179.9791086
51
182.4591564
0
ARC
8
DEFAULT_255_1_234
10
12.9990046
20
165.8290498
40
0.5922274
50
168.614861
51
180.2869651
0
ARC
8
DEFAULT_255_1_234
10
12.8788191
20
165.8526269
40
0.4697532
50
154.9162259
51
168.5402336
0
ARC
8
DEFAULT_255_1_234
10
12.7866699
20
165.898163
40
0.3669966
50
133.5746694
51
155.2558665
0
ARC
8
DEFAULT_255_1_234
10
12.7703857
20
165.9120467
40
0.3457206
50
122.0165146
51
133.2055214
0
ARC
8
DEFAULT_255_1_234
10
12.7739696
20
165.9032361
40
0.355095
50
97.8731644
51
121.7531281
0
ARC
8
DEFAULT_255_1_234
10
12.7918779
20
165.7975159
40
0.4622833
50
89.8471353
51
98.2769494
0
ARC
8
DEFAULT_255_1_234
10
12.7967531
20
165.8585091
40
0.401305
50
73.3760412
51
90.5199766
0
ARC
8
DEFAULT_255_1_234
10
12.8163895
20
165.9307516
40
0.3264695
50
47.7085968
51
73.0509704
0
ARC
8
DEFAULT_255_1_234
10
12.8293765
20
165.9420128
40
0.309407
50
3.7443473
51
48.0843753
0
ARC
8
DEFAULT_255_1_234
10
12.7306714
20
165.9262614
40
0.4090351
50
2.6192045
51
5.0432185
0
ARC
8
DEFAULT_255_1_234
10
12.7763568
20
165.9302592
40
0.2228519
50
3.780656
51
23.9356886
0
ARC
8
DEFAULT_255_1_234
10
12.7992184
20
165.9383155
40
0.198697
50
24.4869552
51
46.9440088
0
ARC
8
DEFAULT_255_1_234
10
12.7993034
20
165.9406484
40
0.1969404
50
46.498716
51
89.3298174
0
ARC
8
DEFAULT_255_1_234
10
12.7931388
20
165.8811723
40
0.2565428
50
88.1083975
51
90.0061569
0
ARC
8
DEFAULT_255_1_234
10
12.7903818
20
165.8865759
40
0.251154
50
89.3773333
51
107.2071161
0
ARC
8
DEFAULT_255_1_234
10
12.7760941
20
165.938319
40
0.1975072
50
107.6883219
51
143.3583002
0
ARC
8
DEFAULT_255_1_234
10
12.8328325
20
165.8956873
40
0.2684762
50
143.2846717
51
162.935323
0
ARC
8
DEFAULT_255_1_234
10
12.9833926
20
165.8473652
40
0.4265927
50
162.6650068
51
174.0805419
0
ARC
8
DEFAULT_255_1_234
10
13.1976766
20
165.8224636
40
0.6423078
50
173.8423985
51
180.1785963
0
ARC
8
DEFAULT_255_1_234
10
13.1428866
20
165.7893039
40
0.5875227
50
179.7028978
51
188.2277152
0
ARC
8
DEFAULT_255_1_234
10
12.9327167
20
165.7578247
40
0.3750127
50
188.0629871
51
201.1160002
0
ARC
8
DEFAULT_255_1_234
10
12.8229366
20
165.7159238
40
0.2575093
50
201.2187293
51
216.9761968
0
ARC
8
DEFAULT_255_1_234
10
12.7777929
20
165.6820993
40
0.2010998
50
217.0135981
51
265.2056839
0
ARC
8
DEFAULT_255_1_234
10
12.7933788
20
165.7742695
40
0.2943543
50
263.681807
51
270.104251
0
LINE
8
DEFAULT_255_1_234
10
13.3593488
20
166.4541656
11
13.5079359
21
166.4541656
0
LINE
8
DEFAULT_255_1_234
10
13.5079359
20
166.4541656
11
13.5079359
21
166.2437341
0
LINE
8
DEFAULT_255_1_234
10
13.5079359
20
166.2437341
11
13.6701771
21
166.2437341
0
LINE
8
DEFAULT_255_1_234
10
13.6701771
20
166.2437341
11
13.6701771
21
166.1288802
0
LINE
8
DEFAULT_255_1_234
10
13.6701771
20
166.1288802
11
13.5079359
21
166.1288802
0
LINE
8
DEFAULT_255_1_234
10
13.5079359
20
166.1288802
11
13.5079359
21
165.5899506
0
LINE
8
DEFAULT_255_1_234
10
13.6741929
20
165.4951761
11
13.6741929
21
165.3747
0
LINE
8
DEFAULT_255_1_234
10
13.3593488
20
165.5899506
11
13.3593488
21
166.1288802
0
LINE
8
DEFAULT_255_1_234
10
13.3593488
20
166.1288802
11
13.2011235
21
166.1288802
0
LINE
8
DEFAULT_255_1_234
10
13.2011235
20
166.1288802
11
13.2011235
21
166.2437341
0
LINE
8
DEFAULT_255_1_234
10
13.2011235
20
166.2437341
11
13.3593488
21
166.2437341
0
LINE
8
DEFAULT_255_1_234
10
13.3593488
20
166.2437341
11
13.3593488
21
166.4541656
0
ARC
8
DEFAULT_255_1_234
10
13.7086862
20
165.5889084
40
0.200753
50
179.7025659
51
187.917967
0
ARC
8
DEFAULT_255_1_234
10
13.6340888
20
165.5781724
40
0.1253883
50
187.7545981
51
200.2447476
0
ARC
8
DEFAULT_255_1_234
10
13.5920209
20
165.5624859
40
0.0804913
50
200.130383
51
219.174133
0
ARC
8
DEFAULT_255_1_234
10
13.5784386
20
165.5532515
40
0.0641445
50
220.4434483
51
249.6172
0
ARC
8
DEFAULT_255_1_234
10
13.5939236
20
165.5921968
40
0.1060489
50
249.1032952
51
262.775154
0
ARC
8
DEFAULT_255_1_234
10
13.6027408
20
165.6550715
40
0.1695354
50
262.4913187
51
270.2611758
0
ARC
8
DEFAULT_255_1_234
10
13.6024825
20
165.6766103
40
0.191075
50
270.3091804
51
275.6625139
0
ARC
8
DEFAULT_255_1_234
10
13.588205
20
165.8267435
40
0.3418851
50
275.5610264
51
279.0879356
0
ARC
8
DEFAULT_255_1_234
10
13.5551927
20
166.0362699
40
0.5539959
50
279.0365489
51
281.5011378
0
ARC
8
DEFAULT_255_1_234
10
13.5195004
20
166.2166423
40
0.7378639
50
281.4243939
51
282.1017894
0
ARC
8
DEFAULT_255_1_234
10
13.5538251
20
165.8084858
40
0.4501761
50
275.2597045
51
285.5083879
0
ARC
8
DEFAULT_255_1_234
10
13.5599576
20
165.7528606
40
0.3942242
50
270.0268409
51
275.1132796
0
ARC
8
DEFAULT_255_1_234
10
13.5579541
20
165.6201614
40
0.261534
50
257.3573315
51
270.479383
0
ARC
8
DEFAULT_255_1_234
10
13.5366431
20
165.5303406
40
0.1692304
50
230.8037497
51
257.741658
0
ARC
8
DEFAULT_255_1_234
10
13.5298335
20
165.5193777
40
0.1564393
50
219.974146
51
230.1990686
0
ARC
8
DEFAULT_255_1_234
10
13.5630281
20
165.5447579
40
0.1981916
50
196.5084186
51
219.4318458
0
ARC
8
DEFAULT_255_1_234
10
13.6645727
20
165.5766194
40
0.3046086
50
184.6404872
51
196.8269686
0
ARC
8
DEFAULT_255_1_234
10
13.7890791
20
165.5891908
40
0.4297309
50
179.8986958
51
184.9681077
0
LINE
8
DEFAULT_255_1_234
10
14.0051005
20
166.2437341
11
14.0051005
21
165.3747
0
LINE
8
DEFAULT_255_1_234
10
14.0051005
20
165.3747
11
13.8565134
21
165.3747
0
LINE
8
DEFAULT_255_1_234
10
13.8565134
20
165.3747
11
13.8565134
21
166.2437341
0
LINE
8
DEFAULT_255_1_234
10
13.8565134
20
166.2437341
11
14.0051005
21
166.2437341
0
ARC
8
DEFAULT_255_1_234
10
13.9423282
20
166.4751889
40
0.097867
50
161.415052
51
180.5526306
0
ARC
8
DEFAULT_255_1_234
10
13.9299061
20
166.4786077
40
0.0850062
50
138.1827368
51
160.9307106
0
ARC
8
DEFAULT_255_1_234
10
13.9189006
20
166.4881588
40
0.0704362
50
104.6368899
51
138.0039868
0
ARC
8
DEFAULT_255_1_234
10
13.9296161
20
166.4514963
40
0.1086221
50
92.0600725
51
105.2189128
0
ARC
8
DEFAULT_255_1_234
10
13.9319509
20
166.4172117
40
0.1429728
50
89.9756393
51
92.5012496
0
ARC
8
DEFAULT_255_1_234
10
13.9329529
20
166.4397731
40
0.1204151
50
78.0235316
51
90.4478182
0
ARC
8
DEFAULT_255_1_234
10
13.9421621
20
166.4811295
40
0.0780493
50
55.051506
51
78.3369085
0
ARC
8
DEFAULT_255_1_234
10
13.9471895
20
166.4895711
40
0.0682538
50
42.0501187
51
54.4513741
0
ARC
8
DEFAULT_255_1_234
10
13.9336762
20
166.4771798
40
0.0865878
50
1.7497075
51
42.1496013
0
ARC
8
DEFAULT_255_1_234
10
13.9082095
20
166.4742738
40
0.1121515
50
359.9852656
51
2.8364544
0
ARC
8
DEFAULT_255_1_234
10
13.9248087
20
166.4733229
40
0.0955566
50
342.1070653
51
0.552888
0
ARC
8
DEFAULT_255_1_234
10
13.9390784
20
166.4693904
40
0.0807713
50
316.7107116
51
341.6516965
0
ARC
8
DEFAULT_255_1_234
10
13.9457822
20
166.4633823
40
0.0717724
50
285.4397031
51
316.5324284
0
ARC
8
DEFAULT_255_1_234
10
13.9347739
20
166.4999554
40
0.1099597
50
272.3547054
51
285.8953117
0
ARC
8
DEFAULT_255_1_234
10
13.9320897
20
166.5365048
40
0.1465932
50
269.9695369
51
272.8160237
0
ARC
8
DEFAULT_255_1_234
10
13.9311078
20
166.5145863
40
0.1246779
50
258.8431134
51
270.4153935
0
ARC
8
DEFAULT_255_1_234
10
13.922112
20
166.4710414
40
0.0802162
50
238.5431189
51
259.1288175
0
ARC
8
DEFAULT_255_1_234
10
13.9153005
20
166.4586856
40
0.0661247
50
222.5062634
51
237.9906969
0
ARC
8
DEFAULT_255_1_234
10
13.9280593
20
166.4702889
40
0.0833707
50
184.1069131
51
222.460413
0
ARC
8
DEFAULT_255_1_234
10
13.9549833
20
166.4741349
40
0.1105176
50
179.9429482
51
185.0960898
0
LINE
8
DEFAULT_255_1_234
10
14.3087002
20
166.2437341
11
14.529573
21
165.5762966
0
LINE
8
DEFAULT_255_1_234
10
14.529573
20
165.5762966
11
14.7448236
21
166.2437341
0
LINE
8
DEFAULT_255_1_234
10
14.7448236
20
166.2437341
11
14.8966235
21
166.2437341
0
LINE
8
DEFAULT_255_1_234
10
14.8966235
20
166.2437341
11
14.584992
21
165.3747
0
LINE
8
DEFAULT_255_1_234
10
14.584992
20
165.3747
11
14.4717445
21
165.3747
0
LINE
8
DEFAULT_255_1_234
10
14.4717445
20
165.3747
11
14.1569004
21
166.2437341
0
LINE
8
DEFAULT_255_1_234
10
14.1569004
20
166.2437341
11
14.3087002
21
166.2437341
0
LINE
8
DEFAULT_255_1_234
10
15.2010264
20
166.2437341
11
15.2010264
21
165.3747
0
LINE
8
DEFAULT_255_1_234
10
15.2010264
20
165.3747
11
15.0524392
21
165.3747
0
LINE
8
DEFAULT_255_1_234
10
15.0524392
20
165.3747
11
15.0524392
21
166.2437341
0
LINE
8
DEFAULT_255_1_234
10
15.0524392
20
166.2437341
11
15.2010264
21
166.2437341
0
ARC
8
DEFAULT_255_1_234
10
15.1382541
20
166.4751889
40
0.097867
50
161.415052
51
180.5526306
0
ARC
8
DEFAULT_255_1_234
10
15.1258319
20
166.4786077
40
0.0850062
50
138.1827368
51
160.9307106
0
ARC
8
DEFAULT_255_1_234
10
15.1148265
20
166.4881588
40
0.0704362
50
104.6368899
51
138.0039868
0
ARC
8
DEFAULT_255_1_234
10
15.1255419
20
166.4514963
40
0.1086221
50
92.0600725
51
105.2189128
0
ARC
8
DEFAULT_255_1_234
10
15.1278768
20
166.4172117
40
0.1429728
50
89.9756393
51
92.5012496
0
ARC
8
DEFAULT_255_1_234
10
15.1288787
20
166.4397731
40
0.1204151
50
78.0235316
51
90.4478182
0
ARC
8
DEFAULT_255_1_234
10
15.1380879
20
166.4811295
40
0.0780493
50
55.051506
51
78.3369085
0
ARC
8
DEFAULT_255_1_234
10
15.1431153
20
166.4895711
40
0.0682538
50
42.0501187
51
54.4513741
0
ARC
8
DEFAULT_255_1_234
10
15.129602
20
166.4771798
40
0.0865878
50
1.7497075
51
42.1496013
0
ARC
8
DEFAULT_255_1_234
10
15.1041353
20
166.4742738
40
0.1121515
50
359.9852656
51
2.8364544
0
ARC
8
DEFAULT_255_1_234
10
15.1207345
20
166.4733229
40
0.0955566
50
342.1070653
51
0.552888
0
ARC
8
DEFAULT_255_1_234
10
15.1350043
20
166.4693904
40
0.0807713
50
316.7107116
51
341.6516965
0
ARC
8
DEFAULT_255_1_234
10
15.141708
20
166.4633823
40
0.0717724
50
285.4397031
51
316.5324284
0
ARC
8
DEFAULT_255_1_234
10
15.1306997
20
166.4999554
40
0.1099597
50
272.3547054
51
285.8953117
0
ARC
8
DEFAULT_255_1_234
10
15.1280155
20
166.5365048
40
0.1465932
50
269.9695369
51
272.8160237
0
ARC
8
DEFAULT_255_1_234
10
15.1270336
20
166.5145863
40
0.1246779
50
258.8431134
51
270.4153935
0
ARC
8
DEFAULT_255_1_234
10
15.1180379
20
166.4710414
40
0.0802162
50
238.5431189
51
259.1288175
0
ARC
8
DEFAULT_255_1_234
10
15.1112264
20
166.4586856
40
0.0661247
50
222.5062634
51
237.9906969
0
ARC
8
DEFAULT_255_1_234
10
15.1239851
20
166.4702889
40
0.0833707
50
184.1069131
51
222.460413
0
ARC
8
DEFAULT_255_1_234
10
15.1509092
20
166.4741349
40
0.1105176
50
179.9429482
51
185.0960898
0
LINE
8
DEFAULT_255_1_234
10
15.4917753
20
166.4541656
11
15.6403625
21
166.4541656
0
LINE
8
DEFAULT_255_1_234
10
15.6403625
20
166.4541656
11
15.6403625
21
166.2437341
0
LINE
8
DEFAULT_255_1_234
10
15.6403625
20
166.2437341
11
15.8026036
21
166.2437341
0
LINE
8
DEFAULT_255_1_234
10
15.8026036
20
166.2437341
11
15.8026036
21
166.1288802
0
LINE
8
DEFAULT_255_1_234
10
15.8026036
20
166.1288802
11
15.6403625
21
166.1288802
0
LINE
8
DEFAULT_255_1_234
10
15.6403625
20
166.1288802
11
15.6403625
21
165.5899506
0
LINE
8
DEFAULT_255_1_234
10
15.8066194
20
165.4951761
11
15.8066194
21
165.3747
0
LINE
8
DEFAULT_255_1_234
10
15.4917753
20
165.5899506
11
15.4917753
21
166.1288802
0
LINE
8
DEFAULT_255_1_234
10
15.4917753
20
166.1288802
11
15.33355
21
166.1288802
0
LINE
8
DEFAULT_255_1_234
10
15.33355
20
166.1288802
11
15.33355
21
166.2437341
0
LINE
8
DEFAULT_255_1_234
10
15.33355
20
166.2437341
11
15.4917753
21
166.2437341
0
LINE
8
DEFAULT_255_1_234
10
15.4917753
20
166.2437341
11
15.4917753
21
166.4541656
0
ARC
8
DEFAULT_255_1_234
10
15.8411127
20
165.5889084
40
0.200753
50
179.7025659
51
187.917967
0
ARC
8
DEFAULT_255_1_234
10
15.7665153
20
165.5781724
40
0.1253883
50
187.7545981
51
200.2447476
0
ARC
8
DEFAULT_255_1_234
10
15.7244474
20
165.5624859
40
0.0804913
50
200.130383
51
219.174133
0
ARC
8
DEFAULT_255_1_234
10
15.7108651
20
165.5532515
40
0.0641445
50
220.4434483
51
249.6172
0
ARC
8
DEFAULT_255_1_234
10
15.7263501
20
165.5921968
40
0.1060489
50
249.1032952
51
262.775154
0
ARC
8
DEFAULT_255_1_234
10
15.7351673
20
165.6550715
40
0.1695354
50
262.4913187
51
270.2611758
0
ARC
8
DEFAULT_255_1_234
10
15.7349091
20
165.6766103
40
0.191075
50
270.3091804
51
275.6625139
0
ARC
8
DEFAULT_255_1_234
10
15.7206315
20
165.8267435
40
0.3418851
50
275.5610264
51
279.0879356
0
ARC
8
DEFAULT_255_1_234
10
15.6876192
20
166.0362699
40
0.5539959
50
279.0365489
51
281.5011378
0
ARC
8
DEFAULT_255_1_234
10
15.6519269
20
166.2166423
40
0.7378639
50
281.4243939
51
282.1017894
0
ARC
8
DEFAULT_255_1_234
10
15.6862516
20
165.8084858
40
0.4501761
50
275.2597045
51
285.5083879
0
ARC
8
DEFAULT_255_1_234
10
15.6923841
20
165.7528606
40
0.3942242
50
270.0268409
51
275.1132796
0
ARC
8
DEFAULT_255_1_234
10
15.6903806
20
165.6201614
40
0.261534
50
257.3573315
51
270.479383
0
ARC
8
DEFAULT_255_1_234
10
15.6690697
20
165.5303406
40
0.1692304
50
230.8037497
51
257.741658
0
ARC
8
DEFAULT_255_1_234
10
15.66226
20
165.5193777
40
0.1564393
50
219.974146
51
230.1990686
0
ARC
8
DEFAULT_255_1_234
10
15.6954546
20
165.5447579
40
0.1981916
50
196.5084186
51
219.4318458
0
ARC
8
DEFAULT_255_1_234
10
15.7969992
20
165.5766194
40
0.3046086
50
184.6404872
51
196.8269686
0
ARC
8
DEFAULT_255_1_234
10
15.9215056
20
165.5891908
40
0.4297309
50
179.8986958
51
184.9681077
0
LINE
8
DEFAULT_255_1_234
10
16.0435557
20
166.2437341
11
16.2604126
21
165.5923601
0
LINE
8
DEFAULT_255_1_234
10
16.2604126
20
165.5923601
11
16.4628125
21
166.2437341
0
LINE
8
DEFAULT_255_1_234
10
16.4628125
20
166.2437341
11
16.6218409
21
166.2437341
0
LINE
8
DEFAULT_255_1_234
10
16.6218409
20
166.2437341
11
16.2724603
21
165.24057
0
LINE
8
DEFAULT_255_1_234
10
16.0146415
20
165.023713
11
15.9865304
21
165.0261226
0
LINE
8
DEFAULT_255_1_234
10
15.9865304
20
165.0261226
11
15.9311114
21
165.0365638
0
LINE
8
DEFAULT_255_1_234
10
15.9311114
20
165.0365638
11
15.9311114
21
165.1570399
0
LINE
8
DEFAULT_255_1_234
10
15.9311114
20
165.1570399
11
15.9712701
21
165.1538272
0
LINE
8
DEFAULT_255_1_234
10
16.1584096
20
165.295989
11
16.1913397
21
165.3843381
0
LINE
8
DEFAULT_255_1_234
10
16.1913397
20
165.3843381
11
15.8813146
21
166.2437341
0
LINE
8
DEFAULT_255_1_234
10
15.8813146
20
166.2437341
11
16.0435557
21
166.2437341
0
ARC
8
DEFAULT_255_1_234
10
15.8089945
20
165.4090403
40
0.4931356
50
327.7224013
51
340.0237316
0
ARC
8
DEFAULT_255_1_234
10
15.9842161
20
165.295872
40
0.2845645
50
305.2163759
51
328.1469174
0
ARC
8
DEFAULT_255_1_234
10
16.0187212
20
165.2549893
40
0.2313123
50
268.9893887
51
304.0733175
0
ARC
8
DEFAULT_255_1_234
10
15.9727414
20
165.4573864
40
0.3035628
50
269.7222887
51
278.0404605
0
ARC
8
DEFAULT_255_1_234
10
15.9883237
20
165.3513823
40
0.1964222
50
277.8648378
51
290.8634365
0
ARC
8
DEFAULT_255_1_234
10
16.0091226
20
165.2958422
40
0.1371168
50
291.0076295
51
305.5967213
0
ARC
8
DEFAULT_255_1_234
10
16.0072417
20
165.2942702
40
0.1369553
50
306.6194038
51
324.1023288
0
ARC
8
DEFAULT_255_1_234
10
15.9325231
20
165.34972
40
0.2299972
50
323.8264381
51
334.2987676
0
ARC
8
DEFAULT_255_1_234
10
15.808134
20
165.4108087
40
0.3685747
50
334.1277399
51
340.8153554
0
ARC
8
DEFAULT_255_1_234
10
15.7105275
20
165.4467465
40
0.4725741
50
340.5889714
51
341.3967148
0
LINE
8
DEFAULT_255_1_234
10
16.955158
20
165.9104169
11
16.955158
21
166.0316962
0
LINE
8
DEFAULT_255_1_234
10
16.955158
20
166.0316962
11
17.0667992
21
166.0316962
0
LINE
8
DEFAULT_255_1_234
10
16.876447
20
166.2373087
11
16.7278598
21
166.2373087
0
LINE
8
DEFAULT_255_1_234
10
16.7174186
20
165.6831188
11
16.8668089
21
165.6831188
0
LINE
8
DEFAULT_255_1_234
10
17.0667992
20
165.9104169
11
16.955158
21
165.9104169
0
ARC
8
DEFAULT_255_1_234
10
17.0638858
20
166.3709713
40
0.3392876
50
270.4919872
51
281.8951556
0
ARC
8
DEFAULT_255_1_234
10
17.088012
20
166.2607702
40
0.2264817
50
281.6691735
51
301.2943132
0
ARC
8
DEFAULT_255_1_234
10
17.105033
20
166.2296304
40
0.1910381
50
301.7833094
51
311.7545298
0
ARC
8
DEFAULT_255_1_234
10
17.1141906
20
166.2194748
40
0.1773635
50
311.7323931
51
354.2802411
0
ARC
8
DEFAULT_255_1_234
10
17.0415531
20
166.2319722
40
0.2509385
50
353.0937916
51
0.1181479
0
ARC
8
DEFAULT_255_1_234
10
16.9954316
20
166.2367386
40
0.2970898
50
359.1805295
51
15.0453146
0
ARC
8
DEFAULT_255_1_234
10
17.1300153
20
166.2759992
40
0.1569564
50
13.9577229
51
77.6713066
0
ARC
8
DEFAULT_255_1_234
10
17.0913682
20
166.1374949
40
0.3006298
50
76.1116566
51
90.7026153
0
ARC
8
DEFAULT_255_1_234
10
17.085452
20
166.1648545
40
0.2732568
50
89.5324876
51
103.531937
0
ARC
8
DEFAULT_255_1_234
10
17.0653965
20
166.2447884
40
0.1908508
50
103.2931773
51
133.5619022
0
ARC
8
DEFAULT_255_1_234
10
17.0609453
20
166.2507375
40
0.1834746
50
133.8349307
51
173.5344437
0
ARC
8
DEFAULT_255_1_234
10
17.1332496
20
166.2379213
40
0.2568033
50
172.5096846
51
180.1366907
0
ARC
8
DEFAULT_255_1_234
10
17.038139
20
166.2413622
40
0.3103056
50
155.3484492
51
180.7484736
0
ARC
8
DEFAULT_255_1_234
10
17.0332479
20
166.2384846
40
0.3070957
50
131.5744599
51
154.4798489
0
ARC
8
DEFAULT_255_1_234
10
17.0645626
20
166.206831
40
0.3515643
50
96.9875458
51
131.9690667
0
ARC
8
DEFAULT_255_1_234
10
17.0865106
20
166.0822636
40
0.4779224
50
89.8596053
51
97.7825159
0
ARC
8
DEFAULT_255_1_234
10
17.0913169
20
166.0560616
40
0.5041361
50
78.3655447
51
90.4131539
0
ARC
8
DEFAULT_255_1_234
10
17.1271087
20
166.2219887
40
0.3344039
50
56.6229102
51
78.638727
0
ARC
8
DEFAULT_255_1_234
10
17.1486031
20
166.2595805
40
0.2912001
50
47.0253525
51
56.0854072
0
ARC
8
DEFAULT_255_1_234
10
17.1505811
20
166.2635223
40
0.2869704
50
10.9208013
51
46.7778124
0
ARC
8
DEFAULT_255_1_234
10
17.0141878
20
166.2319857
40
0.426899
50
359.6364486
51
11.6087304
0
ARC
8
DEFAULT_255_1_234
10
17.1976722
20
166.2304752
40
0.243409
50
332.3549906
51
359.7179418
0
ARC
8
DEFAULT_255_1_234
10
17.1326323
20
166.2613142
40
0.3153459
50
325.2333722
51
332.8745602
0
ARC
8
DEFAULT_255_1_234
10
17.1478947
20
166.2506828
40
0.2967456
50
292.9802137
51
325.2392345
0
ARC
8
DEFAULT_255_1_234
10
17.1204321
20
166.3040863
40
0.3566604
50
292.5402179
51
293.6924929
0
ARC
8
DEFAULT_255_1_234
10
17.1596917
20
165.6586091
40
0.3307468
50
57.6435486
51
72.8625112
0
ARC
8
DEFAULT_255_1_234
10
17.1951416
20
165.7160549
40
0.2632492
50
36.7248896
51
57.4697979
0
ARC
8
DEFAULT_255_1_234
10
17.1940049
20
165.717322
40
0.2634081
50
8.0545065
51
36.356114
0
ARC
8
DEFAULT_255_1_234
10
17.1077234
20
165.7018174
40
0.3510261
50
359.8320645
51
8.5869982
0
ARC
8
DEFAULT_255_1_234
10
17.070201
20
165.6970101
40
0.3885653
50
343.9829931
51
0.5571613
0
ARC
8
DEFAULT_255_1_234
10
17.1588208
20
165.6727438
40
0.2966924
50
311.6359546
51
343.7651759
0
ARC
8
DEFAULT_255_1_234
10
17.1209777
20
165.7154102
40
0.3537231
50
279.7829875
51
311.6255694
0
ARC
8
DEFAULT_255_1_234
10
17.0908553
20
165.859128
40
0.5004971
50
269.7286406
51
280.3856417
0
ARC
8
DEFAULT_255_1_234
10
17.0846626
20
165.8549996
40
0.4963778
50
256.6828919
51
270.4412052
0
ARC
8
DEFAULT_255_1_234
10
17.0507921
20
165.7165394
40
0.3538406
50
229.4223008
51
256.8556159
0
ARC
8
DEFAULT_255_1_234
10
17.0093314
20
165.6698736
40
0.2914296
50
181.818294
51
229.6455059
0
ARC
8
DEFAULT_255_1_234
10
17.113327
20
165.6829496
40
0.3959084
50
179.9755256
51
183.2323064
0
ARC
8
DEFAULT_255_1_234
10
17.0961016
20
165.6809037
40
0.2293034
50
179.4465117
51
196.2869258
0
ARC
8
DEFAULT_255_1_234
10
17.0473424
20
165.6675651
40
0.1787621
50
196.5661473
51
227.705904
0
ARC
8
DEFAULT_255_1_234
10
17.0637519
20
165.6859155
40
0.2033784
50
227.7652068
51
257.8762805
0
ARC
8
DEFAULT_255_1_234
10
17.0862489
20
165.7802156
40
0.3003081
50
257.4584385
51
270.426602
0
ARC
8
DEFAULT_255_1_234
10
17.0908055
20
165.8091996
40
0.329292
50
269.5962073
51
280.8789248
0
ARC
8
DEFAULT_255_1_234
10
17.1137584
20
165.6945685
40
0.2123908
50
280.6346389
51
299.8595945
0
ARC
8
DEFAULT_255_1_234
10
17.1328491
20
165.6583212
40
0.171457
50
300.3576302
51
314.5517981
0
ARC
8
DEFAULT_255_1_234
10
17.1245551
20
165.6643919
40
0.1816095
50
315.0728369
51
345.0431014
0
ARC
8
DEFAULT_255_1_234
10
17.0322365
20
165.6912841
40
0.2777492
50
344.5986631
51
357.9269593
0
ARC
8
DEFAULT_255_1_234
10
16.9426692
20
165.6974276
40
0.3674917
50
357.4748886
51
0.0231117
0
ARC
8
DEFAULT_255_1_234
10
17.0449801
20
165.6998679
40
0.2651907
50
359.5047933
51
13.4239635
0
ARC
8
DEFAULT_255_1_234
10
17.1316445
20
165.7220478
40
0.1757509
50
12.9498199
51
48.7551375
0
ARC
8
DEFAULT_255_1_234
10
17.1134179
20
165.69714
40
0.2065134
50
49.5088623
51
72.1836453
0
ARC
8
DEFAULT_255_1_234
10
17.0776331
20
165.5909291
40
0.3185836
50
71.9010081
51
84.3554254
0
ARC
8
DEFAULT_255_1_234
10
17.0614963
20
165.4548326
40
0.4556151
50
84.0193428
51
89.333121
0
LINE
8
DEFAULT_255_1_234
10
18.3960519
20
166.0662327
11
18.3960519
21
165.8734709
0
LINE
8
DEFAULT_255_1_234
10
17.6579351
20
165.8533916
11
17.6579351
21
166.0517755
0
LINE
8
DEFAULT_255_1_234
10
18.2474647
20
165.8333123
11
18.2474647
21
166.0766739
0
LINE
8
DEFAULT_255_1_234
10
17.8065223
20
166.0879184
11
17.8065223
21
165.8501789
0
ARC
8
DEFAULT_255_1_234
10
17.1713408
20
165.8685805
40
1.2247208
50
353.8441951
51
0.2287902
0
ARC
8
DEFAULT_255_1_234
10
17.6352912
20
165.8167806
40
0.7578929
50
344.4934747
51
353.9765454
0
ARC
8
DEFAULT_255_1_234
10
17.9345502
20
165.7316981
40
0.4467846
50
329.2803592
51
344.7472793
0
ARC
8
DEFAULT_255_1_234
10
18.0338327
20
165.6772018
40
0.3336173
50
324.9352394
51
328.6160465
0
ARC
8
DEFAULT_255_1_234
10
18.0715436
20
165.6508427
40
0.2876076
50
280.580143
51
324.9173126
0
ARC
8
DEFAULT_255_1_234
10
18.0314228
20
165.8179099
40
0.4592847
50
269.5977311
51
281.6734359
0
ARC
8
DEFAULT_255_1_234
10
18.0242134
20
165.8059173
40
0.4472986
50
256.6228859
51
270.51044
0
ARC
8
DEFAULT_255_1_234
10
17.9840112
20
165.6510877
40
0.2873874
50
215.8618325
51
257.2788573
0
ARC
8
DEFAULT_255_1_234
10
18.0861143
20
165.7195977
40
0.4102928
50
197.9693508
51
215.2623606
0
ARC
8
DEFAULT_255_1_234
10
18.3346259
20
165.8034709
40
0.6725652
50
187.8816417
51
198.2346507
0
ARC
8
DEFAULT_255_1_234
10
18.7304467
20
165.8606079
40
1.0724845
50
180.8976217
51
188.0055519
0
ARC
8
DEFAULT_255_1_234
10
19.0104655
20
165.8709777
40
1.3526448
50
180.7449369
51
181.1510016
0
ARC
8
DEFAULT_255_1_234
10
18.8527384
20
166.0566042
40
1.1948131
50
173.7675579
51
180.231553
0
ARC
8
DEFAULT_255_1_234
10
18.4009531
20
166.1076666
40
0.7401564
50
164.3058563
51
173.9002247
0
ARC
8
DEFAULT_255_1_234
10
18.10976
20
166.1915656
40
0.4371288
50
148.7922025
51
164.568378
0
ARC
8
DEFAULT_255_1_234
10
18.0146052
20
166.2446929
40
0.3282386
50
144.5883898
51
148.1176286
0
ARC
8
DEFAULT_255_1_234
10
17.980295
20
166.2686315
40
0.2864044
50
101.6440918
51
144.514236
0
ARC
8
DEFAULT_255_1_234
10
18.0228017
20
166.0997069
40
0.4604934
50
89.5284041
51
102.5819763
0
ARC
8
DEFAULT_255_1_234
10
18.0307104
20
166.0958018
40
0.464401
50
77.0437873
51
90.5081339
0
ARC
8
DEFAULT_255_1_234
10
18.0709106
20
166.2600615
40
0.2953195
50
48.2778575
51
77.4994676
0
ARC
8
DEFAULT_255_1_234
10
18.0781737
20
166.2729746
40
0.2808655
50
36.3142134
51
47.6305865
0
ARC
8
DEFAULT_255_1_234
10
17.9913044
20
166.2144515
40
0.3855453
50
18.2931786
51
35.6769206
0
ARC
8
DEFAULT_255_1_234
10
17.7369803
20
166.1271593
40
0.654423
50
8.024666
51
18.5605216
0
ARC
8
DEFAULT_255_1_234
10
17.3206723
20
166.0656792
40
1.0752407
50
1.1274072
51
8.1718305
0
ARC
8
DEFAULT_255_1_234
10
16.9970914
20
166.0529885
40
1.3990231
50
0.5424119
51
1.3863029
0
ARC
8
DEFAULT_255_1_234
10
17.1792292
20
166.0802342
40
1.0682415
50
359.8090433
51
4.9407866
0
ARC
8
DEFAULT_255_1_234
10
17.6002306
20
166.1178113
40
0.6455691
50
4.8362157
51
12.2904523
0
ARC
8
DEFAULT_255_1_234
10
17.875742
20
166.1791965
40
0.3633074
50
12.0805627
51
23.8173984
0
ARC
8
DEFAULT_255_1_234
10
17.9931126
20
166.2288919
40
0.2358723
50
24.2871213
51
31.3935614
0
ARC
8
DEFAULT_255_1_234
10
18.0455823
20
166.2632233
40
0.1732111
50
30.7407893
51
82.4657128
0
ARC
8
DEFAULT_255_1_234
10
18.0275957
20
166.1748691
40
0.263235
50
81.1060089
51
90.2184952
0
ARC
8
DEFAULT_255_1_234
10
18.0240256
20
166.2006924
40
0.2374236
50
89.3806855
51
105.6762551
0
ARC
8
DEFAULT_255_1_234
10
18.0056887
20
166.2673567
40
0.1682847
50
105.7981136
51
149.7388061
0
ARC
8
DEFAULT_255_1_234
10
18.1120965
20
166.203395
40
0.2924306
50
149.4208916
51
163.6286378
0
ARC
8
DEFAULT_255_1_234
10
18.3211853
20
166.139625
40
0.5110213
50
163.3763315
51
172.1410975
0
ARC
8
DEFAULT_255_1_234
10
18.6512572
20
166.0923518
40
0.8444586
50
172.0259487
51
178.0703232
0
ARC
8
DEFAULT_255_1_234
10
18.9542662
20
166.0779906
40
1.1477868
50
177.8631668
51
179.5044149
0
ARC
8
DEFAULT_255_1_234
10
18.8470066
20
165.8465389
40
1.0404907
50
179.7995573
51
185.2460446
0
ARC
8
DEFAULT_255_1_234
10
18.4427105
20
165.8082513
40
0.6343885
50
185.1411642
51
193.0079639
0
ARC
8
DEFAULT_255_1_234
10
18.1783578
20
165.7457641
40
0.3627568
50
192.7897626
51
205.2507664
0
ARC
8
DEFAULT_255_1_234
10
18.0737125
20
165.6990415
40
0.2481908
50
205.8005384
51
211.2537509
0
ARC
8
DEFAULT_255_1_234
10
18.0213565
20
165.663958
40
0.1852521
50
210.3789793
51
238.4008143
0
ARC
8
DEFAULT_255_1_234
10
18.0194087
20
165.6686376
40
0.1882621
50
239.6520629
51
265.9793761
0
ARC
8
DEFAULT_255_1_234
10
18.0279288
20
165.7358427
40
0.2559272
50
265.1315437
51
270.060332
0
ARC
8
DEFAULT_255_1_234
10
18.0308066
20
165.7034534
40
0.2235528
50
269.3314664
51
287.2178029
0
ARC
8
DEFAULT_255_1_234
10
18.0445918
20
165.6531279
40
0.1714108
50
287.7958004
51
329.080874
0
ARC
8
DEFAULT_255_1_234
10
17.9488375
20
165.712893
40
0.2842745
50
328.6634704
51
343.3325132
0
ARC
8
DEFAULT_255_1_234
10
17.7315395
20
165.7805863
40
0.5118644
50
343.0499468
51
351.9393422
0
ARC
8
DEFAULT_255_1_234
10
17.3848695
20
165.8316949
40
0.8622784
50
351.8069023
51
357.7959224
0
ARC
8
DEFAULT_255_1_234
10
17.0613251
20
165.8484721
40
1.1862365
50
357.5871873
51
359.2677531
0
LINE
8
DEFAULT_255_1_234
10
19.3197018
20
166.0662327
11
19.3197018
21
165.8734709
0
LINE
8
DEFAULT_255_1_234
10
18.581585
20
165.8533916
11
18.581585
21
166.0517755
0
LINE
8
DEFAULT_255_1_234
10
19.1711146
20
165.8333123
11
19.1711146
21
166.0766739
0
LINE
8
DEFAULT_255_1_234
10
18.7301722
20
166.0879184
11
18.7301722
21
165.8501789
0
ARC
8
DEFAULT_255_1_234
10
18.0949907
20
165.8685805
40
1.2247208
50
353.8441951
51
0.2287902
0
ARC
8
DEFAULT_255_1_234
10
18.5589411
20
165.8167806
40
0.7578929
50
344.4934747
51
353.9765454
0
ARC
8
DEFAULT_255_1_234
10
18.8582001
20
165.7316981
40
0.4467846
50
329.2803592
51
344.7472793
0
ARC
8
DEFAULT_255_1_234
10
18.9574826
20
165.6772018
40
0.3336173
50
324.9352394
51
328.6160465
0
ARC
8
DEFAULT_255_1_234
10
18.9951935
20
165.6508427
40
0.2876076
50
280.580143
51
324.9173126
0
ARC
8
DEFAULT_255_1_234
10
18.9550727
20
165.8179099
40
0.4592847
50
269.5977311
51
281.6734359
0
ARC
8
DEFAULT_255_1_234
10
18.9478633
20
165.8059173
40
0.4472986
50
256.6228859
51
270.51044
0
ARC
8
DEFAULT_255_1_234
10
18.9076611
20
165.6510877
40
0.2873874
50
215.8618325
51
257.2788573
0
ARC
8
DEFAULT_255_1_234
10
19.0097642
20
165.7195977
40
0.4102928
50
197.9693508
51
215.2623606
0
ARC
8
DEFAULT_255_1_234
10
19.2582758
20
165.8034709
40
0.6725652
50
187.8816417
51
198.2346507
0
ARC
8
DEFAULT_255_1_234
10
19.6540966
20
165.8606079
40
1.0724845
50
180.8976217
51
188.0055519
0
ARC
8
DEFAULT_255_1_234
10
19.9341154
20
165.8709777
40
1.3526448
50
180.7449369
51
181.1510016
0
ARC
8
DEFAULT_255_1_234
10
19.7763883
20
166.0566042
40
1.1948131
50
173.7675579
51
180.231553
0
ARC
8
DEFAULT_255_1_234
10
19.324603
20
166.1076666
40
0.7401564
50
164.3058563
51
173.9002247
0
ARC
8
DEFAULT_255_1_234
10
19.0334099
20
166.1915656
40
0.4371288
50
148.7922025
51
164.568378
0
ARC
8
DEFAULT_255_1_234
10
18.9382551
20
166.2446929
40
0.3282386
50
144.5883898
51
148.1176286
0
ARC
8
DEFAULT_255_1_234
10
18.9039449
20
166.2686315
40
0.2864044
50
101.6440918
51
144.514236
0
ARC
8
DEFAULT_255_1_234
10
18.9464516
20
166.0997069
40
0.4604934
50
89.5284041
51
102.5819763
0
ARC
8
DEFAULT_255_1_234
10
18.9543603
20
166.0958018
40
0.464401
50
77.0437873
51
90.5081339
0
ARC
8
DEFAULT_255_1_234
10
18.9945605
20
166.2600615
40
0.2953195
50
48.2778575
51
77.4994676
0
ARC
8
DEFAULT_255_1_234
10
19.0018236
20
166.2729746
40
0.2808655
50
36.3142134
51
47.6305865
0
ARC
8
DEFAULT_255_1_234
10
18.9149543
20
166.2144515
40
0.3855453
50
18.2931786
51
35.6769206
0
ARC
8
DEFAULT_255_1_234
10
18.6606302
20
166.1271593
40
0.654423
50
8.024666
51
18.5605216
0
ARC
8
DEFAULT_255_1_234
10
18.2443222
20
166.0656792
40
1.0752407
50
1.1274072
51
8.1718305
0
ARC
8
DEFAULT_255_1_234
10
17.9207413
20
166.0529885
40
1.3990231
50
0.5424119
51
1.3863029
0
ARC
8
DEFAULT_255_1_234
10
18.1028791
20
166.0802342
40
1.0682415
50
359.8090433
51
4.9407866
0
ARC
8
DEFAULT_255_1_234
10
18.5238805
20
166.1178113
40
0.6455691
50
4.8362157
51
12.2904523
0
ARC
8
DEFAULT_255_1_234
10
18.799392
20
166.1791965
40
0.3633074
50
12.0805627
51
23.8173984
0
ARC
8
DEFAULT_255_1_234
10
18.9167625
20
166.2288919
40
0.2358723
50
24.2871213
51
31.3935614
0
ARC
8
DEFAULT_255_1_234
10
18.9692322
20
166.2632233
40
0.1732111
50
30.7407893
51
82.4657128
0
ARC
8
DEFAULT_255_1_234
10
18.9512456
20
166.1748691
40
0.263235
50
81.1060089
51
90.2184952
0
ARC
8
DEFAULT_255_1_234
10
18.9476755
20
166.2006924
40
0.2374236
50
89.3806855
51
105.6762551
0
ARC
8
DEFAULT_255_1_234
10
18.9293386
20
166.2673567
40
0.1682847
50
105.7981136
51
149.7388061
0
ARC
8
DEFAULT_255_1_234
10
19.0357464
20
166.203395
40
0.2924306
50
149.4208916
51
163.6286378
0
ARC
8
DEFAULT_255_1_234
10
19.2448352
20
166.139625
40
0.5110213
50
163.3763315
51
172.1410975
0
ARC
8
DEFAULT_255_1_234
10
19.5749071
20
166.0923518
40
0.8444586
50
172.0259487
51
178.0703232
0
ARC
8
DEFAULT_255_1_234
10
19.8779161
20
166.0779906
40
1.1477868
50
177.8631668
51
179.5044149
0
ARC
8
DEFAULT_255_1_234
10
19.7706565
20
165.8465389
40
1.0404907
50
179.7995573
51
185.2460446
0
ARC
8
DEFAULT_255_1_234
10
19.3663604
20
165.8082513
40
0.6343885
50
185.1411642
51
193.0079639
0
ARC
8
DEFAULT_255_1_234
10
19.1020077
20
165.7457641
40
0.3627568
50
192.7897626
51
205.2507664
0
ARC
8
DEFAULT_255_1_234
10
18.9973624
20
165.6990415
40
0.2481908
50
205.8005384
51
211.2537509
0
ARC
8
DEFAULT_255_1_234
10
18.9450064
20
165.663958
40
0.1852521
50
210.3789793
51
238.4008143
0
ARC
8
DEFAULT_255_1_234
10
18.9430586
20
165.6686376
40
0.1882621
50
239.6520629
51
265.9793761
0
ARC
8
DEFAULT_255_1_234
10
18.9515787
20
165.7358427
40
0.2559272
50
265.1315437
51
270.060332
0
ARC
8
DEFAULT_255_1_234
10
18.9544565
20
165.7034534
40
0.2235528
50
269.3314664
51
287.2178029
0
ARC
8
DEFAULT_255_1_234
10
18.9682417
20
165.6531279
40
0.1714108
50
287.7958004
51
329.080874
0
ARC
8
DEFAULT_255_1_234
10
18.8724874
20
165.712893
40
0.2842745
50
328.6634704
51
343.3325132
0
ARC
8
DEFAULT_255_1_234
10
18.6551894
20
165.7805863
40
0.5118644
50
343.0499468
51
351.9393422
0
ARC
8
DEFAULT_255_1_234
10
18.3085194
20
165.8316949
40
0.8622784
50
351.8069023
51
357.7959224
0
ARC
8
DEFAULT_255_1_234
10
17.984975
20
165.8484721
40
1.1862365
50
357.5871873
51
359.2677531
0
LINE
8
DEFAULT_255_1_234
10
20.2433517
20
166.0662327
11
20.2433517
21
165.8734709
0
LINE
8
DEFAULT_255_1_234
10
19.5052349
20
165.8533916
11
19.5052349
21
166.0517755
0
LINE
8
DEFAULT_255_1_234
10
20.0947645
20
165.8333123
11
20.0947645
21
166.0766739
0
LINE
8
DEFAULT_255_1_234
10
19.6538221
20
166.0879184
11
19.6538221
21
165.8501789
0
ARC
8
DEFAULT_255_1_234
10
19.0186406
20
165.8685805
40
1.2247208
50
353.8441951
51
0.2287902
0
ARC
8
DEFAULT_255_1_234
10
19.482591
20
165.8167806
40
0.7578929
50
344.4934747
51
353.9765454
0
ARC
8
DEFAULT_255_1_234
10
19.78185
20
165.7316981
40
0.4467846
50
329.2803592
51
344.7472793
0
ARC
8
DEFAULT_255_1_234
10
19.8811325
20
165.6772018
40
0.3336173
50
324.9352394
51
328.6160465
0
ARC
8
DEFAULT_255_1_234
10
19.9188434
20
165.6508427
40
0.2876076
50
280.580143
51
324.9173126
0
ARC
8
DEFAULT_255_1_234
10
19.8787226
20
165.8179099
40
0.4592847
50
269.5977311
51
281.6734359
0
ARC
8
DEFAULT_255_1_234
10
19.8715132
20
165.8059173
40
0.4472986
50
256.6228859
51
270.51044
0
ARC
8
DEFAULT_255_1_234
10
19.831311
20
165.6510877
40
0.2873874
50
215.8618325
51
257.2788573
0
ARC
8
DEFAULT_255_1_234
10
19.9334141
20
165.7195977
40
0.4102928
50
197.9693508
51
215.2623606
0
ARC
8
DEFAULT_255_1_234
10
20.1819257
20
165.8034709
40
0.6725652
50
187.8816417
51
198.2346507
0
ARC
8
DEFAULT_255_1_234
10
20.5777465
20
165.8606079
40
1.0724845
50
180.8976217
51
188.0055519
0
ARC
8
DEFAULT_255_1_234
10
20.8577653
20
165.8709777
40
1.3526448
50
180.7449369
51
181.1510016
0
ARC
8
DEFAULT_255_1_234
10
20.7000382
20
166.0566042
40
1.1948131
50
173.7675579
51
180.231553
0
ARC
8
DEFAULT_255_1_234
10
20.2482529
20
166.1076666
40
0.7401564
50
164.3058563
51
173.9002247
0
ARC
8
DEFAULT_255_1_234
10
19.9570598
20
166.1915656
40
0.4371288
50
148.7922025
51
164.568378
0
ARC
8
DEFAULT_255_1_234
10
19.861905
20
166.2446929
40
0.3282386
50
144.5883898
51
148.1176286
0
ARC
8
DEFAULT_255_1_234
10
19.8275948
20
166.2686315
40
0.2864044
50
101.6440918
51
144.514236
0
ARC
8
DEFAULT_255_1_234
10
19.8701015
20
166.0997069
40
0.4604934
50
89.5284041
51
102.5819763
0
ARC
8
DEFAULT_255_1_234
10
19.8780102
20
166.0958018
40
0.464401
50
77.0437873
51
90.5081339
0
ARC
8
DEFAULT_255_1_234
10
19.9182104
20
166.2600615
40
0.2953195
50
48.2778575
51
77.4994676
0
ARC
8
DEFAULT_255_1_234
10
19.9254735
20
166.2729746
40
0.2808655
50
36.3142134
51
47.6305865
0
ARC
8
DEFAULT_255_1_234
10
19.8386042
20
166.2144515
40
0.3855453
50
18.2931786
51
35.6769206
0
ARC
8
DEFAULT_255_1_234
10
19.5842801
20
166.1271593
40
0.654423
50
8.024666
51
18.5605216
0
ARC
8
DEFAULT_255_1_234
10
19.1679721
20
166.0656792
40
1.0752407
50
1.1274072
51
8.1718305
0
ARC
8
DEFAULT_255_1_234
10
18.8443912
20
166.0529885
40
1.3990231
50
0.5424119
51
1.3863029
0
ARC
8
DEFAULT_255_1_234
10
19.026529
20
166.0802342
40
1.0682415
50
359.8090433
51
4.9407866
0
ARC
8
DEFAULT_255_1_234
10
19.4475304
20
166.1178113
40
0.6455691
50
4.8362157
51
12.2904523
0
ARC
8
DEFAULT_255_1_234
10
19.7230419
20
166.1791965
40
0.3633074
50
12.0805627
51
23.8173984
0
ARC
8
DEFAULT_255_1_234
10
19.8404124
20
166.2288919
40
0.2358723
50
24.2871213
51
31.3935614
0
ARC
8
DEFAULT_255_1_234
10
19.8928821
20
166.2632233
40
0.1732111
50
30.7407893
51
82.4657128
0
ARC
8
DEFAULT_255_1_234
10
19.8748955
20
166.1748691
40
0.263235
50
81.1060089
51
90.2184952
0
ARC
8
DEFAULT_255_1_234
10
19.8713254
20
166.2006924
40
0.2374236
50
89.3806855
51
105.6762551
0
ARC
8
DEFAULT_255_1_234
10
19.8529885
20
166.2673567
40
0.1682847
50
105.7981136
51
149.7388061
0
ARC
8
DEFAULT_255_1_234
10
19.9593963
20
166.203395
40
0.2924306
50
149.4208916
51
163.6286378
0
ARC
8
DEFAULT_255_1_234
10
20.1684851
20
166.139625
40
0.5110213
50
163.3763315
51
172.1410975
0
ARC
8
DEFAULT_255_1_234
10
20.498557
20
166.0923518
40
0.8444586
50
172.0259487
51
178.0703232
0
ARC
8
DEFAULT_255_1_234
10
20.801566
20
166.0779906
40
1.1477868
50
177.8631668
51
179.5044149
0
ARC
8
DEFAULT_255_1_234
10
20.6943064
20
165.8465389
40
1.0404907
50
179.7995573
51
185.2460446
0
ARC
8
DEFAULT_255_1_234
10
20.2900104
20
165.8082513
40
0.6343885
50
185.1411642
51
193.0079639
0
ARC
8
DEFAULT_255_1_234
10
20.0256576
20
165.7457641
40
0.3627568
50
192.7897626
51
205.2507664
0
ARC
8
DEFAULT_255_1_234
10
19.9210123
20
165.6990415
40
0.2481908
50
205.8005384
51
211.2537509
0
ARC
8
DEFAULT_255_1_234
10
19.8686564
20
165.663958
40
0.1852521
50
210.3789793
51
238.4008143
0
ARC
8
DEFAULT_255_1_234
10
19.8667085
20
165.6686376
40
0.1882621
50
239.6520629
51
265.9793761
0
ARC
8
DEFAULT_255_1_234
10
19.8752286
20
165.7358427
40
0.2559272
50
265.1315437
51
270.060332
0
ARC
8
DEFAULT_255_1_234
10
19.8781064
20
165.7034534
40
0.2235528
50
269.3314664
51
287.2178029
0
ARC
8
DEFAULT_255_1_234
10
19.8918916
20
165.6531279
40
0.1714108
50
287.7958004
51
329.080874
0
ARC
8
DEFAULT_255_1_234
10
19.7961373
20
165.712893
40
0.2842745
50
328.6634704
51
343.3325132
0
ARC
8
DEFAULT_255_1_234
10
19.5788393
20
165.7805863
40
0.5118644
50
343.0499468
51
351.9393422
0
ARC
8
DEFAULT_255_1_234
10
19.2321693
20
165.8316949
40
0.8622784
50
351.8069023
51
357.7959224
0
ARC
8
DEFAULT_255_1_234
10
18.9086249
20
165.8484721
40
1.1862365
50
357.5871873
51
359.2677531
0
LINE
8
DEFAULT_255_2_778
10
18.6536417
20
77.9198073
11
18.6536417
21
5.1594073
0
LINE
8
DEFAULT_255_2_778
10
18.6536417
20
5.1594073
11
19.9765417
21
5.1594073
0
LINE
8
DEFAULT_255_2_778
10
17.3307834
20
83.2114333
11
19.9765834
21
83.2114333
0
LINE
8
DEFAULT_255_2_778
10
19.9765834
20
83.2114333
11
19.9765834
21
77.9197333
0
LINE
8
DEFAULT_255_2_778
10
19.9765834
20
77.9197333
11
17.3307834
21
77.9197333
0
LINE
8
DEFAULT_255_2_778
10
17.3307834
20
77.9197333
11
17.3307834
21
83.2114333
0
LINE
8
DEFAULT_255_2_778
10
18.1245
20
78.4489666
11
18.1245
21
82.6822666
0
LINE
8
DEFAULT_255_2_778
10
17.8599167
20
81.888575
11
18.1245167
21
82.682275
0
LINE
8
DEFAULT_255_2_778
10
18.1245167
20
82.682275
11
18.3891167
21
81.888575
0
LINE
8
DEFAULT_255_2_778
10
18.3891167
20
81.888575
11
17.8599167
21
81.888575
0
LINE
8
DEFAULT_255_2_778
10
19.1828
20
82.6822666
11
19.1828
21
78.4489666
0
LINE
8
DEFAULT_255_2_778
10
18.9182167
20
79.242675
11
19.1828167
21
78.448975
0
LINE
8
DEFAULT_255_2_778
10
19.1828167
20
78.448975
11
19.4474167
21
79.242675
0
LINE
8
DEFAULT_255_2_778
10
19.4474167
20
79.242675
11
18.9182167
21
79.242675
0
LINE
8
DEFAULT_255_2_778
10
19.9765417
20
155.9719073
11
18.6536417
21
155.9719073
0
LINE
8
DEFAULT_255_2_778
10
18.6536417
20
155.9719073
11
18.6536417
21
83.2115073
0
LINE
8
DEFAULT_255_1_234
10
4.4347265
20
164.3590276
11
4.4347265
21
164.0176788
0
LINE
8
DEFAULT_255_1_234
10
4.4347265
20
164.0176788
11
4.760815
21
164.0176788
0
LINE
8
DEFAULT_255_1_234
10
4.760815
20
164.0176788
11
4.760815
21
163.8771233
0
LINE
8
DEFAULT_255_1_234
10
4.760815
20
163.8771233
11
4.4347265
21
163.8771233
0
LINE
8
DEFAULT_255_1_234
10
4.4347265
20
163.8771233
11
4.4347265
21
163.5076634
0
LINE
8
DEFAULT_255_1_234
10
4.4347265
20
163.5076634
11
4.2853361
21
163.5076634
0
LINE
8
DEFAULT_255_1_234
10
4.2853361
20
163.5076634
11
4.2853361
21
163.8771233
0
LINE
8
DEFAULT_255_1_234
10
4.2853361
20
163.8771233
11
3.9592476
21
163.8771233
0
LINE
8
DEFAULT_255_1_234
10
3.9592476
20
163.8771233
11
3.9592476
21
164.0176788
0
LINE
8
DEFAULT_255_1_234
10
3.9592476
20
164.0176788
11
4.2853361
21
164.0176788
0
LINE
8
DEFAULT_255_1_234
10
4.2853361
20
164.0176788
11
4.2853361
21
164.3590276
0
LINE
8
DEFAULT_255_1_234
10
4.2853361
20
164.3590276
11
4.4347265
21
164.3590276
0
LINE
8
DEFAULT_255_1_234
10
24.2451663
20
163.9478026
11
24.2451663
21
163.8265234
0
LINE
8
DEFAULT_255_1_234
10
24.2451663
20
163.8265234
11
23.8532174
21
163.8265234
0
LINE
8
DEFAULT_255_1_234
10
23.8532174
20
163.8265234
11
23.8532174
21
163.9478026
0
LINE
8
DEFAULT_255_1_234
10
23.8532174
20
163.9478026
11
24.2451663
21
163.9478026
0
LINE
8
DEFAULT_255_1_234
10
23.0886137
20
5.8154433
11
23.0886137
21
4.6404
0
LINE
8
DEFAULT_255_1_234
10
23.0886137
20
4.6404
11
22.9392234
21
4.6404
0
LINE
8
DEFAULT_255_1_234
10
22.9392234
20
4.6404
11
22.9392234
21
5.6307133
0
LINE
8
DEFAULT_255_1_234
10
22.9392234
20
5.6307133
11
22.6396396
21
5.5206785
0
LINE
8
DEFAULT_255_1_234
10
22.6396396
20
5.5206785
11
22.6396396
21
5.6556117
0
LINE
8
DEFAULT_255_1_234
10
22.6396396
20
5.6556117
11
23.0653217
21
5.8154433
0
LINE
8
DEFAULT_255_1_234
10
23.0653217
20
5.8154433
11
23.0886137
21
5.8154433
0
LINE
8
DEFAULT_255_1_234
10
24.0805334
20
5.8106243
11
24.1070381
21
5.8106243
0
LINE
8
DEFAULT_255_1_234
10
24.1070381
20
5.8106243
11
24.1070381
21
5.684526
0
LINE
8
DEFAULT_255_1_234
10
24.1070381
20
5.684526
11
24.0797302
21
5.684526
0
LINE
8
DEFAULT_255_1_234
10
23.5327688
20
5.0853583
11
23.5327688
21
5.1423836
0
LINE
8
DEFAULT_255_1_234
10
23.6821592
20
5.1231075
11
23.6821592
21
5.0684917
0
ARC
8
DEFAULT_255_1_234
10
24.084965
20
5.1847455
40
0.4998079
50
90.6001036
51
104.514704
0
ARC
8
DEFAULT_255_1_234
10
24.0461166
20
5.3292131
40
0.3502176
50
104.2855254
51
133.862935
0
ARC
8
DEFAULT_255_1_234
10
24.0624923
20
5.318383
40
0.3693984
50
134.5302688
51
161.6210873
0
ARC
8
DEFAULT_255_1_234
10
24.2278112
20
5.2600895
40
0.5446739
50
161.2849839
51
174.2076652
0
ARC
8
DEFAULT_255_1_234
10
24.3685049
20
5.2406787
40
0.6866274
50
173.7810589
51
174.9254635
0
ARC
8
DEFAULT_255_1_234
10
23.9134881
20
5.1023839
40
0.3033419
50
95.8330959
51
138.9954921
0
ARC
8
DEFAULT_255_1_234
10
23.9358237
20
4.9745375
40
0.4328947
50
89.8753725
51
97.0544009
0
ARC
8
DEFAULT_255_1_234
10
23.9405703
20
5.0580748
40
0.3493769
50
71.6407809
51
90.6240094
0
ARC
8
DEFAULT_255_1_234
10
23.9556276
20
5.1135082
40
0.2920396
50
39.6367836
51
71.019018
0
ARC
8
DEFAULT_255_1_234
10
23.8919749
20
5.0584998
40
0.3761538
50
10.658731
51
39.9043955
0
ARC
8
DEFAULT_255_1_234
10
23.7371832
20
5.0248686
40
0.5345136
50
359.682601
51
11.132623
0
ARC
8
DEFAULT_255_1_234
10
23.7331963
20
5.017801
40
0.5385081
50
347.2486944
51
0.4369317
0
ARC
8
DEFAULT_255_1_234
10
23.899944
20
4.9776807
40
0.3670249
50
318.1409698
51
347.6118597
0
ARC
8
DEFAULT_255_1_234
10
23.9324433
20
4.9509702
40
0.3250007
50
275.6342139
51
317.8248465
0
ARC
8
DEFAULT_255_1_234
10
23.9103544
20
5.0809219
40
0.4565864
50
269.8874292
51
276.7917694
0
ARC
8
DEFAULT_255_1_234
10
23.9048615
20
4.9783743
40
0.3540676
50
246.9140195
51
270.7437342
0
ARC
8
DEFAULT_255_1_234
10
23.9055005
20
4.9641384
40
0.3412781
50
218.1665114
51
245.878116
0
ARC
8
DEFAULT_255_1_234
10
23.9934466
20
5.0377279
40
0.455911
50
191.4115814
51
218.6077802
0
ARC
8
DEFAULT_255_1_234
10
24.1872555
20
5.0811833
40
0.6545001
50
179.6345085
51
191.7836486
0
ARC
8
DEFAULT_255_1_234
10
24.7454892
20
5.1490697
40
1.2127388
50
171.4525249
51
180.3158839
0
ARC
8
DEFAULT_255_1_234
10
24.3059768
20
5.2174608
40
0.7679464
50
157.9802646
51
171.6246686
0
ARC
8
DEFAULT_255_1_234
10
24.0845789
20
5.3057421
40
0.5296008
50
141.4298019
51
157.854097
0
ARC
8
DEFAULT_255_1_234
10
24.0204109
20
5.3511381
40
0.4511509
50
102.8715806
51
140.8564722
0
ARC
8
DEFAULT_255_1_234
10
24.0851725
20
5.1071552
40
0.7034845
50
90.3778349
51
103.5869322
0
ARC
8
DEFAULT_255_1_234
10
23.9113501
20
5.046673
40
0.2370698
50
89.8751008
51
126.2071704
0
ARC
8
DEFAULT_255_1_234
10
23.9159291
20
5.0312303
40
0.2522934
50
124.9745049
51
144.895901
0
ARC
8
DEFAULT_255_1_234
10
23.8983481
20
5.045556
40
0.2296779
50
145.2974905
51
160.2660252
0
ARC
8
DEFAULT_255_1_234
10
24.205602
20
5.0653071
40
0.5234525
50
179.6514266
51
190.2855912
0
ARC
8
DEFAULT_255_1_234
10
24.0362157
20
5.0333786
40
0.3510893
50
190.0945431
51
207.5098196
0
ARC
8
DEFAULT_255_1_234
10
23.9796427
20
5.0064623
40
0.288489
50
207.9583163
51
216.3251085
0
ARC
8
DEFAULT_255_1_234
10
23.9456535
20
4.9785105
40
0.2445587
50
215.7661442
51
232.5456785
0
ARC
8
DEFAULT_255_1_234
10
23.9073518
20
4.9298482
40
0.1826382
50
232.8005391
51
270.6605633
0
ARC
8
DEFAULT_255_1_234
10
23.9119219
20
4.9662612
40
0.2190529
50
269.35537
51
288.4744281
0
ARC
8
DEFAULT_255_1_234
10
23.9212116
20
4.9313118
40
0.1829749
50
289.1833337
51
322.9683818
0
ARC
8
DEFAULT_255_1_234
10
23.8600638
20
4.9795391
40
0.2608399
50
322.6007884
51
346.5182367
0
ARC
8
DEFAULT_255_1_234
10
23.7443234
20
5.0090616
40
0.3802777
50
346.2582162
51
358.7741648
0
ARC
8
DEFAULT_255_1_234
10
23.6424903
20
5.0145965
40
0.4822176
50
358.3755224
51
0.0098023
0
ARC
8
DEFAULT_255_1_234
10
23.718109
20
5.0173657
40
0.4066078
50
359.6214041
51
11.2839074
0
ARC
8
DEFAULT_255_1_234
10
23.8458237
20
5.0440066
40
0.2761514
50
11.0482309
51
31.8146458
0
ARC
8
DEFAULT_255_1_234
10
23.876728
20
5.0607584
40
0.2410679
50
32.3035391
51
38.082671
0
ARC
8
DEFAULT_255_1_234
10
23.918794
20
5.0988662
40
0.1844966
50
36.825067
51
85.7415724
0
ARC
8
DEFAULT_255_1_234
10
23.9120773
20
5.0488301
40
0.2349122
50
85.0140713
51
90.0513278
0
LINE
8
DEFAULT_255_1_234
10
23.0886137
20
13.7529433
11
23.0886137
21
12.5779
0
LINE
8
DEFAULT_255_1_234
10
23.0886137
20
12.5779
11
22.9392234
21
12.5779
0
LINE
8
DEFAULT_255_1_234
10
22.9392234
20
12.5779
11
22.9392234
21
13.5682133
0
LINE
8
DEFAULT_255_1_234
10
22.9392234
20
13.5682133
11
22.6396396
21
13.4581785
0
LINE
8
DEFAULT_255_1_234
10
22.6396396
20
13.4581785
11
22.6396396
21
13.5931117
0
LINE
8
DEFAULT_255_1_234
10
22.6396396
20
13.5931117
11
23.0653217
21
13.7529433
0
LINE
8
DEFAULT_255_1_234
10
23.0653217
20
13.7529433
11
23.0886137
21
13.7529433
0
LINE
8
DEFAULT_255_1_234
10
23.7110734
20
13.1336963
11
23.5922037
21
13.1642169
0
LINE
8
DEFAULT_255_1_234
10
23.5922037
20
13.1642169
11
23.6516386
21
13.7473211
0
LINE
8
DEFAULT_255_1_234
10
23.6516386
20
13.7473211
11
24.2508063
21
13.7473211
0
LINE
8
DEFAULT_255_1_234
10
24.2508063
20
13.7473211
11
24.2508063
21
13.6099784
0
LINE
8
DEFAULT_255_1_234
10
24.2508063
20
13.6099784
11
23.7777369
21
13.6099784
0
LINE
8
DEFAULT_255_1_234
10
23.7777369
20
13.6099784
11
23.7423972
21
13.2911184
0
LINE
8
DEFAULT_255_1_234
10
23.5504387
20
12.8855156
11
23.6909941
21
12.8855156
0
LINE
8
DEFAULT_255_1_234
10
23.750429
20
13.1658232
11
23.7110734
21
13.1336963
0
ARC
8
DEFAULT_255_1_234
10
23.9278756
20
12.973123
40
0.3681349
50
93.7182161
51
120.2538958
0
ARC
8
DEFAULT_255_1_234
10
23.9373019
20
12.8923394
40
0.449379
50
89.9660152
51
94.2496022
0
ARC
8
DEFAULT_255_1_234
10
23.9413753
20
12.9512549
40
0.390482
50
73.8043271
51
90.5585896
0
ARC
8
DEFAULT_255_1_234
10
23.964865
20
13.0370602
40
0.3015334
50
41.3071453
51
73.5430202
0
ARC
8
DEFAULT_255_1_234
10
23.9232477
20
13.0012324
40
0.3564457
50
13.5075983
51
41.2174222
0
ARC
8
DEFAULT_255_1_234
10
23.7590681
20
12.9582486
40
0.5261351
50
1.1331335
51
13.8829381
0
ARC
8
DEFAULT_255_1_234
10
23.617905
20
12.9506665
40
0.6674378
50
359.9919444
51
1.544251
0
ARC
8
DEFAULT_255_1_234
10
23.7455876
20
12.946528
40
0.5397702
50
347.8572367
51
0.4293338
0
ARC
8
DEFAULT_255_1_234
10
23.9206194
20
12.9068736
40
0.3603188
50
323.673004
51
348.1672506
0
ARC
8
DEFAULT_255_1_234
10
23.9500702
20
12.8889168
40
0.3259678
50
316.8171152
51
323.1492751
0
ARC
8
DEFAULT_255_1_234
10
23.9561891
20
12.885246
40
0.3189975
50
281.8396411
51
316.5457803
0
ARC
8
DEFAULT_255_1_234
10
23.9186155
20
13.0407762
40
0.4789527
50
269.5770101
51
282.4214771
0
ARC
8
DEFAULT_255_1_234
10
23.9114966
20
13.0194125
40
0.45759
50
256.2427136
51
270.4486331
0
ARC
8
DEFAULT_255_1_234
10
23.8815869
20
12.8994229
40
0.3339303
50
228.9023911
51
256.3314342
0
ARC
8
DEFAULT_255_1_234
10
23.8742101
20
12.8877746
40
0.32031
50
193.753695
51
228.5271154
0
ARC
8
DEFAULT_255_1_234
10
23.9980055
20
12.92408
40
0.4492253
50
184.924711
51
194.497588
0
ARC
8
DEFAULT_255_1_234
10
24.0172622
20
12.9276591
40
0.3289787
50
187.3600538
51
198.6732863
0
ARC
8
DEFAULT_255_1_234
10
23.9122916
20
12.8912674
40
0.217884
50
198.4451669
51
217.794479
0
ARC
8
DEFAULT_255_1_234
10
23.8827091
20
12.8703085
40
0.1816698
50
218.2887171
51
228.5612368
0
ARC
8
DEFAULT_255_1_234
10
23.8924878
20
12.8834963
40
0.1980329
50
228.9654866
51
258.1234728
0
ARC
8
DEFAULT_255_1_234
10
23.9130588
20
12.9715833
40
0.2884748
50
257.7258293
51
270.401361
0
ARC
8
DEFAULT_255_1_234
10
23.9175474
20
12.9270821
40
0.2439788
50
269.4204404
51
286.4209037
0
ARC
8
DEFAULT_255_1_234
10
23.9323962
20
12.8731657
40
0.1880666
50
286.7251356
51
320.600362
0
ARC
8
DEFAULT_255_1_234
10
23.8940787
20
12.9042595
40
0.2374121
50
320.6712579
51
344.5441685
0
ARC
8
DEFAULT_255_1_234
10
23.7784113
20
12.9382045
40
0.3579479
50
344.2412205
51
356.7357071
0
ARC
8
DEFAULT_255_1_234
10
23.6535262
20
12.9485444
40
0.4832297
50
356.3548756
51
0.0500261
0
ARC
8
DEFAULT_255_1_234
10
23.7871771
20
12.951665
40
0.3495889
50
359.5576869
51
12.953486
0
ARC
8
DEFAULT_255_1_234
10
23.8926668
20
12.9772434
40
0.2410532
50
12.6490276
51
41.6081334
0
ARC
8
DEFAULT_255_1_234
10
23.9157039
20
12.9968321
40
0.2108218
50
41.7850273
51
85.9892764
0
ARC
8
DEFAULT_255_1_234
10
23.9033776
20
12.9155462
40
0.2928454
50
84.6957577
51
90.0676183
0
ARC
8
DEFAULT_255_1_234
10
23.901026
20
12.8486716
40
0.3597255
50
89.6804936
51
99.1614436
0
ARC
8
DEFAULT_255_1_234
10
23.8804891
20
12.9714131
40
0.235281
50
98.9830931
51
113.8908934
0
ARC
8
DEFAULT_255_1_234
10
23.8575301
20
13.0255587
40
0.176479
50
114.1950727
51
127.3641004
0
LINE
8
DEFAULT_255_1_234
10
22.9827137
20
21.6904433
11
22.9827137
21
20.5154
0
LINE
8
DEFAULT_255_1_234
10
22.9827137
20
20.5154
11
22.8333234
21
20.5154
0
LINE
8
DEFAULT_255_1_234
10
22.8333234
20
20.5154
11
22.8333234
21
21.5057133
0
LINE
8
DEFAULT_255_1_234
10
22.8333234
20
21.5057133
11
22.5337396
21
21.3956785
0
LINE
8
DEFAULT_255_1_234
10
22.5337396
20
21.3956785
11
22.5337396
21
21.5306117
0
LINE
8
DEFAULT_255_1_234
10
22.5337396
20
21.5306117
11
22.9594217
21
21.6904433
0
LINE
8
DEFAULT_255_1_234
10
22.9594217
20
21.6904433
11
22.9827137
21
21.6904433
0
LINE
8
DEFAULT_255_1_234
10
24.0453127
20
21.6848211
11
24.0453127
21
20.908152
0
LINE
8
DEFAULT_255_1_234
10
24.0453127
20
20.908152
11
24.2075538
21
20.908152
0
LINE
8
DEFAULT_255_1_234
10
24.2075538
20
20.908152
11
24.2075538
21
20.7868728
0
LINE
8
DEFAULT_255_1_234
10
24.2075538
20
20.7868728
11
24.0453127
21
20.7868728
0
LINE
8
DEFAULT_255_1_234
10
24.0453127
20
20.7868728
11
24.0453127
21
20.5154
0
LINE
8
DEFAULT_255_1_234
10
24.0453127
20
20.5154
11
23.8959224
21
20.5154
0
LINE
8
DEFAULT_255_1_234
10
23.8959224
20
20.5154
11
23.8959224
21
20.7868728
0
LINE
8
DEFAULT_255_1_234
10
23.8959224
20
20.7868728
11
23.3634181
21
20.7868728
0
LINE
8
DEFAULT_255_1_234
10
23.3634181
20
20.7868728
11
23.3634181
21
20.8744187
0
LINE
8
DEFAULT_255_1_234
10
23.3634181
20
20.8744187
11
23.8870875
21
21.6848211
0
LINE
8
DEFAULT_255_1_234
10
23.8870875
20
21.6848211
11
24.0453127
21
21.6848211
0
LINE
8
DEFAULT_255_1_234
10
23.8782525
20
21.4494912
11
23.5320846
21
20.908152
0
LINE
8
DEFAULT_255_1_234
10
23.5320846
20
20.908152
11
23.8959224
21
20.908152
0
LINE
8
DEFAULT_255_1_234
10
23.8959224
20
20.908152
11
23.8959224
21
21.4816181
0
LINE
8
DEFAULT_255_1_234
10
23.8959224
20
21.4816181
11
23.8782525
21
21.4494912
0
LINE
8
DEFAULT_255_1_234
10
23.0886137
20
29.6279433
11
23.0886137
21
28.4529
0
LINE
8
DEFAULT_255_1_234
10
23.0886137
20
28.4529
11
22.9392234
21
28.4529
0
LINE
8
DEFAULT_255_1_234
10
22.9392234
20
28.4529
11
22.9392234
21
29.4432133
0
LINE
8
DEFAULT_255_1_234
10
22.9392234
20
29.4432133
11
22.6396396
21
29.3331785
0
LINE
8
DEFAULT_255_1_234
10
22.6396396
20
29.3331785
11
22.6396396
21
29.4681117
0
LINE
8
DEFAULT_255_1_234
10
22.6396396
20
29.4681117
11
23.0653217
21
29.6279433
0
LINE
8
DEFAULT_255_1_234
10
23.0653217
20
29.6279433
11
23.0886137
21
29.6279433
0
LINE
8
DEFAULT_255_1_234
10
23.7399877
20
28.9886169
11
23.7399877
21
29.1098962
0
LINE
8
DEFAULT_255_1_234
10
23.7399877
20
29.1098962
11
23.8516289
21
29.1098962
0
LINE
8
DEFAULT_255_1_234
10
23.6612767
20
29.3155087
11
23.5126895
21
29.3155087
0
LINE
8
DEFAULT_255_1_234
10
23.5022482
20
28.7613188
11
23.6516386
21
28.7613188
0
LINE
8
DEFAULT_255_1_234
10
23.8516289
20
28.9886169
11
23.7399877
21
28.9886169
0
ARC
8
DEFAULT_255_1_234
10
23.8487155
20
29.4491713
40
0.3392876
50
270.4919872
51
281.8951556
0
ARC
8
DEFAULT_255_1_234
10
23.8728417
20
29.3389702
40
0.2264817
50
281.6691735
51
301.2943132
0
ARC
8
DEFAULT_255_1_234
10
23.8898627
20
29.3078304
40
0.1910381
50
301.7833094
51
311.7545298
0
ARC
8
DEFAULT_255_1_234
10
23.8990203
20
29.2976748
40
0.1773635
50
311.7323931
51
354.2802411
0
ARC
8
DEFAULT_255_1_234
10
23.8263828
20
29.3101722
40
0.2509385
50
353.0937916
51
0.1181479
0
ARC
8
DEFAULT_255_1_234
10
23.7802613
20
29.3149386
40
0.2970898
50
359.1805295
51
15.0453146
0
ARC
8
DEFAULT_255_1_234
10
23.914845
20
29.3541992
40
0.1569564
50
13.9577229
51
77.6713066
0
ARC
8
DEFAULT_255_1_234
10
23.8761979
20
29.2156949
40
0.3006298
50
76.1116566
51
90.7026153
0
ARC
8
DEFAULT_255_1_234
10
23.8702817
20
29.2430545
40
0.2732568
50
89.5324876
51
103.531937
0
ARC
8
DEFAULT_255_1_234
10
23.8502261
20
29.3229884
40
0.1908508
50
103.2931773
51
133.5619022
0
ARC
8
DEFAULT_255_1_234
10
23.845775
20
29.3289375
40
0.1834746
50
133.8349307
51
173.5344437
0
ARC
8
DEFAULT_255_1_234
10
23.9180793
20
29.3161213
40
0.2568033
50
172.5096846
51
180.1366907
0
ARC
8
DEFAULT_255_1_234
10
23.8229687
20
29.3195622
40
0.3103056
50
155.3484492
51
180.7484736
0
ARC
8
DEFAULT_255_1_234
10
23.8180776
20
29.3166846
40
0.3070957
50
131.5744599
51
154.4798489
0
ARC
8
DEFAULT_255_1_234
10
23.8493923
20
29.285031
40
0.3515643
50
96.9875458
51
131.9690667
0
ARC
8
DEFAULT_255_1_234
10
23.8713403
20
29.1604636
40
0.4779224
50
89.8596053
51
97.7825159
0
ARC
8
DEFAULT_255_1_234
10
23.8761466
20
29.1342616
40
0.5041361
50
78.3655447
51
90.4131539
0
ARC
8
DEFAULT_255_1_234
10
23.9119384
20
29.3001887
40
0.3344039
50
56.6229102
51
78.638727
0
ARC
8
DEFAULT_255_1_234
10
23.9334328
20
29.3377805
40
0.2912001
50
47.0253525
51
56.0854072
0
ARC
8
DEFAULT_255_1_234
10
23.9354108
20
29.3417223
40
0.2869704
50
10.9208013
51
46.7778124
0
ARC
8
DEFAULT_255_1_234
10
23.7990174
20
29.3101857
40
0.426899
50
359.6364486
51
11.6087304
0
ARC
8
DEFAULT_255_1_234
10
23.9825018
20
29.3086752
40
0.243409
50
332.3549906
51
359.7179418
0
ARC
8
DEFAULT_255_1_234
10
23.917462
20
29.3395142
40
0.3153459
50
325.2333722
51
332.8745602
0
ARC
8
DEFAULT_255_1_234
10
23.9327244
20
29.3288828
40
0.2967456
50
292.9802137
51
325.2392345
0
ARC
8
DEFAULT_255_1_234
10
23.9052617
20
29.3822863
40
0.3566604
50
292.5402179
51
293.6924929
0
ARC
8
DEFAULT_255_1_234
10
23.9445213
20
28.7368091
40
0.3307468
50
57.6435486
51
72.8625112
0
ARC
8
DEFAULT_255_1_234
10
23.9799713
20
28.7942549
40
0.2632492
50
36.7248896
51
57.4697979
0
ARC
8
DEFAULT_255_1_234
10
23.9788346
20
28.795522
40
0.2634081
50
8.0545065
51
36.356114
0
ARC
8
DEFAULT_255_1_234
10
23.8925531
20
28.7800174
40
0.3510261
50
359.8320645
51
8.5869982
0
ARC
8
DEFAULT_255_1_234
10
23.8550307
20
28.7752101
40
0.3885653
50
343.9829931
51
0.5571613
0
ARC
8
DEFAULT_255_1_234
10
23.9436504
20
28.7509438
40
0.2966924
50
311.6359546
51
343.7651759
0
ARC
8
DEFAULT_255_1_234
10
23.9058074
20
28.7936102
40
0.3537231
50
279.7829875
51
311.6255694
0
ARC
8
DEFAULT_255_1_234
10
23.875685
20
28.937328
40
0.5004971
50
269.7286406
51
280.3856417
0
ARC
8
DEFAULT_255_1_234
10
23.8694922
20
28.9331996
40
0.4963778
50
256.6828919
51
270.4412052
0
ARC
8
DEFAULT_255_1_234
10
23.8356218
20
28.7947394
40
0.3538406
50
229.4223008
51
256.8556159
0
ARC
8
DEFAULT_255_1_234
10
23.7941611
20
28.7480736
40
0.2914296
50
181.818294
51
229.6455059
0
ARC
8
DEFAULT_255_1_234
10
23.8981567
20
28.7611496
40
0.3959084
50
179.9755256
51
183.2323064
0
ARC
8
DEFAULT_255_1_234
10
23.8809313
20
28.7591037
40
0.2293034
50
179.4465117
51
196.2869258
0
ARC
8
DEFAULT_255_1_234
10
23.8321721
20
28.7457651
40
0.1787621
50
196.5661473
51
227.705904
0
ARC
8
DEFAULT_255_1_234
10
23.8485816
20
28.7641155
40
0.2033784
50
227.7652068
51
257.8762805
0
ARC
8
DEFAULT_255_1_234
10
23.8710786
20
28.8584156
40
0.3003081
50
257.4584385
51
270.426602
0
ARC
8
DEFAULT_255_1_234
10
23.8756352
20
28.8873996
40
0.329292
50
269.5962073
51
280.8789248
0
ARC
8
DEFAULT_255_1_234
10
23.8985881
20
28.7727685
40
0.2123908
50
280.6346389
51
299.8595945
0
ARC
8
DEFAULT_255_1_234
10
23.9176788
20
28.7365212
40
0.171457
50
300.3576302
51
314.5517981
0
ARC
8
DEFAULT_255_1_234
10
23.9093848
20
28.7425919
40
0.1816095
50
315.0728369
51
345.0431014
0
ARC
8
DEFAULT_255_1_234
10
23.8170662
20
28.7694841
40
0.2777492
50
344.5986631
51
357.9269593
0
ARC
8
DEFAULT_255_1_234
10
23.7274989
20
28.7756276
40
0.3674917
50
357.4748886
51
0.0231117
0
ARC
8
DEFAULT_255_1_234
10
23.8298098
20
28.7780679
40
0.2651907
50
359.5047933
51
13.4239635
0
ARC
8
DEFAULT_255_1_234
10
23.9164741
20
28.8002478
40
0.1757509
50
12.9498199
51
48.7551375
0
ARC
8
DEFAULT_255_1_234
10
23.8982475
20
28.77534
40
0.2065134
50
49.5088623
51
72.1836453
0
ARC
8
DEFAULT_255_1_234
10
23.8624628
20
28.6691291
40
0.3185836
50
71.9010081
51
84.3554254
0
ARC
8
DEFAULT_255_1_234
10
23.846326
20
28.5330326
40
0.4556151
50
84.0193428
51
89.333121
0
LINE
8
DEFAULT_255_1_234
10
23.0886137
20
37.5654433
11
23.0886137
21
36.3904
0
LINE
8
DEFAULT_255_1_234
10
23.0886137
20
36.3904
11
22.9392234
21
36.3904
0
LINE
8
DEFAULT_255_1_234
10
22.9392234
20
36.3904
11
22.9392234
21
37.3807133
0
LINE
8
DEFAULT_255_1_234
10
22.9392234
20
37.3807133
11
22.6396396
21
37.2706785
0
LINE
8
DEFAULT_255_1_234
10
22.6396396
20
37.2706785
11
22.6396396
21
37.4056117
0
LINE
8
DEFAULT_255_1_234
10
22.6396396
20
37.4056117
11
23.0653217
21
37.5654433
0
LINE
8
DEFAULT_255_1_234
10
23.0653217
20
37.5654433
11
23.0886137
21
37.5654433
0
LINE
8
DEFAULT_255_1_234
10
24.2901618
20
36.5116792
11
24.2901618
21
36.3904
0
LINE
8
DEFAULT_255_1_234
10
24.2901618
20
36.3904
11
23.5239339
21
36.3904
0
LINE
8
DEFAULT_255_1_234
10
23.5239339
20
36.3904
11
23.5239339
21
36.4972221
0
LINE
8
DEFAULT_255_1_234
10
23.5239339
20
36.4972221
11
23.9287335
21
36.9469995
0
LINE
8
DEFAULT_255_1_234
10
23.6500322
20
37.2152595
11
23.5014451
21
37.2152595
0
LINE
8
DEFAULT_255_1_234
10
24.0162795
20
36.8514218
11
23.7030417
21
36.5116792
0
LINE
8
DEFAULT_255_1_234
10
23.7030417
20
36.5116792
11
24.2901618
21
36.5116792
0
ARC
8
DEFAULT_255_1_234
10
22.5797169
20
38.1399527
40
1.8008286
50
318.5132453
51
320.7828378
0
ARC
8
DEFAULT_255_1_234
10
23.1084143
20
37.7096426
40
1.1191493
50
320.7372736
51
323.9737074
0
ARC
8
DEFAULT_255_1_234
10
23.5004
20
37.4256361
40
0.6350923
50
323.8961724
51
328.6421089
0
ARC
8
DEFAULT_255_1_234
10
23.7050595
20
37.2994031
40
0.3946393
50
328.8299013
51
331.789948
0
ARC
8
DEFAULT_255_1_234
10
23.8047774
20
37.2479509
40
0.2824501
50
331.4255242
51
352.9364833
0
ARC
8
DEFAULT_255_1_234
10
23.8184274
20
37.2448976
40
0.2685315
50
353.2248685
51
0.0169286
0
ARC
8
DEFAULT_255_1_234
10
23.8394151
20
37.247195
40
0.2475536
50
359.4866256
51
15.9339782
0
ARC
8
DEFAULT_255_1_234
10
23.8901136
20
37.2608286
40
0.1950618
50
16.1714718
51
43.5284424
0
ARC
8
DEFAULT_255_1_234
10
23.8978445
20
37.2685573
40
0.184134
50
43.4415429
51
83.1661404
0
ARC
8
DEFAULT_255_1_234
10
23.8844363
20
37.1948771
40
0.258926
50
82.160215
51
90.1505798
0
ARC
8
DEFAULT_255_1_234
10
23.881279
20
37.1411865
40
0.3126255
50
89.5460705
51
102.5418777
0
ARC
8
DEFAULT_255_1_234
10
23.8569876
20
37.2442665
40
0.2067346
50
102.1739365
51
129.2061916
0
ARC
8
DEFAULT_255_1_234
10
23.8490948
20
37.2567094
40
0.1921118
50
129.7279328
51
135.7542026
0
ARC
8
DEFAULT_255_1_234
10
23.8612476
20
37.2470045
40
0.2075944
50
136.175737
51
166.3674722
0
ARC
8
DEFAULT_255_1_234
10
23.9619395
20
37.2200182
40
0.3118201
50
165.9092917
51
178.8683903
0
ARC
8
DEFAULT_255_1_234
10
24.0484256
20
37.2153179
40
0.3983935
50
178.438168
51
180.0083905
0
ARC
8
DEFAULT_255_1_234
10
23.9082859
20
37.2192231
40
0.4068601
50
163.2878735
51
180.5581814
0
ARC
8
DEFAULT_255_1_234
10
23.828112
20
37.241284
40
0.3237344
50
133.454115
51
162.9470031
0
ARC
8
DEFAULT_255_1_234
10
23.8459661
20
37.2223
40
0.349795
50
100.7869394
51
133.4384016
0
ARC
8
DEFAULT_255_1_234
10
23.8807433
20
37.0674319
40
0.5084616
50
89.6605301
51
101.3704185
0
ARC
8
DEFAULT_255_1_234
10
23.8873772
20
37.0735496
40
0.502348
50
78.2171172
51
90.4130393
0
ARC
8
DEFAULT_255_1_234
10
23.922885
20
37.2359637
40
0.3361092
50
55.9268222
51
78.4888551
0
ARC
8
DEFAULT_255_1_234
10
23.942529
20
37.2698324
40
0.2970617
50
47.9292255
51
55.4054003
0
ARC
8
DEFAULT_255_1_234
10
23.9526851
20
37.2801502
40
0.2825983
50
4.3347696
51
48.0560701
0
ARC
8
DEFAULT_255_1_234
10
23.8431244
20
37.2631601
40
0.393225
50
359.925209
51
5.5967654
0
ARC
8
DEFAULT_255_1_234
10
23.8860136
20
37.2687816
40
0.3503892
50
337.8914096
51
358.9967724
0
ARC
8
DEFAULT_255_1_234
10
23.6146548
20
37.3734706
40
0.6412172
50
326.9135351
51
338.3505194
0
ARC
8
DEFAULT_255_1_234
10
23.2160852
20
37.6289284
40
1.1146189
50
319.6472867
51
327.095818
0
ARC
8
DEFAULT_255_1_234
10
22.8327855
20
37.9451
40
1.6114559
50
317.2586784
51
319.9046139
0
LINE
8
DEFAULT_255_1_234
10
23.0976137
20
45.5029433
11
23.0976137
21
44.3279
0
LINE
8
DEFAULT_255_1_234
10
23.0976137
20
44.3279
11
22.9482234
21
44.3279
0
LINE
8
DEFAULT_255_1_234
10
22.9482234
20
44.3279
11
22.9482234
21
45.3182133
0
LINE
8
DEFAULT_255_1_234
10
22.9482234
20
45.3182133
11
22.6486396
21
45.2081785
0
LINE
8
DEFAULT_255_1_234
10
22.6486396
20
45.2081785
11
22.6486396
21
45.3431117
0
LINE
8
DEFAULT_255_1_234
10
22.6486396
20
45.3431117
11
23.0743217
21
45.5029433
0
LINE
8
DEFAULT_255_1_234
10
23.0743217
20
45.5029433
11
23.0976137
21
45.5029433
0
LINE
8
DEFAULT_255_1_234
10
24.0212636
20
45.5029433
11
24.0212636
21
44.3279
0
LINE
8
DEFAULT_255_1_234
10
24.0212636
20
44.3279
11
23.8718733
21
44.3279
0
LINE
8
DEFAULT_255_1_234
10
23.8718733
20
44.3279
11
23.8718733
21
45.3182133
0
LINE
8
DEFAULT_255_1_234
10
23.8718733
20
45.3182133
11
23.5722895
21
45.2081785
0
LINE
8
DEFAULT_255_1_234
10
23.5722895
20
45.2081785
11
23.5722895
21
45.3431117
0
LINE
8
DEFAULT_255_1_234
10
23.5722895
20
45.3431117
11
23.9979716
21
45.5029433
0
LINE
8
DEFAULT_255_1_234
10
23.9979716
20
45.5029433
11
24.0212636
21
45.5029433
0
LINE
8
DEFAULT_255_1_234
10
23.0886137
20
53.4404433
11
23.0886137
21
52.2654
0
LINE
8
DEFAULT_255_1_234
10
23.0886137
20
52.2654
11
22.9392234
21
52.2654
0
LINE
8
DEFAULT_255_1_234
10
22.9392234
20
52.2654
11
22.9392234
21
53.2557133
0
LINE
8
DEFAULT_255_1_234
10
22.9392234
20
53.2557133
11
22.6396396
21
53.1456785
0
LINE
8
DEFAULT_255_1_234
10
22.6396396
20
53.1456785
11
22.6396396
21
53.2806117
0
LINE
8
DEFAULT_255_1_234
10
22.6396396
20
53.2806117
11
23.0653217
21
53.4404433
0
LINE
8
DEFAULT_255_1_234
10
23.0653217
20
53.4404433
11
23.0886137
21
53.4404433
0
LINE
8
DEFAULT_255_1_234
10
24.2572316
20
52.9569327
11
24.2572316
21
52.7641709
0
LINE
8
DEFAULT_255_1_234
10
23.5191149
20
52.7440916
11
23.5191149
21
52.9424755
0
LINE
8
DEFAULT_255_1_234
10
24.1086445
20
52.7240123
11
24.1086445
21
52.9673739
0
LINE
8
DEFAULT_255_1_234
10
23.6677021
20
52.9786184
11
23.6677021
21
52.7408789
0
ARC
8
DEFAULT_255_1_234
10
23.0325206
20
52.7592805
40
1.2247208
50
353.8441951
51
0.2287902
0
ARC
8
DEFAULT_255_1_234
10
23.496471
20
52.7074806
40
0.7578929
50
344.4934747
51
353.9765454
0
ARC
8
DEFAULT_255_1_234
10
23.79573
20
52.6223981
40
0.4467846
50
329.2803592
51
344.7472793
0
ARC
8
DEFAULT_255_1_234
10
23.8950125
20
52.5679018
40
0.3336173
50
324.9352394
51
328.6160465
0
ARC
8
DEFAULT_255_1_234
10
23.9327233
20
52.5415427
40
0.2876076
50
280.580143
51
324.9173126
0
ARC
8
DEFAULT_255_1_234
10
23.8926026
20
52.7086099
40
0.4592847
50
269.5977311
51
281.6734359
0
ARC
8
DEFAULT_255_1_234
10
23.8853932
20
52.6966173
40
0.4472986
50
256.6228859
51
270.51044
0
ARC
8
DEFAULT_255_1_234
10
23.8451909
20
52.5417877
40
0.2873874
50
215.8618325
51
257.2788573
0
ARC
8
DEFAULT_255_1_234
10
23.9472941
20
52.6102977
40
0.4102928
50
197.9693508
51
215.2623606
0
ARC
8
DEFAULT_255_1_234
10
24.1958057
20
52.6941709
40
0.6725652
50
187.8816417
51
198.2346507
0
ARC
8
DEFAULT_255_1_234
10
24.5916265
20
52.7513079
40
1.0724845
50
180.8976217
51
188.0055519
0
ARC
8
DEFAULT_255_1_234
10
24.8716453
20
52.7616777
40
1.3526448
50
180.7449369
51
181.1510016
0
ARC
8
DEFAULT_255_1_234
10
24.7139182
20
52.9473042
40
1.1948131
50
173.7675579
51
180.231553
0
ARC
8
DEFAULT_255_1_234
10
24.2621329
20
52.9983666
40
0.7401564
50
164.3058563
51
173.9002247
0
ARC
8
DEFAULT_255_1_234
10
23.9709398
20
53.0822656
40
0.4371288
50
148.7922025
51
164.568378
0
ARC
8
DEFAULT_255_1_234
10
23.875785
20
53.1353929
40
0.3282386
50
144.5883898
51
148.1176286
0
ARC
8
DEFAULT_255_1_234
10
23.8414748
20
53.1593315
40
0.2864044
50
101.6440918
51
144.514236
0
ARC
8
DEFAULT_255_1_234
10
23.8839814
20
52.9904069
40
0.4604934
50
89.5284041
51
102.5819763
0
ARC
8
DEFAULT_255_1_234
10
23.8918902
20
52.9865018
40
0.464401
50
77.0437873
51
90.5081339
0
ARC
8
DEFAULT_255_1_234
10
23.9320904
20
53.1507615
40
0.2953195
50
48.2778575
51
77.4994676
0
ARC
8
DEFAULT_255_1_234
10
23.9393535
20
53.1636746
40
0.2808655
50
36.3142134
51
47.6305865
0
ARC
8
DEFAULT_255_1_234
10
23.8524842
20
53.1051515
40
0.3855453
50
18.2931786
51
35.6769206
0
ARC
8
DEFAULT_255_1_234
10
23.5981601
20
53.0178593
40
0.654423
50
8.024666
51
18.5605216
0
ARC
8
DEFAULT_255_1_234
10
23.1818521
20
52.9563792
40
1.0752407
50
1.1274072
51
8.1718305
0
ARC
8
DEFAULT_255_1_234
10
22.8582712
20
52.9436885
40
1.3990231
50
0.5424119
51
1.3863029
0
ARC
8
DEFAULT_255_1_234
10
23.0404089
20
52.9709342
40
1.0682415
50
359.8090433
51
4.9407866
0
ARC
8
DEFAULT_255_1_234
10
23.4614103
20
53.0085113
40
0.6455691
50
4.8362157
51
12.2904523
0
ARC
8
DEFAULT_255_1_234
10
23.7369218
20
53.0698965
40
0.3633074
50
12.0805627
51
23.8173984
0
ARC
8
DEFAULT_255_1_234
10
23.8542924
20
53.1195919
40
0.2358723
50
24.2871213
51
31.3935614
0
ARC
8
DEFAULT_255_1_234
10
23.9067621
20
53.1539233
40
0.1732111
50
30.7407893
51
82.4657128
0
ARC
8
DEFAULT_255_1_234
10
23.8887755
20
53.0655691
40
0.263235
50
81.1060089
51
90.2184952
0
ARC
8
DEFAULT_255_1_234
10
23.8852054
20
53.0913924
40
0.2374236
50
89.3806855
51
105.6762551
0
ARC
8
DEFAULT_255_1_234
10
23.8668685
20
53.1580567
40
0.1682847
50
105.7981136
51
149.7388061
0
ARC
8
DEFAULT_255_1_234
10
23.9732763
20
53.094095
40
0.2924306
50
149.4208916
51
163.6286378
0
ARC
8
DEFAULT_255_1_234
10
24.1823651
20
53.030325
40
0.5110213
50
163.3763315
51
172.1410975
0
ARC
8
DEFAULT_255_1_234
10
24.512437
20
52.9830518
40
0.8444586
50
172.0259487
51
178.0703232
0
ARC
8
DEFAULT_255_1_234
10
24.815446
20
52.9686906
40
1.1477868
50
177.8631668
51
179.5044149
0
ARC
8
DEFAULT_255_1_234
10
24.7081864
20
52.7372389
40
1.0404907
50
179.7995573
51
185.2460446
0
ARC
8
DEFAULT_255_1_234
10
24.3038903
20
52.6989513
40
0.6343885
50
185.1411642
51
193.0079639
0
ARC
8
DEFAULT_255_1_234
10
24.0395376
20
52.6364641
40
0.3627568
50
192.7897626
51
205.2507664
0
ARC
8
DEFAULT_255_1_234
10
23.9348923
20
52.5897415
40
0.2481908
50
205.8005384
51
211.2537509
0
ARC
8
DEFAULT_255_1_234
10
23.8825363
20
52.554658
40
0.1852521
50
210.3789793
51
238.4008143
0
ARC
8
DEFAULT_255_1_234
10
23.8805885
20
52.5593376
40
0.1882621
50
239.6520629
51
265.9793761
0
ARC
8
DEFAULT_255_1_234
10
23.8891085
20
52.6265427
40
0.2559272
50
265.1315437
51
270.060332
0
ARC
8
DEFAULT_255_1_234
10
23.8919864
20
52.5941534
40
0.2235528
50
269.3314664
51
287.2178029
0
ARC
8
DEFAULT_255_1_234
10
23.9057716
20
52.5438279
40
0.1714108
50
287.7958004
51
329.080874
0
ARC
8
DEFAULT_255_1_234
10
23.8100173
20
52.603593
40
0.2842745
50
328.6634704
51
343.3325132
0
ARC
8
DEFAULT_255_1_234
10
23.5927193
20
52.6712863
40
0.5118644
50
343.0499468
51
351.9393422
0
ARC
8
DEFAULT_255_1_234
10
23.2460493
20
52.7223949
40
0.8622784
50
351.8069023
51
357.7959224
0
ARC
8
DEFAULT_255_1_234
10
22.9225049
20
52.7391721
40
1.1862365
50
357.5871873
51
359.2677531
0
LINE
8
DEFAULT_255_1_234
10
24.2994246
20
60.9048739
11
24.2994246
21
60.8615025
0
LINE
8
DEFAULT_255_1_234
10
23.7572823
20
60.2020968
11
23.728368
21
60.2020968
0
LINE
8
DEFAULT_255_1_234
10
23.728368
20
60.2020968
11
23.728368
21
60.3273919
0
LINE
8
DEFAULT_255_1_234
10
23.728368
20
60.3273919
11
23.7596918
21
60.3273919
0
LINE
8
DEFAULT_255_1_234
10
24.1508375
20
60.8759597
11
24.1508375
21
60.9353945
0
ARC
8
DEFAULT_255_1_234
10
23.8714644
20
60.9505403
40
0.3635579
50
297.4037347
51
320.016758
0
ARC
8
DEFAULT_255_1_234
10
23.9004593
20
60.894824
40
0.3007486
50
270.2633101
51
297.3851877
0
ARC
8
DEFAULT_255_1_234
10
23.8970549
20
60.9411904
40
0.3471448
50
269.9966443
51
270.7900392
0
ARC
8
DEFAULT_255_1_234
10
23.894503
20
60.9410143
40
0.3469779
50
254.5999133
51
270.4180344
0
ARC
8
DEFAULT_255_1_234
10
23.8802389
20
60.8845647
40
0.2887697
50
236.4717942
51
254.3541279
0
ARC
8
DEFAULT_255_1_234
10
23.8958607
20
60.9055711
40
0.3149125
50
208.4727207
51
236.2134933
0
ARC
8
DEFAULT_255_1_234
10
23.9597382
20
60.9446455
40
0.3897115
50
204.3447514
51
209.0453999
0
ARC
8
DEFAULT_255_1_234
10
24.0276958
20
60.9734656
40
0.4635101
50
183.9375985
51
204.1276318
0
ARC
8
DEFAULT_255_1_234
10
24.1185209
20
60.9832482
40
0.5548037
50
179.9652252
51
184.3013875
0
ARC
8
DEFAULT_255_1_234
10
24.0945255
20
60.9865507
40
0.5308164
50
166.7585989
51
180.3201225
0
ARC
8
DEFAULT_255_1_234
10
24.0098869
20
61.0049488
40
0.4442163
50
154.6955053
51
166.5679793
0
ARC
8
DEFAULT_255_1_234
10
23.9245739
20
61.047921
40
0.3487299
50
136.3324195
51
155.0871442
0
ARC
8
DEFAULT_255_1_234
10
23.8964812
20
61.0719954
40
0.3117924
50
121.236733
51
135.9680508
0
ARC
8
DEFAULT_255_1_234
10
23.910531
20
61.0459743
40
0.3413302
50
96.845628
51
120.9881519
0
ARC
8
DEFAULT_255_1_234
10
23.9250892
20
60.9524515
40
0.4359341
50
89.8870174
51
97.2802754
0
ARC
8
DEFAULT_255_1_234
10
23.930333
20
61.0162095
40
0.3722009
50
70.6505584
51
90.6749113
0
ARC
8
DEFAULT_255_1_234
10
23.9434609
20
61.0675361
40
0.3194571
50
36.7492984
51
69.8219918
0
ARC
8
DEFAULT_255_1_234
10
23.8435774
20
60.9896993
40
0.4460685
50
15.39587
51
37.0840084
0
ARC
8
DEFAULT_255_1_234
10
23.6306207
20
60.9276242
40
0.6678714
50
3.9488873
51
15.6798563
0
ARC
8
DEFAULT_255_1_234
10
23.3904835
20
60.9059964
40
0.9089418
50
359.929245
51
4.2665314
0
ARC
8
DEFAULT_255_1_234
10
22.9299272
20
60.8548513
40
1.3695135
50
352.8366322
51
0.2782669
0
ARC
8
DEFAULT_255_1_234
10
23.4586951
20
60.7861629
40
0.8363105
50
341.8359505
51
352.9884176
0
ARC
8
DEFAULT_255_1_234
10
23.780567
20
60.67767
40
0.4966642
50
322.8578092
51
342.1527901
0
ARC
8
DEFAULT_255_1_234
10
23.8669626
20
60.6187384
40
0.3922466
50
319.334325
51
322.0998941
0
ARC
8
DEFAULT_255_1_234
10
23.8359963
20
60.6498209
40
0.4360033
50
285.9541367
51
318.8878087
0
ARC
8
DEFAULT_255_1_234
10
23.7633224
20
60.88086
40
0.678149
50
272.9281676
51
286.4922826
0
ARC
8
DEFAULT_255_1_234
10
23.7443342
20
61.1059587
40
0.9039547
50
270.8207226
51
273.4012994
0
ARC
8
DEFAULT_255_1_234
10
23.7532193
20
60.9240666
40
0.5967098
50
270.6214993
51
281.4062806
0
ARC
8
DEFAULT_255_1_234
10
23.7962174
20
60.7184833
40
0.3866861
50
281.1852553
51
299.0621114
0
ARC
8
DEFAULT_255_1_234
10
23.8335745
20
60.6463798
40
0.3055236
50
299.5067782
51
313.1200873
0
ARC
8
DEFAULT_255_1_234
10
23.8357712
20
60.6384554
40
0.2982623
50
313.8526205
51
338.5989322
0
ARC
8
DEFAULT_255_1_234
10
23.6733786
20
60.7051781
40
0.4738131
50
338.2523585
51
351.2430902
0
ARC
8
DEFAULT_255_1_234
10
23.4323082
20
60.7461447
40
0.7183203
50
350.9409515
51
357.6691871
0
ARC
8
DEFAULT_255_1_234
10
23.9213512
20
60.9463764
40
0.2294452
50
269.9447023
51
306.8248917
0
ARC
8
DEFAULT_255_1_234
10
23.8976427
20
60.9886898
40
0.2775994
50
305.5072438
51
327.0773448
0
ARC
8
DEFAULT_255_1_234
10
23.9094868
20
60.9792025
40
0.2625056
50
327.4104943
51
336.840169
0
ARC
8
DEFAULT_255_1_234
10
23.6000933
20
60.9386302
40
0.5507537
50
359.6633817
51
10.117533
0
ARC
8
DEFAULT_255_1_234
10
23.7754731
20
60.9710777
40
0.372403
50
9.9430141
51
26.7700076
0
ARC
8
DEFAULT_255_1_234
10
23.8351943
20
60.9986187
40
0.3066865
50
27.2015464
51
34.6829435
0
ARC
8
DEFAULT_255_1_234
10
23.8841423
20
61.0353977
40
0.245519
50
34.1250343
51
50.3070065
0
ARC
8
DEFAULT_255_1_234
10
23.9288103
20
61.0888385
40
0.1758693
50
50.3851167
51
90.6705993
0
ARC
8
DEFAULT_255_1_234
10
23.9241336
20
61.0583799
40
0.2063326
50
89.272901
51
111.9140407
0
ARC
8
DEFAULT_255_1_234
10
23.9221864
20
61.072444
40
0.1925887
50
112.9382311
51
142.5320782
0
ARC
8
DEFAULT_255_1_234
10
23.9768044
20
61.0280969
40
0.2629232
50
142.1021256
51
166.3835592
0
ARC
8
DEFAULT_255_1_234
10
24.0949349
20
60.9975915
40
0.3849193
50
166.1100289
51
178.665427
0
ARC
8
DEFAULT_255_1_234
10
24.1996938
20
60.9917117
40
0.4897989
50
178.2632126
51
180.0111093
0
ARC
8
DEFAULT_255_1_234
10
24.1195059
20
60.9888728
40
0.40962
50
179.6161962
51
191.8787166
0
ARC
8
DEFAULT_255_1_234
10
23.9974898
20
60.9618896
40
0.2846655
50
191.6191692
51
215.2972286
0
ARC
8
DEFAULT_255_1_234
10
23.9778089
20
60.9503918
40
0.2619665
50
215.7320102
51
216.5355409
0
ARC
8
DEFAULT_255_1_234
10
23.9239175
20
60.9071647
40
0.1929497
50
215.7486685
51
239.9727502
0
ARC
8
DEFAULT_255_1_234
10
23.9169091
20
60.9020894
40
0.1850822
50
241.0650169
51
269.2810483
0
ARC
8
DEFAULT_255_1_234
10
23.9211006
20
60.9511371
40
0.2342059
50
268.4062526
51
270.0071348
0
LINE
8
DEFAULT_255_1_234
10
22.2223911
20
68.7612534
11
22.2223911
21
68.6873614
0
LINE
8
DEFAULT_255_1_234
10
21.2818745
20
68.6769201
11
21.2818745
21
68.7612534
0
LINE
8
DEFAULT_255_1_234
10
22.0689849
20
68.6761169
11
22.0689849
21
68.7628597
0
LINE
8
DEFAULT_255_1_234
10
21.4352807
20
68.773301
11
21.4352807
21
68.6873614
0
ARC
8
DEFAULT_255_1_234
10
21.3581937
20
68.6834015
40
0.8642064
50
350.487711
51
0.2625388
0
ARC
8
DEFAULT_255_1_234
10
21.5875178
20
68.6439578
40
0.631518
50
336.0277639
51
350.5787438
0
ARC
8
DEFAULT_255_1_234
10
21.7220002
20
68.5831892
40
0.4839466
50
319.8877444
51
336.1328423
0
ARC
8
DEFAULT_255_1_234
10
21.7822643
20
68.534958
40
0.4067874
50
302.4806467
51
319.6143626
0
ARC
8
DEFAULT_255_1_234
10
21.7707653
20
68.5571202
40
0.4316636
50
275.8195682
51
302.1884709
0
ARC
8
DEFAULT_255_1_234
10
21.7541286
20
68.6713665
40
0.5470306
50
269.9171439
51
276.3397983
0
ARC
8
DEFAULT_255_1_234
10
21.7496496
20
68.6027681
40
0.4784458
50
252.5219675
51
270.4416499
0
ARC
8
DEFAULT_255_1_234
10
21.7352755
20
68.5488592
40
0.422716
50
237.5352116
51
252.1857531
0
ARC
8
DEFAULT_255_1_234
10
21.7441951
20
68.5602363
40
0.4371052
50
209.063312
51
237.3492538
0
ARC
8
DEFAULT_255_1_234
10
21.8311799
20
68.6148685
40
0.5397041
50
205.1183774
51
209.6470015
0
ARC
8
DEFAULT_255_1_234
10
21.9108836
20
68.648683
40
0.6262326
50
188.7215458
51
204.8240747
0
ARC
8
DEFAULT_255_1_234
10
22.1106364
20
68.6823067
40
0.8287794
50
180.3723947
51
188.9252049
0
ARC
8
DEFAULT_255_1_234
10
22.1079116
20
68.7652402
40
0.8260467
50
169.5253763
51
180.2765336
0
ARC
8
DEFAULT_255_1_234
10
21.9176564
20
68.8002309
40
0.6326007
50
155.8315255
51
169.5089989
0
ARC
8
DEFAULT_255_1_234
10
21.7896066
20
68.8596348
40
0.4914567
50
139.6258461
51
156.0379525
0
ARC
8
DEFAULT_255_1_234
10
21.7306399
20
68.9070799
40
0.4158054
50
122.6416387
51
139.3430715
0
ARC
8
DEFAULT_255_1_234
10
21.7407019
20
68.8887451
40
0.4366739
50
93.0223692
51
122.455762
0
ARC
8
DEFAULT_255_1_234
10
21.7515016
20
68.7922709
40
0.5336137
50
89.975342
51
93.6341897
0
ARC
8
DEFAULT_255_1_234
10
21.7553795
20
68.8321242
40
0.4937738
50
73.746375
51
90.4233405
0
ARC
8
DEFAULT_255_1_234
10
21.7729373
20
68.9001287
40
0.4235786
50
57.662753
51
73.4518111
0
ARC
8
DEFAULT_255_1_234
10
21.772138
20
68.9022832
40
0.4221899
50
29.1440151
51
57.414694
0
ARC
8
DEFAULT_255_1_234
10
21.6786574
20
68.8439005
40
0.5322966
50
24.0982783
51
29.7323517
0
ARC
8
DEFAULT_255_1_234
10
21.575285
20
68.8010399
40
0.6441673
50
8.6655297
51
23.8241346
0
ARC
8
DEFAULT_255_1_234
10
21.3518588
20
68.7645854
40
0.8705386
50
359.7806941
51
8.8218784
0
ARC
8
DEFAULT_255_1_234
10
21.2371586
20
68.7671345
40
0.8318373
50
359.7055579
51
8.036044
0
ARC
8
DEFAULT_255_1_234
10
21.5371592
20
68.8108239
40
0.5286768
50
7.8928306
51
20.2962107
0
ARC
8
DEFAULT_255_1_234
10
21.6999162
20
68.8708395
40
0.3552073
50
20.3231126
51
36.4992797
0
ARC
8
DEFAULT_255_1_234
10
21.7684708
20
68.9236402
40
0.2686974
50
36.1437156
51
85.6627023
0
ARC
8
DEFAULT_255_1_234
10
21.7522254
20
68.8196221
40
0.373739
50
84.3852322
51
90.0757696
0
ARC
8
DEFAULT_255_1_234
10
21.7479927
20
68.8856839
40
0.3076997
50
89.3038458
51
109.9045693
0
ARC
8
DEFAULT_255_1_234
10
21.7387318
20
68.9239062
40
0.2686424
50
110.8228367
51
143.9179474
0
ARC
8
DEFAULT_255_1_234
10
21.8320978
20
68.8526236
40
0.3860887
50
143.5289163
51
163.2980757
0
ARC
8
DEFAULT_255_1_234
10
22.0228799
20
68.7926433
40
0.5860659
50
163.0418846
51
174.3140048
0
ARC
8
DEFAULT_255_1_234
10
22.2632911
20
68.7648854
40
0.8280531
50
174.0509143
51
179.4176892
0
ARC
8
DEFAULT_255_1_234
10
22.212865
20
68.6831954
40
0.7775954
50
179.6930361
51
188.7906598
0
ARC
8
DEFAULT_255_1_234
10
21.9465129
20
68.6405935
40
0.5078633
50
188.6331305
51
202.5629587
0
ARC
8
DEFAULT_255_1_234
10
21.8210721
20
68.5901996
40
0.3726913
50
202.8081362
51
216.1193925
0
ARC
8
DEFAULT_255_1_234
10
21.7401291
20
68.5250676
40
0.2689577
50
215.0755913
51
264.6379694
0
ARC
8
DEFAULT_255_1_234
10
21.752824
20
68.6081513
40
0.3528978
50
263.846392
51
270.0833719
0
ARC
8
DEFAULT_255_1_234
10
21.7569631
20
68.5823374
40
0.3271036
50
269.3649385
51
287.5152008
0
ARC
8
DEFAULT_255_1_234
10
21.7747788
20
68.5176238
40
0.2600406
50
288.0630309
51
323.8113348
0
ARC
8
DEFAULT_255_1_234
10
21.687663
20
68.5826049
40
0.3687189
50
323.6547608
51
342.6590488
0
ARC
8
DEFAULT_255_1_234
10
21.4845245
20
68.6486952
40
0.5823286
50
342.4091907
51
353.6451149
0
ARC
8
DEFAULT_255_1_234
10
21.2013756
20
68.683919
40
0.8676442
50
353.4029884
51
359.4847795
0
LINE
8
DEFAULT_255_1_234
10
22.4906511
20
69.3098211
11
22.8231651
21
68.3452093
0
LINE
8
DEFAULT_255_1_234
10
22.8231651
20
68.3452093
11
23.1572854
21
69.3098211
0
LINE
8
DEFAULT_255_1_234
10
23.1572854
20
69.3098211
11
23.3259519
21
69.3098211
0
LINE
8
DEFAULT_255_1_234
10
23.3259519
20
69.3098211
11
22.892238
21
68.1404
0
LINE
8
DEFAULT_255_1_234
10
22.892238
20
68.1404
11
22.7556985
21
68.1404
0
LINE
8
DEFAULT_255_1_234
10
22.7556985
20
68.1404
11
22.3227878
21
69.3098211
0
LINE
8
DEFAULT_255_1_234
10
22.3227878
20
69.3098211
11
22.4906511
21
69.3098211
0
LINE
8
DEFAULT_255_1_234
10
24.2102463
20
68.2616792
11
24.2102463
21
68.1404
0
LINE
8
DEFAULT_255_1_234
10
24.2102463
20
68.1404
11
23.4440185
21
68.1404
0
LINE
8
DEFAULT_255_1_234
10
23.4440185
20
68.1404
11
23.4440185
21
68.2472221
0
LINE
8
DEFAULT_255_1_234
10
23.4440185
20
68.2472221
11
23.8488181
21
68.6969995
0
LINE
8
DEFAULT_255_1_234
10
23.5701167
20
68.9652595
11
23.4215296
21
68.9652595
0
LINE
8
DEFAULT_255_1_234
10
23.936364
20
68.6014218
11
23.6231262
21
68.2616792
0
LINE
8
DEFAULT_255_1_234
10
23.6231262
20
68.2616792
11
24.2102463
21
68.2616792
0
ARC
8
DEFAULT_255_1_234
10
22.4998014
20
69.8899527
40
1.8008286
50
318.5132453
51
320.7828378
0
ARC
8
DEFAULT_255_1_234
10
23.0284988
20
69.4596426
40
1.1191493
50
320.7372736
51
323.9737074
0
ARC
8
DEFAULT_255_1_234
10
23.4204845
20
69.1756361
40
0.6350923
50
323.8961724
51
328.6421089
0
ARC
8
DEFAULT_255_1_234
10
23.625144
20
69.0494031
40
0.3946393
50
328.8299013
51
331.789948
0
ARC
8
DEFAULT_255_1_234
10
23.7248619
20
68.9979509
40
0.2824501
50
331.4255242
51
352.9364833
0
ARC
8
DEFAULT_255_1_234
10
23.7385119
20
68.9948976
40
0.2685315
50
353.2248685
51
0.0169286
0
ARC
8
DEFAULT_255_1_234
10
23.7594996
20
68.997195
40
0.2475536
50
359.4866256
51
15.9339782
0
ARC
8
DEFAULT_255_1_234
10
23.8101982
20
69.0108286
40
0.1950618
50
16.1714718
51
43.5284424
0
ARC
8
DEFAULT_255_1_234
10
23.817929
20
69.0185573
40
0.184134
50
43.4415429
51
83.1661404
0
ARC
8
DEFAULT_255_1_234
10
23.8045208
20
68.9448771
40
0.258926
50
82.160215
51
90.1505798
0
ARC
8
DEFAULT_255_1_234
10
23.8013636
20
68.8911865
40
0.3126255
50
89.5460705
51
102.5418777
0
ARC
8
DEFAULT_255_1_234
10
23.7770722
20
68.9942665
40
0.2067346
50
102.1739365
51
129.2061916
0
ARC
8
DEFAULT_255_1_234
10
23.7691794
20
69.0067094
40
0.1921118
50
129.7279328
51
135.7542026
0
ARC
8
DEFAULT_255_1_234
10
23.7813321
20
68.9970045
40
0.2075944
50
136.175737
51
166.3674722
0
ARC
8
DEFAULT_255_1_234
10
23.882024
20
68.9700182
40
0.3118201
50
165.9092917
51
178.8683903
0
ARC
8
DEFAULT_255_1_234
10
23.9685102
20
68.9653179
40
0.3983935
50
178.438168
51
180.0083905
0
ARC
8
DEFAULT_255_1_234
10
23.8283704
20
68.9692231
40
0.4068601
50
163.2878735
51
180.5581814
0
ARC
8
DEFAULT_255_1_234
10
23.7481965
20
68.991284
40
0.3237344
50
133.454115
51
162.9470031
0
ARC
8
DEFAULT_255_1_234
10
23.7660507
20
68.9723
40
0.349795
50
100.7869394
51
133.4384016
0
ARC
8
DEFAULT_255_1_234
10
23.8008278
20
68.8174319
40
0.5084616
50
89.6605301
51
101.3704185
0
ARC
8
DEFAULT_255_1_234
10
23.8074617
20
68.8235496
40
0.502348
50
78.2171172
51
90.4130393
0
ARC
8
DEFAULT_255_1_234
10
23.8429695
20
68.9859637
40
0.3361092
50
55.9268222
51
78.4888551
0
ARC
8
DEFAULT_255_1_234
10
23.8626135
20
69.0198324
40
0.2970617
50
47.9292255
51
55.4054003
0
ARC
8
DEFAULT_255_1_234
10
23.8727696
20
69.0301502
40
0.2825983
50
4.3347696
51
48.0560701
0
ARC
8
DEFAULT_255_1_234
10
23.763209
20
69.0131601
40
0.393225
50
359.925209
51
5.5967654
0
ARC
8
DEFAULT_255_1_234
10
23.8060981
20
69.0187816
40
0.3503892
50
337.8914096
51
358.9967724
0
ARC
8
DEFAULT_255_1_234
10
23.5347393
20
69.1234706
40
0.6412172
50
326.9135351
51
338.3505194
0
ARC
8
DEFAULT_255_1_234
10
23.1361697
20
69.3789284
40
1.1146189
50
319.6472867
51
327.095818
0
ARC
8
DEFAULT_255_1_234
10
22.75287
20
69.6951
40
1.6114559
50
317.2586784
51
319.9046139
0
LINE
8
DEFAULT_255_1_234
10
22.4550522
20
77.2473211
11
22.7875662
21
76.2827093
0
LINE
8
DEFAULT_255_1_234
10
22.7875662
20
76.2827093
11
23.1216865
21
77.2473211
0
LINE
8
DEFAULT_255_1_234
10
23.1216865
20
77.2473211
11
23.290353
21
77.2473211
0
LINE
8
DEFAULT_255_1_234
10
23.290353
20
77.2473211
11
22.8566391
21
76.0779
0
LINE
8
DEFAULT_255_1_234
10
22.8566391
20
76.0779
11
22.7200996
21
76.0779
0
LINE
8
DEFAULT_255_1_234
10
22.7200996
20
76.0779
11
22.2871889
21
77.2473211
0
LINE
8
DEFAULT_255_1_234
10
22.2871889
20
77.2473211
11
22.4550522
21
77.2473211
0
LINE
8
DEFAULT_255_1_234
10
24.1746474
20
76.1991792
11
24.1746474
21
76.0779
0
LINE
8
DEFAULT_255_1_234
10
24.1746474
20
76.0779
11
23.4084195
21
76.0779
0
LINE
8
DEFAULT_255_1_234
10
23.4084195
20
76.0779
11
23.4084195
21
76.1847221
0
LINE
8
DEFAULT_255_1_234
10
23.4084195
20
76.1847221
11
23.8132191
21
76.6344995
0
LINE
8
DEFAULT_255_1_234
10
23.5345178
20
76.9027595
11
23.3859307
21
76.9027595
0
LINE
8
DEFAULT_255_1_234
10
23.9007651
20
76.5389218
11
23.5875273
21
76.1991792
0
LINE
8
DEFAULT_255_1_234
10
23.5875273
20
76.1991792
11
24.1746474
21
76.1991792
0
ARC
8
DEFAULT_255_1_234
10
22.4642025
20
77.8274527
40
1.8008286
50
318.5132453
51
320.7828378
0
ARC
8
DEFAULT_255_1_234
10
22.9928999
20
77.3971426
40
1.1191493
50
320.7372736
51
323.9737074
0
ARC
8
DEFAULT_255_1_234
10
23.3848855
20
77.1131361
40
0.6350923
50
323.8961724
51
328.6421089
0
ARC
8
DEFAULT_255_1_234
10
23.5895451
20
76.9869031
40
0.3946393
50
328.8299013
51
331.789948
0
ARC
8
DEFAULT_255_1_234
10
23.6892629
20
76.9354509
40
0.2824501
50
331.4255242
51
352.9364833
0
ARC
8
DEFAULT_255_1_234
10
23.702913
20
76.9323976
40
0.2685315
50
353.2248685
51
0.0169286
0
ARC
8
DEFAULT_255_1_234
10
23.7239007
20
76.934695
40
0.2475536
50
359.4866256
51
15.9339782
0
ARC
8
DEFAULT_255_1_234
10
23.7745992
20
76.9483286
40
0.1950618
50
16.1714718
51
43.5284424
0
ARC
8
DEFAULT_255_1_234
10
23.7823301
20
76.9560573
40
0.184134
50
43.4415429
51
83.1661404
0
ARC
8
DEFAULT_255_1_234
10
23.7689219
20
76.8823771
40
0.258926
50
82.160215
51
90.1505798
0
ARC
8
DEFAULT_255_1_234
10
23.7657646
20
76.8286865
40
0.3126255
50
89.5460705
51
102.5418777
0
ARC
8
DEFAULT_255_1_234
10
23.7414732
20
76.9317665
40
0.2067346
50
102.1739365
51
129.2061916
0
ARC
8
DEFAULT_255_1_234
10
23.7335804
20
76.9442094
40
0.1921118
50
129.7279328
51
135.7542026
0
ARC
8
DEFAULT_255_1_234
10
23.7457332
20
76.9345045
40
0.2075944
50
136.175737
51
166.3674722
0
ARC
8
DEFAULT_255_1_234
10
23.8464251
20
76.9075182
40
0.3118201
50
165.9092917
51
178.8683903
0
ARC
8
DEFAULT_255_1_234
10
23.9329112
20
76.9028179
40
0.3983935
50
178.438168
51
180.0083905
0
ARC
8
DEFAULT_255_1_234
10
23.7927714
20
76.9067231
40
0.4068601
50
163.2878735
51
180.5581814
0
ARC
8
DEFAULT_255_1_234
10
23.7125976
20
76.928784
40
0.3237344
50
133.454115
51
162.9470031
0
ARC
8
DEFAULT_255_1_234
10
23.7304517
20
76.9098
40
0.349795
50
100.7869394
51
133.4384016
0
ARC
8
DEFAULT_255_1_234
10
23.7652289
20
76.7549319
40
0.5084616
50
89.6605301
51
101.3704185
0
ARC
8
DEFAULT_255_1_234
10
23.7718627
20
76.7610496
40
0.502348
50
78.2171172
51
90.4130393
0
ARC
8
DEFAULT_255_1_234
10
23.8073706
20
76.9234637
40
0.3361092
50
55.9268222
51
78.4888551
0
ARC
8
DEFAULT_255_1_234
10
23.8270146
20
76.9573324
40
0.2970617
50
47.9292255
51
55.4054003
0
ARC
8
DEFAULT_255_1_234
10
23.8371707
20
76.9676502
40
0.2825983
50
4.3347696
51
48.0560701
0
ARC
8
DEFAULT_255_1_234
10
23.72761
20
76.9506601
40
0.393225
50
359.925209
51
5.5967654
0
ARC
8
DEFAULT_255_1_234
10
23.7704992
20
76.9562816
40
0.3503892
50
337.8914096
51
358.9967724
0
ARC
8
DEFAULT_255_1_234
10
23.4991404
20
77.0609706
40
0.6412172
50
326.9135351
51
338.3505194
0
ARC
8
DEFAULT_255_1_234
10
23.1005708
20
77.3164284
40
1.1146189
50
319.6472867
51
327.095818
0
ARC
8
DEFAULT_255_1_234
10
22.7172711
20
77.6326
40
1.6114559
50
317.2586784
51
319.9046139
0
ARC
8
DEFAULT_255_1_234
10
24.0075624
20
84.8770703
40
0.2822356
50
338.8763615
51
0.5166041
0
ARC
8
DEFAULT_255_1_234
10
24.0244278
20
84.8725208
40
0.2648703
50
325.8412414
51
338.4795939
0
ARC
8
DEFAULT_255_1_234
10
23.9853646
20
84.8996042
40
0.3124019
50
296.7586019
51
325.753654
0
ARC
8
DEFAULT_255_1_234
10
23.9565754
20
84.9480789
40
0.368668
50
296.0902311
51
297.3618122
0
ARC
8
DEFAULT_255_1_234
10
23.9823212
20
84.2926041
40
0.3518806
50
47.9009248
51
67.1946869
0
ARC
8
DEFAULT_255_1_234
10
24.0019454
20
84.3172395
40
0.320451
50
35.236241
51
47.551371
0
ARC
8
DEFAULT_255_1_234
10
24.0281072
20
84.3346993
40
0.2890103
50
359.2759738
51
35.4014081
0
ARC
8
DEFAULT_255_1_234
10
23.9536103
20
84.3273826
40
0.3635026
50
343.1294516
51
0.5776525
0
ARC
8
DEFAULT_255_1_234
10
24.0260648
20
84.307433
40
0.2883832
50
310.8497458
51
342.744803
0
ARC
8
DEFAULT_255_1_234
10
23.9842761
20
84.3551294
40
0.3517954
50
281.5473923
51
310.9169905
0
ARC
8
DEFAULT_255_1_234
10
23.948621
20
84.5104084
40
0.5110832
50
269.6192722
51
281.9789957
0
ARC
8
DEFAULT_255_1_234
10
23.9414
20
84.5104828
40
0.5111606
50
257.4584469
51
270.4287458
0
ARC
8
DEFAULT_255_1_234
10
23.9033143
20
84.3501344
40
0.3463762
50
228.7553743
51
257.8484423
0
ARC
8
DEFAULT_255_1_234
10
23.8723341
20
84.3128442
40
0.297916
50
184.0104442
51
228.5071787
0
ARC
8
DEFAULT_255_1_234
10
23.9886285
20
84.3305512
40
0.4152734
50
179.9315461
51
185.3254504
0
ARC
8
DEFAULT_255_1_234
10
23.8709931
20
84.3342992
40
0.2976554
50
145.6795913
51
180.6259649
0
ARC
8
DEFAULT_255_1_234
10
23.887328
20
84.3228929
40
0.3175776
50
115.5537925
51
145.6416199
0
ARC
8
DEFAULT_255_1_234
10
23.921421
20
84.2618028
40
0.3874232
50
113.2437915
51
116.2054627
0
ARC
8
DEFAULT_255_1_234
10
23.9061423
20
84.901658
40
0.3154751
50
222.9548379
51
244.1372485
0
ARC
8
DEFAULT_255_1_234
10
23.8939498
20
84.8879834
40
0.2972382
50
213.3439227
51
222.6271327
0
ARC
8
DEFAULT_255_1_234
10
23.8747433
20
84.8749308
40
0.274019
50
180.4316517
51
213.2713999
0
ARC
8
DEFAULT_255_1_234
10
23.9322434
20
84.879611
40
0.33158
50
179.9992944
51
181.1655061
0
ARC
8
DEFAULT_255_1_234
10
23.9731851
20
84.8830561
40
0.3725376
50
164.6186108
51
180.5292368
0
ARC
8
DEFAULT_255_1_234
10
23.8833714
20
84.9072101
40
0.2795349
50
132.2454369
51
164.5092287
0
ARC
8
DEFAULT_255_1_234
10
23.9120818
20
84.8747028
40
0.3229019
50
100.7052766
51
132.1387266
0
ARC
8
DEFAULT_255_1_234
10
23.942579
20
84.7369086
40
0.4639835
50
89.6732617
51
101.2449487
0
ARC
8
DEFAULT_255_1_234
10
23.9487988
20
84.754399
40
0.4464999
50
76.2876631
51
90.4586123
0
ARC
8
DEFAULT_255_1_234
10
23.979422
20
84.876622
40
0.3205023
50
47.8240157
51
76.4266918
0
ARC
8
DEFAULT_255_1_234
10
24.001677
20
84.902659
40
0.2862661
50
6.9168658
51
47.6261438
0
ARC
8
DEFAULT_255_1_234
10
23.8830173
20
84.880737
40
0.4067708
50
359.8419705
51
7.9694496
0
ARC
8
DEFAULT_255_1_234
10
23.917207
20
84.3366925
40
0.2513121
50
359.4454068
51
16.9256425
0
ARC
8
DEFAULT_255_1_234
10
23.9640881
20
84.3496033
40
0.2027071
50
17.292259
51
45.462717
0
ARC
8
DEFAULT_255_1_234
10
23.9586817
20
84.3449434
40
0.2098212
50
45.3028762
51
83.1921472
0
ARC
8
DEFAULT_255_1_234
10
23.9443501
20
84.2647895
40
0.2911472
50
82.2614531
51
90.143954
0
ARC
8
DEFAULT_255_1_234
10
23.9412621
20
84.288095
40
0.2678513
50
89.4959189
51
104.8579811
0
ARC
8
DEFAULT_255_1_234
10
23.923588
20
84.355089
40
0.1985654
50
104.8855873
51
135.2448349
0
ARC
8
DEFAULT_255_1_234
10
23.9285653
20
84.3506336
40
0.2052373
50
135.3398955
51
172.104394
0
ARC
8
DEFAULT_255_1_234
10
24.0092711
20
84.3351925
40
0.2873299
50
171.2651929
51
180.1859362
0
ARC
8
DEFAULT_255_1_234
10
23.9923412
20
84.3319733
40
0.2704083
50
179.515471
51
193.6466734
0
ARC
8
DEFAULT_255_1_234
10
23.9107181
20
84.3111777
40
0.1861855
50
193.3540587
51
225.8256931
0
ARC
8
DEFAULT_255_1_234
10
23.9147938
20
84.3182524
40
0.1941102
50
226.418029
51
255.8553723
0
ARC
8
DEFAULT_255_1_234
10
23.9404371
20
84.4118998
40
0.2911917
50
255.4655572
51
268.7985967
0
ARC
8
DEFAULT_255_1_234
10
23.9451563
20
84.4957491
40
0.3751331
50
268.3464808
51
270.0104874
0
ARC
8
DEFAULT_255_1_234
10
23.9474951
20
84.4273138
40
0.3067064
50
269.575914
51
282.0823146
0
ARC
8
DEFAULT_255_1_234
10
23.969986
20
84.3278803
40
0.2047712
50
281.7522535
51
306.6056425
0
ARC
8
DEFAULT_255_1_234
10
23.9798286
20
84.3117487
40
0.1859604
50
307.1350025
51
314.0277951
0
ARC
8
DEFAULT_255_1_234
10
23.976237
20
84.3143766
40
0.1903475
50
314.2553419
51
350.169324
0
ARC
8
DEFAULT_255_1_234
10
23.8910839
20
84.3328409
40
0.2774269
50
349.4145679
51
0.2930737
0
ARC
8
DEFAULT_255_1_234
10
23.9431272
20
84.8487353
40
0.2300764
50
89.477591
51
105.729794
0
ARC
8
DEFAULT_255_1_234
10
23.9295185
20
84.8992637
40
0.1777519
50
105.922966
51
135.1662921
0
ARC
8
DEFAULT_255_1_234
10
23.9315688
20
84.8978419
40
0.1802087
50
135.3053131
51
168.9882338
0
ARC
8
DEFAULT_255_1_234
10
24.014326
20
84.8788721
40
0.2650806
50
168.3802067
51
180.3602358
0
ARC
8
DEFAULT_255_1_234
10
23.991484
20
84.8751041
40
0.2422425
50
179.5029707
51
194.9126783
0
ARC
8
DEFAULT_255_1_234
10
23.9329501
20
84.859711
40
0.1817188
50
194.9722181
51
224.1943972
0
ARC
8
DEFAULT_255_1_234
10
23.9301368
20
84.8574169
40
0.1781027
50
224.2961434
51
262.0157375
0
ARC
8
DEFAULT_255_1_234
10
23.9443611
20
84.9305661
40
0.2525492
50
261.1250369
51
270.1959853
0
ARC
8
DEFAULT_255_1_234
10
23.9473366
20
84.9118339
40
0.233825
50
269.4825617
51
285.0988277
0
ARC
8
DEFAULT_255_1_234
10
23.9627525
20
84.853999
40
0.1739712
50
285.1585659
51
315.9484648
0
ARC
8
DEFAULT_255_1_234
10
23.9538537
20
84.8621886
40
0.1860616
50
316.0412958
51
351.9162715
0
ARC
8
DEFAULT_255_1_234
10
23.8805492
20
84.8763245
40
0.2606517
50
351.1056823
51
0.1936567
0
ARC
8
DEFAULT_255_1_234
10
23.9068321
20
84.8793369
40
0.234377
50
359.4789506
51
16.0679113
0
ARC
8
DEFAULT_255_1_234
10
23.954428
20
84.892181
40
0.1850875
50
16.3251951
51
44.791304
0
ARC
8
DEFAULT_255_1_234
10
23.9526561
20
84.8922339
40
0.186312
50
44.3958661
51
88.2498933
0
ARC
8
DEFAULT_255_1_234
10
23.9453115
20
84.8311154
40
0.2476868
50
86.9833827
51
90.0200148
0
LINE
8
DEFAULT_255_1_234
10
24.3355674
20
93.1223211
11
24.3355674
21
93.038791
0
LINE
8
DEFAULT_255_1_234
10
24.3355674
20
93.038791
11
23.8512536
21
91.9529
0
LINE
8
DEFAULT_255_1_234
10
23.8512536
20
91.9529
11
23.6954379
21
91.9529
0
LINE
8
DEFAULT_255_1_234
10
23.6954379
20
91.9529
11
24.1781454
21
93.0002387
0
LINE
8
DEFAULT_255_1_234
10
24.1781454
20
93.0002387
11
23.5452444
21
93.0002387
0
LINE
8
DEFAULT_255_1_234
10
23.5452444
20
93.0002387
11
23.5452444
21
93.1223211
0
LINE
8
DEFAULT_255_1_234
10
23.5452444
20
93.1223211
11
24.3355674
21
93.1223211
0
LINE
8
DEFAULT_255_1_234
10
24.1371835
20
101.0606243
11
24.1636882
21
101.0606243
0
LINE
8
DEFAULT_255_1_234
10
24.1636882
20
101.0606243
11
24.1636882
21
100.934526
0
LINE
8
DEFAULT_255_1_234
10
24.1636882
20
100.934526
11
24.1363803
21
100.934526
0
LINE
8
DEFAULT_255_1_234
10
23.5894189
20
100.3353583
11
23.5894189
21
100.3923836
0
LINE
8
DEFAULT_255_1_234
10
23.7388093
20
100.3731075
11
23.7388093
21
100.3184917
0
ARC
8
DEFAULT_255_1_234
10
24.1416151
20
100.4347455
40
0.4998079
50
90.6001036
51
104.514704
0
ARC
8
DEFAULT_255_1_234
10
24.1027667
20
100.5792131
40
0.3502176
50
104.2855254
51
133.862935
0
ARC
8
DEFAULT_255_1_234
10
24.1191424
20
100.568383
40
0.3693984
50
134.5302688
51
161.6210873
0
ARC
8
DEFAULT_255_1_234
10
24.2844613
20
100.5100895
40
0.5446739
50
161.2849839
51
174.2076652
0
ARC
8
DEFAULT_255_1_234
10
24.425155
20
100.4906787
40
0.6866274
50
173.7810589
51
174.9254635
0
ARC
8
DEFAULT_255_1_234
10
23.9701382
20
100.3523839
40
0.3033419
50
95.8330959
51
138.9954921
0
ARC
8
DEFAULT_255_1_234
10
23.9924738
20
100.2245375
40
0.4328947
50
89.8753725
51
97.0544009
0
ARC
8
DEFAULT_255_1_234
10
23.9972204
20
100.3080748
40
0.3493769
50
71.6407809
51
90.6240094
0
ARC
8
DEFAULT_255_1_234
10
24.0122777
20
100.3635082
40
0.2920396
50
39.6367836
51
71.019018
0
ARC
8
DEFAULT_255_1_234
10
23.948625
20
100.3084998
40
0.3761538
50
10.658731
51
39.9043955
0
ARC
8
DEFAULT_255_1_234
10
23.7938333
20
100.2748686
40
0.5345136
50
359.682601
51
11.132623
0
ARC
8
DEFAULT_255_1_234
10
23.7898464
20
100.267801
40
0.5385081
50
347.2486944
51
0.4369317
0
ARC
8
DEFAULT_255_1_234
10
23.9565941
20
100.2276807
40
0.3670249
50
318.1409698
51
347.6118597
0
ARC
8
DEFAULT_255_1_234
10
23.9890934
20
100.2009702
40
0.3250007
50
275.6342139
51
317.8248465
0
ARC
8
DEFAULT_255_1_234
10
23.9670045
20
100.3309219
40
0.4565864
50
269.8874292
51
276.7917694
0
ARC
8
DEFAULT_255_1_234
10
23.9615116
20
100.2283743
40
0.3540676
50
246.9140195
51
270.7437342
0
ARC
8
DEFAULT_255_1_234
10
23.9621506
20
100.2141384
40
0.3412781
50
218.1665114
51
245.878116
0
ARC
8
DEFAULT_255_1_234
10
24.0500967
20
100.2877279
40
0.455911
50
191.4115814
51
218.6077802
0
ARC
8
DEFAULT_255_1_234
10
24.2439056
20
100.3311833
40
0.6545001
50
179.6345085
51
191.7836486
0
ARC
8
DEFAULT_255_1_234
10
24.8021393
20
100.3990697
40
1.2127388
50
171.4525249
51
180.3158839
0
ARC
8
DEFAULT_255_1_234
10
24.3626269
20
100.4674608
40
0.7679464
50
157.9802646
51
171.6246686
0
ARC
8
DEFAULT_255_1_234
10
24.141229
20
100.5557421
40
0.5296008
50
141.4298019
51
157.854097
0
ARC
8
DEFAULT_255_1_234
10
24.077061
20
100.6011381
40
0.4511509
50
102.8715806
51
140.8564722
0
ARC
8
DEFAULT_255_1_234
10
24.1418226
20
100.3571552
40
0.7034845
50
90.3778349
51
103.5869322
0
ARC
8
DEFAULT_255_1_234
10
23.9680002
20
100.296673
40
0.2370698
50
89.8751008
51
126.2071704
0
ARC
8
DEFAULT_255_1_234
10
23.9725792
20
100.2812303
40
0.2522934
50
124.9745049
51
144.895901
0
ARC
8
DEFAULT_255_1_234
10
23.9549982
20
100.295556
40
0.2296779
50
145.2974905
51
160.2660252
0
ARC
8
DEFAULT_255_1_234
10
24.2622521
20
100.3153071
40
0.5234525
50
179.6514266
51
190.2855912
0
ARC
8
DEFAULT_255_1_234
10
24.0928658
20
100.2833786
40
0.3510893
50
190.0945431
51
207.5098196
0
ARC
8
DEFAULT_255_1_234
10
24.0362928
20
100.2564623
40
0.288489
50
207.9583163
51
216.3251085
0
ARC
8
DEFAULT_255_1_234
10
24.0023036
20
100.2285105
40
0.2445587
50
215.7661442
51
232.5456785
0
ARC
8
DEFAULT_255_1_234
10
23.9640019
20
100.1798482
40
0.1826382
50
232.8005391
51
270.6605633
0
ARC
8
DEFAULT_255_1_234
10
23.968572
20
100.2162612
40
0.2190529
50
269.35537
51
288.4744281
0
ARC
8
DEFAULT_255_1_234
10
23.9778617
20
100.1813118
40
0.1829749
50
289.1833337
51
322.9683818
0
ARC
8
DEFAULT_255_1_234
10
23.9167139
20
100.2295391
40
0.2608399
50
322.6007884
51
346.5182367
0
ARC
8
DEFAULT_255_1_234
10
23.8009735
20
100.2590616
40
0.3802777
50
346.2582162
51
358.7741648
0
ARC
8
DEFAULT_255_1_234
10
23.6991404
20
100.2645965
40
0.4822176
50
358.3755224
51
0.0098023
0
ARC
8
DEFAULT_255_1_234
10
23.7747591
20
100.2673657
40
0.4066078
50
359.6214041
51
11.2839074
0
ARC
8
DEFAULT_255_1_234
10
23.9024738
20
100.2940066
40
0.2761514
50
11.0482309
51
31.8146458
0
ARC
8
DEFAULT_255_1_234
10
23.9333781
20
100.3107584
40
0.2410679
50
32.3035391
51
38.082671
0
ARC
8
DEFAULT_255_1_234
10
23.9754441
20
100.3488662
40
0.1844966
50
36.825067
51
85.7415724
0
ARC
8
DEFAULT_255_1_234
10
23.9687274
20
100.2988301
40
0.2349122
50
85.0140713
51
90.0513278
0
LINE
8
DEFAULT_255_1_234
10
23.7677235
20
108.3836963
11
23.6488538
21
108.4142169
0
LINE
8
DEFAULT_255_1_234
10
23.6488538
20
108.4142169
11
23.7082887
21
108.9973211
0
LINE
8
DEFAULT_255_1_234
10
23.7082887
20
108.9973211
11
24.3074563
21
108.9973211
0
LINE
8
DEFAULT_255_1_234
10
24.3074563
20
108.9973211
11
24.3074563
21
108.8599784
0
LINE
8
DEFAULT_255_1_234
10
24.3074563
20
108.8599784
11
23.834387
21
108.8599784
0
LINE
8
DEFAULT_255_1_234
10
23.834387
20
108.8599784
11
23.7990473
21
108.5411184
0
LINE
8
DEFAULT_255_1_234
10
23.6070888
20
108.1355156
11
23.7476442
21
108.1355156
0
LINE
8
DEFAULT_255_1_234
10
23.8070791
20
108.4158232
11
23.7677235
21
108.3836963
0
ARC
8
DEFAULT_255_1_234
10
23.9845257
20
108.223123
40
0.3681349
50
93.7182161
51
120.2538958
0
ARC
8
DEFAULT_255_1_234
10
23.993952
20
108.1423394
40
0.449379
50
89.9660152
51
94.2496022
0
ARC
8
DEFAULT_255_1_234
10
23.9980254
20
108.2012549
40
0.390482
50
73.8043271
51
90.5585896
0
ARC
8
DEFAULT_255_1_234
10
24.0215151
20
108.2870602
40
0.3015334
50
41.3071453
51
73.5430202
0
ARC
8
DEFAULT_255_1_234
10
23.9798978
20
108.2512324
40
0.3564457
50
13.5075983
51
41.2174222
0
ARC
8
DEFAULT_255_1_234
10
23.8157182
20
108.2082486
40
0.5261351
50
1.1331335
51
13.8829381
0
ARC
8
DEFAULT_255_1_234
10
23.6745551
20
108.2006665
40
0.6674378
50
359.9919444
51
1.544251
0
ARC
8
DEFAULT_255_1_234
10
23.8022377
20
108.196528
40
0.5397702
50
347.8572367
51
0.4293338
0
ARC
8
DEFAULT_255_1_234
10
23.9772695
20
108.1568736
40
0.3603188
50
323.673004
51
348.1672506
0
ARC
8
DEFAULT_255_1_234
10
24.0067203
20
108.1389168
40
0.3259678
50
316.8171152
51
323.1492751
0
ARC
8
DEFAULT_255_1_234
10
24.0128392
20
108.135246
40
0.3189975
50
281.8396411
51
316.5457803
0
ARC
8
DEFAULT_255_1_234
10
23.9752656
20
108.2907762
40
0.4789527
50
269.5770101
51
282.4214771
0
ARC
8
DEFAULT_255_1_234
10
23.9681467
20
108.2694125
40
0.45759
50
256.2427136
51
270.4486331
0
ARC
8
DEFAULT_255_1_234
10
23.938237
20
108.1494229
40
0.3339303
50
228.9023911
51
256.3314342
0
ARC
8
DEFAULT_255_1_234
10
23.9308602
20
108.1377746
40
0.32031
50
193.753695
51
228.5271154
0
ARC
8
DEFAULT_255_1_234
10
24.0546556
20
108.17408
40
0.4492253
50
184.924711
51
194.497588
0
ARC
8
DEFAULT_255_1_234
10
24.0739123
20
108.1776591
40
0.3289787
50
187.3600538
51
198.6732863
0
ARC
8
DEFAULT_255_1_234
10
23.9689417
20
108.1412674
40
0.217884
50
198.4451669
51
217.794479
0
ARC
8
DEFAULT_255_1_234
10
23.9393592
20
108.1203085
40
0.1816698
50
218.2887171
51
228.5612368
0
ARC
8
DEFAULT_255_1_234
10
23.9491379
20
108.1334963
40
0.1980329
50
228.9654866
51
258.1234728
0
ARC
8
DEFAULT_255_1_234
10
23.9697089
20
108.2215833
40
0.2884748
50
257.7258293
51
270.401361
0
ARC
8
DEFAULT_255_1_234
10
23.9741975
20
108.1770821
40
0.2439788
50
269.4204404
51
286.4209037
0
ARC
8
DEFAULT_255_1_234
10
23.9890463
20
108.1231657
40
0.1880666
50
286.7251356
51
320.600362
0
ARC
8
DEFAULT_255_1_234
10
23.9507288
20
108.1542595
40
0.2374121
50
320.6712579
51
344.5441685
0
ARC
8
DEFAULT_255_1_234
10
23.8350614
20
108.1882045
40
0.3579479
50
344.2412205
51
356.7357071
0
ARC
8
DEFAULT_255_1_234
10
23.7101763
20
108.1985444
40
0.4832297
50
356.3548756
51
0.0500261
0
ARC
8
DEFAULT_255_1_234
10
23.8438272
20
108.201665
40
0.3495889
50
359.5576869
51
12.953486
0
ARC
8
DEFAULT_255_1_234
10
23.9493169
20
108.2272434
40
0.2410532
50
12.6490276
51
41.6081334
0
ARC
8
DEFAULT_255_1_234
10
23.972354
20
108.2468321
40
0.2108218
50
41.7850273
51
85.9892764
0
ARC
8
DEFAULT_255_1_234
10
23.9600277
20
108.1655462
40
0.2928454
50
84.6957577
51
90.0676183
0
ARC
8
DEFAULT_255_1_234
10
23.9576761
20
108.0986716
40
0.3597255
50
89.6804936
51
99.1614436
0
ARC
8
DEFAULT_255_1_234
10
23.9371392
20
108.2214131
40
0.235281
50
98.9830931
51
113.8908934
0
ARC
8
DEFAULT_255_1_234
10
23.9141802
20
108.2755587
40
0.176479
50
114.1950727
51
127.3641004
0
LINE
8
DEFAULT_255_1_234
10
23.9961628
20
116.9348211
11
23.9961628
21
116.158152
0
LINE
8
DEFAULT_255_1_234
10
23.9961628
20
116.158152
11
24.1584039
21
116.158152
0
LINE
8
DEFAULT_255_1_234
10
24.1584039
20
116.158152
11
24.1584039
21
116.0368728
0
LINE
8
DEFAULT_255_1_234
10
24.1584039
20
116.0368728
11
23.9961628
21
116.0368728
0
LINE
8
DEFAULT_255_1_234
10
23.9961628
20
116.0368728
11
23.9961628
21
115.7654
0
LINE
8
DEFAULT_255_1_234
10
23.9961628
20
115.7654
11
23.8467725
21
115.7654
0
LINE
8
DEFAULT_255_1_234
10
23.8467725
20
115.7654
11
23.8467725
21
116.0368728
0
LINE
8
DEFAULT_255_1_234
10
23.8467725
20
116.0368728
11
23.3142682
21
116.0368728
0
LINE
8
DEFAULT_255_1_234
10
23.3142682
20
116.0368728
11
23.3142682
21
116.1244187
0
LINE
8
DEFAULT_255_1_234
10
23.3142682
20
116.1244187
11
23.8379375
21
116.9348211
0
LINE
8
DEFAULT_255_1_234
10
23.8379375
20
116.9348211
11
23.9961628
21
116.9348211
0
LINE
8
DEFAULT_255_1_234
10
23.8291026
20
116.6994912
11
23.4829347
21
116.158152
0
LINE
8
DEFAULT_255_1_234
10
23.4829347
20
116.158152
11
23.8467725
21
116.158152
0
LINE
8
DEFAULT_255_1_234
10
23.8467725
20
116.158152
11
23.8467725
21
116.7316181
0
LINE
8
DEFAULT_255_1_234
10
23.8467725
20
116.7316181
11
23.8291026
21
116.6994912
0
LINE
8
DEFAULT_255_1_234
10
23.7966378
20
124.2386169
11
23.7966378
21
124.3598962
0
LINE
8
DEFAULT_255_1_234
10
23.7966378
20
124.3598962
11
23.908279
21
124.3598962
0
LINE
8
DEFAULT_255_1_234
10
23.7179268
20
124.5655087
11
23.5693396
21
124.5655087
0
LINE
8
DEFAULT_255_1_234
10
23.5588983
20
124.0113188
11
23.7082887
21
124.0113188
0
LINE
8
DEFAULT_255_1_234
10
23.908279
20
124.2386169
11
23.7966378
21
124.2386169
0
ARC
8
DEFAULT_255_1_234
10
23.9053656
20
124.6991713
40
0.3392876
50
270.4919872
51
281.8951556
0
ARC
8
DEFAULT_255_1_234
10
23.9294918
20
124.5889702
40
0.2264817
50
281.6691735
51
301.2943132
0
ARC
8
DEFAULT_255_1_234
10
23.9465128
20
124.5578304
40
0.1910381
50
301.7833094
51
311.7545298
0
ARC
8
DEFAULT_255_1_234
10
23.9556704
20
124.5476748
40
0.1773635
50
311.7323931
51
354.2802411
0
ARC
8
DEFAULT_255_1_234
10
23.8830329
20
124.5601722
40
0.2509385
50
353.0937916
51
0.1181479
0
ARC
8
DEFAULT_255_1_234
10
23.8369114
20
124.5649386
40
0.2970898
50
359.1805295
51
15.0453146
0
ARC
8
DEFAULT_255_1_234
10
23.9714951
20
124.6041992
40
0.1569564
50
13.9577229
51
77.6713066
0
ARC
8
DEFAULT_255_1_234
10
23.932848
20
124.4656949
40
0.3006298
50
76.1116566
51
90.7026153
0
ARC
8
DEFAULT_255_1_234
10
23.9269318
20
124.4930545
40
0.2732568
50
89.5324876
51
103.531937
0
ARC
8
DEFAULT_255_1_234
10
23.9068762
20
124.5729884
40
0.1908508
50
103.2931773
51
133.5619022
0
ARC
8
DEFAULT_255_1_234
10
23.9024251
20
124.5789375
40
0.1834746
50
133.8349307
51
173.5344437
0
ARC
8
DEFAULT_255_1_234
10
23.9747294
20
124.5661213
40
0.2568033
50
172.5096846
51
180.1366907
0
ARC
8
DEFAULT_255_1_234
10
23.8796188
20
124.5695622
40
0.3103056
50
155.3484492
51
180.7484736
0
ARC
8
DEFAULT_255_1_234
10
23.8747277
20
124.5666846
40
0.3070957
50
131.5744599
51
154.4798489
0
ARC
8
DEFAULT_255_1_234
10
23.9060424
20
124.535031
40
0.3515643
50
96.9875458
51
131.9690667
0
ARC
8
DEFAULT_255_1_234
10
23.9279904
20
124.4104636
40
0.4779224
50
89.8596053
51
97.7825159
0
ARC
8
DEFAULT_255_1_234
10
23.9327967
20
124.3842616
40
0.5041361
50
78.3655447
51
90.4131539
0
ARC
8
DEFAULT_255_1_234
10
23.9685885
20
124.5501887
40
0.3344039
50
56.6229102
51
78.638727
0
ARC
8
DEFAULT_255_1_234
10
23.9900829
20
124.5877805
40
0.2912001
50
47.0253525
51
56.0854072
0
ARC
8
DEFAULT_255_1_234
10
23.9920609
20
124.5917223
40
0.2869704
50
10.9208013
51
46.7778124
0
ARC
8
DEFAULT_255_1_234
10
23.8556675
20
124.5601857
40
0.426899
50
359.6364486
51
11.6087304
0
ARC
8
DEFAULT_255_1_234
10
24.0391519
20
124.5586752
40
0.243409
50
332.3549906
51
359.7179418
0
ARC
8
DEFAULT_255_1_234
10
23.9741121
20
124.5895142
40
0.3153459
50
325.2333722
51
332.8745602
0
ARC
8
DEFAULT_255_1_234
10
23.9893744
20
124.5788828
40
0.2967456
50
292.9802137
51
325.2392345
0
ARC
8
DEFAULT_255_1_234
10
23.9619118
20
124.6322863
40
0.3566604
50
292.5402179
51
293.6924929
0
ARC
8
DEFAULT_255_1_234
10
24.0011714
20
123.9868091
40
0.3307468
50
57.6435486
51
72.8625112
0
ARC
8
DEFAULT_255_1_234
10
24.0366214
20
124.0442549
40
0.2632492
50
36.7248896
51
57.4697979
0
ARC
8
DEFAULT_255_1_234
10
24.0354847
20
124.045522
40
0.2634081
50
8.0545065
51
36.356114
0
ARC
8
DEFAULT_255_1_234
10
23.9492032
20
124.0300174
40
0.3510261
50
359.8320645
51
8.5869982
0
ARC
8
DEFAULT_255_1_234
10
23.9116808
20
124.0252101
40
0.3885653
50
343.9829931
51
0.5571613
0
ARC
8
DEFAULT_255_1_234
10
24.0003005
20
124.0009438
40
0.2966924
50
311.6359546
51
343.7651759
0
ARC
8
DEFAULT_255_1_234
10
23.9624574
20
124.0436102
40
0.3537231
50
279.7829875
51
311.6255694
0
ARC
8
DEFAULT_255_1_234
10
23.9323351
20
124.187328
40
0.5004971
50
269.7286406
51
280.3856417
0
ARC
8
DEFAULT_255_1_234
10
23.9261423
20
124.1831996
40
0.4963778
50
256.6828919
51
270.4412052
0
ARC
8
DEFAULT_255_1_234
10
23.8922719
20
124.0447394
40
0.3538406
50
229.4223008
51
256.8556159
0
ARC
8
DEFAULT_255_1_234
10
23.8508112
20
123.9980736
40
0.2914296
50
181.818294
51
229.6455059
0
ARC
8
DEFAULT_255_1_234
10
23.9548068
20
124.0111496
40
0.3959084
50
179.9755256
51
183.2323064
0
ARC
8
DEFAULT_255_1_234
10
23.9375814
20
124.0091037
40
0.2293034
50
179.4465117
51
196.2869258
0
ARC
8
DEFAULT_255_1_234
10
23.8888222
20
123.9957651
40
0.1787621
50
196.5661473
51
227.705904
0
ARC
8
DEFAULT_255_1_234
10
23.9052317
20
124.0141155
40
0.2033784
50
227.7652068
51
257.8762805
0
ARC
8
DEFAULT_255_1_234
10
23.9277287
20
124.1084156
40
0.3003081
50
257.4584385
51
270.426602
0
ARC
8
DEFAULT_255_1_234
10
23.9322853
20
124.1373996
40
0.329292
50
269.5962073
51
280.8789248
0
ARC
8
DEFAULT_255_1_234
10
23.9552382
20
124.0227685
40
0.2123908
50
280.6346389
51
299.8595945
0
ARC
8
DEFAULT_255_1_234
10
23.9743289
20
123.9865212
40
0.171457
50
300.3576302
51
314.5517981
0
ARC
8
DEFAULT_255_1_234
10
23.9660349
20
123.9925919
40
0.1816095
50
315.0728369
51
345.0431014
0
ARC
8
DEFAULT_255_1_234
10
23.8737163
20
124.0194841
40
0.2777492
50
344.5986631
51
357.9269593
0
ARC
8
DEFAULT_255_1_234
10
23.7841489
20
124.0256276
40
0.3674917
50
357.4748886
51
0.0231117
0
ARC
8
DEFAULT_255_1_234
10
23.8864599
20
124.0280679
40
0.2651907
50
359.5047933
51
13.4239635
0
ARC
8
DEFAULT_255_1_234
10
23.9731242
20
124.0502478
40
0.1757509
50
12.9498199
51
48.7551375
0
ARC
8
DEFAULT_255_1_234
10
23.9548976
20
124.02534
40
0.2065134
50
49.5088623
51
72.1836453
0
ARC
8
DEFAULT_255_1_234
10
23.9191129
20
123.9191291
40
0.3185836
50
71.9010081
51
84.3554254
0
ARC
8
DEFAULT_255_1_234
10
23.9029761
20
123.7830326
40
0.4556151
50
84.0193428
51
89.333121
0
LINE
8
DEFAULT_255_1_234
10
24.3468119
20
131.7616792
11
24.3468119
21
131.6404
0
LINE
8
DEFAULT_255_1_234
10
24.3468119
20
131.6404
11
23.580584
21
131.6404
0
LINE
8
DEFAULT_255_1_234
10
23.580584
20
131.6404
11
23.580584
21
131.7472221
0
LINE
8
DEFAULT_255_1_234
10
23.580584
20
131.7472221
11
23.9853836
21
132.1969995
0
LINE
8
DEFAULT_255_1_234
10
23.7066823
20
132.4652595
11
23.5580952
21
132.4652595
0
LINE
8
DEFAULT_255_1_234
10
24.0729296
20
132.1014218
11
23.7596918
21
131.7616792
0
LINE
8
DEFAULT_255_1_234
10
23.7596918
20
131.7616792
11
24.3468119
21
131.7616792
0
ARC
8
DEFAULT_255_1_234
10
22.636367
20
133.3899527
40
1.8008286
50
318.5132453
51
320.7828378
0
ARC
8
DEFAULT_255_1_234
10
23.1650644
20
132.9596426
40
1.1191493
50
320.7372736
51
323.9737074
0
ARC
8
DEFAULT_255_1_234
10
23.5570501
20
132.6756361
40
0.6350923
50
323.8961724
51
328.6421089
0
ARC
8
DEFAULT_255_1_234
10
23.7617096
20
132.5494031
40
0.3946393
50
328.8299013
51
331.789948
0
ARC
8
DEFAULT_255_1_234
10
23.8614274
20
132.4979509
40
0.2824501
50
331.4255242
51
352.9364833
0
ARC
8
DEFAULT_255_1_234
10
23.8750775
20
132.4948976
40
0.2685315
50
353.2248685
51
0.0169286
0
ARC
8
DEFAULT_255_1_234
10
23.8960652
20
132.497195
40
0.2475536
50
359.4866256
51
15.9339782
0
ARC
8
DEFAULT_255_1_234
10
23.9467637
20
132.5108286
40
0.1950618
50
16.1714718
51
43.5284424
0
ARC
8
DEFAULT_255_1_234
10
23.9544946
20
132.5185573
40
0.184134
50
43.4415429
51
83.1661404
0
ARC
8
DEFAULT_255_1_234
10
23.9410864
20
132.4448771
40
0.258926
50
82.160215
51
90.1505798
0
ARC
8
DEFAULT_255_1_234
10
23.9379291
20
132.3911865
40
0.3126255
50
89.5460705
51
102.5418777
0
ARC
8
DEFAULT_255_1_234
10
23.9136377
20
132.4942665
40
0.2067346
50
102.1739365
51
129.2061916
0
ARC
8
DEFAULT_255_1_234
10
23.9057449
20
132.5067094
40
0.1921118
50
129.7279328
51
135.7542026
0
ARC
8
DEFAULT_255_1_234
10
23.9178977
20
132.4970045
40
0.2075944
50
136.175737
51
166.3674722
0
ARC
8
DEFAULT_255_1_234
10
24.0185896
20
132.4700182
40
0.3118201
50
165.9092917
51
178.8683903
0
ARC
8
DEFAULT_255_1_234
10
24.1050757
20
132.4653179
40
0.3983935
50
178.438168
51
180.0083905
0
ARC
8
DEFAULT_255_1_234
10
23.9649359
20
132.4692231
40
0.4068601
50
163.2878735
51
180.5581814
0
ARC
8
DEFAULT_255_1_234
10
23.8847621
20
132.491284
40
0.3237344
50
133.454115
51
162.9470031
0
ARC
8
DEFAULT_255_1_234
10
23.9026162
20
132.4723
40
0.349795
50
100.7869394
51
133.4384016
0
ARC
8
DEFAULT_255_1_234
10
23.9373934
20
132.3174319
40
0.5084616
50
89.6605301
51
101.3704185
0
ARC
8
DEFAULT_255_1_234
10
23.9440273
20
132.3235496
40
0.502348
50
78.2171172
51
90.4130393
0
ARC
8
DEFAULT_255_1_234
10
23.9795351
20
132.4859637
40
0.3361092
50
55.9268222
51
78.4888551
0
ARC
8
DEFAULT_255_1_234
10
23.9991791
20
132.5198324
40
0.2970617
50
47.9292255
51
55.4054003
0
ARC
8
DEFAULT_255_1_234
10
24.0093352
20
132.5301502
40
0.2825983
50
4.3347696
51
48.0560701
0
ARC
8
DEFAULT_255_1_234
10
23.8997745
20
132.5131601
40
0.393225
50
359.925209
51
5.5967654
0
ARC
8
DEFAULT_255_1_234
10
23.9426637
20
132.5187816
40
0.3503892
50
337.8914096
51
358.9967724
0
ARC
8
DEFAULT_255_1_234
10
23.6713049
20
132.6234706
40
0.6412172
50
326.9135351
51
338.3505194
0
ARC
8
DEFAULT_255_1_234
10
23.2727353
20
132.8789284
40
1.1146189
50
319.6472867
51
327.095818
0
ARC
8
DEFAULT_255_1_234
10
22.8894356
20
133.1951
40
1.6114559
50
317.2586784
51
319.9046139
0
LINE
8
DEFAULT_255_1_234
10
24.0771137
20
140.7529433
11
24.0771137
21
139.5779
0
LINE
8
DEFAULT_255_1_234
10
24.0771137
20
139.5779
11
23.9277234
21
139.5779
0
LINE
8
DEFAULT_255_1_234
10
23.9277234
20
139.5779
11
23.9277234
21
140.5682133
0
LINE
8
DEFAULT_255_1_234
10
23.9277234
20
140.5682133
11
23.6281396
21
140.4581785
0
LINE
8
DEFAULT_255_1_234
10
23.6281396
20
140.4581785
11
23.6281396
21
140.5931117
0
LINE
8
DEFAULT_255_1_234
10
23.6281396
20
140.5931117
11
24.0538217
21
140.7529433
0
LINE
8
DEFAULT_255_1_234
10
24.0538217
20
140.7529433
11
24.0771137
21
140.7529433
0
LINE
8
DEFAULT_255_1_234
10
22.2310911
20
148.1362534
11
22.2310911
21
148.0623614
0
LINE
8
DEFAULT_255_1_234
10
21.2905745
20
148.0519201
11
21.2905745
21
148.1362534
0
LINE
8
DEFAULT_255_1_234
10
22.0776849
20
148.0511169
11
22.0776849
21
148.1378597
0
LINE
8
DEFAULT_255_1_234
10
21.4439807
20
148.148301
11
21.4439807
21
148.0623614
0
ARC
8
DEFAULT_255_1_234
10
21.3668937
20
148.0584015
40
0.8642064
50
350.487711
51
0.2625388
0
ARC
8
DEFAULT_255_1_234
10
21.5962178
20
148.0189578
40
0.631518
50
336.0277639
51
350.5787438
0
ARC
8
DEFAULT_255_1_234
10
21.7307002
20
147.9581892
40
0.4839466
50
319.8877444
51
336.1328423
0
ARC
8
DEFAULT_255_1_234
10
21.7909643
20
147.909958
40
0.4067874
50
302.4806467
51
319.6143626
0
ARC
8
DEFAULT_255_1_234
10
21.7794653
20
147.9321202
40
0.4316636
50
275.8195682
51
302.1884709
0
ARC
8
DEFAULT_255_1_234
10
21.7628286
20
148.0463665
40
0.5470306
50
269.9171439
51
276.3397983
0
ARC
8
DEFAULT_255_1_234
10
21.7583496
20
147.9777681
40
0.4784458
50
252.5219675
51
270.4416499
0
ARC
8
DEFAULT_255_1_234
10
21.7439755
20
147.9238592
40
0.422716
50
237.5352116
51
252.1857531
0
ARC
8
DEFAULT_255_1_234
10
21.7528951
20
147.9352363
40
0.4371052
50
209.063312
51
237.3492538
0
ARC
8
DEFAULT_255_1_234
10
21.8398799
20
147.9898685
40
0.5397041
50
205.1183774
51
209.6470015
0
ARC
8
DEFAULT_255_1_234
10
21.9195836
20
148.023683
40
0.6262326
50
188.7215458
51
204.8240747
0
ARC
8
DEFAULT_255_1_234
10
22.1193364
20
148.0573067
40
0.8287794
50
180.3723947
51
188.9252049
0
ARC
8
DEFAULT_255_1_234
10
22.1166116
20
148.1402402
40
0.8260467
50
169.5253763
51
180.2765336
0
ARC
8
DEFAULT_255_1_234
10
21.9263564
20
148.1752309
40
0.6326007
50
155.8315255
51
169.5089989
0
ARC
8
DEFAULT_255_1_234
10
21.7983066
20
148.2346348
40
0.4914567
50
139.6258461
51
156.0379525
0
ARC
8
DEFAULT_255_1_234
10
21.7393399
20
148.2820799
40
0.4158054
50
122.6416387
51
139.3430715
0
ARC
8
DEFAULT_255_1_234
10
21.7494019
20
148.2637451
40
0.4366739
50
93.0223692
51
122.455762
0
ARC
8
DEFAULT_255_1_234
10
21.7602016
20
148.1672709
40
0.5336137
50
89.975342
51
93.6341897
0
ARC
8
DEFAULT_255_1_234
10
21.7640795
20
148.2071242
40
0.4937738
50
73.746375
51
90.4233405
0
ARC
8
DEFAULT_255_1_234
10
21.7816373
20
148.2751287
40
0.4235786
50
57.662753
51
73.4518111
0
ARC
8
DEFAULT_255_1_234
10
21.780838
20
148.2772832
40
0.4221899
50
29.1440151
51
57.414694
0
ARC
8
DEFAULT_255_1_234
10
21.6873574
20
148.2189005
40
0.5322966
50
24.0982783
51
29.7323517
0
ARC
8
DEFAULT_255_1_234
10
21.583985
20
148.1760399
40
0.6441673
50
8.6655297
51
23.8241346
0
ARC
8
DEFAULT_255_1_234
10
21.3605588
20
148.1395854
40
0.8705386
50
359.7806941
51
8.8218784
0
ARC
8
DEFAULT_255_1_234
10
21.2458586
20
148.1421345
40
0.8318373
50
359.7055579
51
8.036044
0
ARC
8
DEFAULT_255_1_234
10
21.5458592
20
148.1858239
40
0.5286768
50
7.8928306
51
20.2962107
0
ARC
8
DEFAULT_255_1_234
10
21.7086162
20
148.2458395
40
0.3552073
50
20.3231126
51
36.4992797
0
ARC
8
DEFAULT_255_1_234
10
21.7771708
20
148.2986402
40
0.2686974
50
36.1437156
51
85.6627023
0
ARC
8
DEFAULT_255_1_234
10
21.7609254
20
148.1946221
40
0.373739
50
84.3852322
51
90.0757696
0
ARC
8
DEFAULT_255_1_234
10
21.7566927
20
148.2606839
40
0.3076997
50
89.3038458
51
109.9045693
0
ARC
8
DEFAULT_255_1_234
10
21.7474318
20
148.2989062
40
0.2686424
50
110.8228367
51
143.9179474
0
ARC
8
DEFAULT_255_1_234
10
21.8407978
20
148.2276236
40
0.3860887
50
143.5289163
51
163.2980757
0
ARC
8
DEFAULT_255_1_234
10
22.0315799
20
148.1676433
40
0.5860659
50
163.0418846
51
174.3140048
0
ARC
8
DEFAULT_255_1_234
10
22.2719911
20
148.1398854
40
0.8280531
50
174.0509143
51
179.4176892
0
ARC
8
DEFAULT_255_1_234
10
22.221565
20
148.0581954
40
0.7775954
50
179.6930361
51
188.7906598
0
ARC
8
DEFAULT_255_1_234
10
21.9552129
20
148.0155935
40
0.5078633
50
188.6331305
51
202.5629587
0
ARC
8
DEFAULT_255_1_234
10
21.8297721
20
147.9651996
40
0.3726913
50
202.8081362
51
216.1193925
0
ARC
8
DEFAULT_255_1_234
10
21.7488291
20
147.9000676
40
0.2689577
50
215.0755913
51
264.6379694
0
ARC
8
DEFAULT_255_1_234
10
21.761524
20
147.9831513
40
0.3528978
50
263.846392
51
270.0833719
0
ARC
8
DEFAULT_255_1_234
10
21.7656631
20
147.9573374
40
0.3271036
50
269.3649385
51
287.5152008
0
ARC
8
DEFAULT_255_1_234
10
21.7834788
20
147.8926238
40
0.2600406
50
288.0630309
51
323.8113348
0
ARC
8
DEFAULT_255_1_234
10
21.696363
20
147.9576049
40
0.3687189
50
323.6547608
51
342.6590488
0
ARC
8
DEFAULT_255_1_234
10
21.4932245
20
148.0236952
40
0.5823286
50
342.4091907
51
353.6451149
0
ARC
8
DEFAULT_255_1_234
10
21.2100756
20
148.058919
40
0.8676442
50
353.4029884
51
359.4847795
0
LINE
8
DEFAULT_255_1_234
10
22.4993511
20
148.6848211
11
22.8318651
21
147.7202093
0
LINE
8
DEFAULT_255_1_234
10
22.8318651
20
147.7202093
11
23.1659854
21
148.6848211
0
LINE
8
DEFAULT_255_1_234
10
23.1659854
20
148.6848211
11
23.3346519
21
148.6848211
0
LINE
8
DEFAULT_255_1_234
10
23.3346519
20
148.6848211
11
22.900938
21
147.5154
0
LINE
8
DEFAULT_255_1_234
10
22.900938
20
147.5154
11
22.7643985
21
147.5154
0
LINE
8
DEFAULT_255_1_234
10
22.7643985
20
147.5154
11
22.3314878
21
148.6848211
0
LINE
8
DEFAULT_255_1_234
10
22.3314878
20
148.6848211
11
22.4993511
21
148.6848211
0
LINE
8
DEFAULT_255_1_234
10
23.9410481
20
148.6904433
11
23.9410481
21
147.5154
0
LINE
8
DEFAULT_255_1_234
10
23.9410481
20
147.5154
11
23.7916578
21
147.5154
0
LINE
8
DEFAULT_255_1_234
10
23.7916578
20
147.5154
11
23.7916578
21
148.5057133
0
LINE
8
DEFAULT_255_1_234
10
23.7916578
20
148.5057133
11
23.492074
21
148.3956785
0
LINE
8
DEFAULT_255_1_234
10
23.492074
20
148.3956785
11
23.492074
21
148.5306117
0
LINE
8
DEFAULT_255_1_234
10
23.492074
20
148.5306117
11
23.9177561
21
148.6904433
0
LINE
8
DEFAULT_255_1_234
10
23.9177561
20
148.6904433
11
23.9410481
21
148.6904433
0
LINE
8
DEFAULT_255_1_234
10
22.4638522
20
156.6223211
11
22.7963662
21
155.6577093
0
LINE
8
DEFAULT_255_1_234
10
22.7963662
20
155.6577093
11
23.1304865
21
156.6223211
0
LINE
8
DEFAULT_255_1_234
10
23.1304865
20
156.6223211
11
23.299153
21
156.6223211
0
LINE
8
DEFAULT_255_1_234
10
23.299153
20
156.6223211
11
22.8654391
21
155.4529
0
LINE
8
DEFAULT_255_1_234
10
22.8654391
20
155.4529
11
22.7288996
21
155.4529
0
LINE
8
DEFAULT_255_1_234
10
22.7288996
20
155.4529
11
22.2959889
21
156.6223211
0
LINE
8
DEFAULT_255_1_234
10
22.2959889
20
156.6223211
11
22.4638522
21
156.6223211
0
LINE
8
DEFAULT_255_1_234
10
23.9055492
20
156.6279433
11
23.9055492
21
155.4529
0
LINE
8
DEFAULT_255_1_234
10
23.9055492
20
155.4529
11
23.7561589
21
155.4529
0
LINE
8
DEFAULT_255_1_234
10
23.7561589
20
155.4529
11
23.7561589
21
156.4432133
0
LINE
8
DEFAULT_255_1_234
10
23.7561589
20
156.4432133
11
23.456575
21
156.3331785
0
LINE
8
DEFAULT_255_1_234
10
23.456575
20
156.3331785
11
23.456575
21
156.4681117
0
LINE
8
DEFAULT_255_1_234
10
23.456575
20
156.4681117
11
23.8822572
21
156.6279433
0
LINE
8
DEFAULT_255_1_234
10
23.8822572
20
156.6279433
11
23.9055492
21
156.6279433
0
ENDSEC
0
EOF