0
SECTION
2
HEADER
9
$MEASUREMENT
70
1
0
ENDSEC
0
SECTION
2
TABLES
0
TABLE
2
LTYPE
0
LTYPE
72
65
70
64
2
CONTINUOUS
3
______
73
0
40
0
0
ENDTAB
0
TABLE
2
LAYER
0
LAYER
2
DEFAULT_255_2_778
70
0
62
255
6
CONTINUOUS
0
ENDTAB
0
ENDSEC
0
SECTION
2
ENTITIES
0
ARC
8
DEFAULT_255_2_778
10
9.7052094
20
9.6009414
40
0.2001443
50
269.9967113
51
329.9761571
0
ARC
8
DEFAULT_255_2_778
10
9.7052447
20
9.6007701
40
0.2000282
50
330.0135819
51
0.007719
0
ARC
8
DEFAULT_255_2_778
10
9.7052447
20
9.600824
40
0.2000282
50
359.992281
51
29.9864181
0
ARC
8
DEFAULT_255_2_778
10
6.4720096
20
15.200553
40
0.2001442
50
30.0237947
51
90.0033278
0
ARC
8
DEFAULT_255_2_778
10
6.4719165
20
15.2006742
40
0.2000229
50
89.9766545
51
149.9962444
0
ARC
8
DEFAULT_255_2_778
10
3.2387512
20
9.600824
40
0.2000282
50
150.0135819
51
180.007719
0
ARC
8
DEFAULT_255_2_778
10
3.2387512
20
9.6007701
40
0.2000282
50
179.992281
51
209.9864181
0
ARC
8
DEFAULT_255_2_778
10
3.2385768
20
9.600578
40
0.1997812
50
209.9636803
51
270.0634208
0
ARC
8
DEFAULT_255_2_778
10
6.969813
20
12.3960167
40
0.0186499
50
89.7536302
51
121.034389
0
ARC
8
DEFAULT_255_2_778
10
6.9698783
20
12.3926972
40
0.0219691
50
89.1881411
51
89.961319
0
ARC
8
DEFAULT_255_2_778
10
6.9698389
20
12.3944434
40
0.0202237
50
54.4474566
51
89.0063516
0
ARC
8
DEFAULT_255_2_778
10
6.9701194
20
12.3945621
40
0.0199647
50
359.8264733
51
54.9043106
0
ARC
8
DEFAULT_255_2_778
10
6.969618
20
12.3945067
40
0.020466
50
350.4099399
51
359.9858798
0
ARC
8
DEFAULT_255_2_778
10
6.870316
20
10.7810656
40
0.0199561
50
91.6426418
51
127.0292692
0
ARC
8
DEFAULT_255_2_778
10
6.8703121
20
10.7808472
40
0.0201742
50
90.0001556
51
91.6137756
0
ARC
8
DEFAULT_255_2_778
10
6.8703884
20
10.7817253
40
0.0192964
50
46.3904824
51
90.2267642
0
ARC
8
DEFAULT_255_2_778
10
6.86919
20
10.7806176
40
0.0209254
50
359.8788665
51
46.106527
0
ARC
8
DEFAULT_255_2_778
10
6.870441
20
10.7805629
40
0.0196744
50
358.9345127
51
0.0304005
0
ARC
8
DEFAULT_255_2_778
10
6.8694918
20
10.7805283
40
0.0206229
50
330.2571749
51
359.0796402
0
ARC
8
DEFAULT_255_2_778
10
6.4723945
20
10.1339214
40
0.0200821
50
270.2469472
51
328.3947563
0
ARC
8
DEFAULT_255_2_778
10
6.4724829
20
10.1336575
40
0.019818
50
260.7519492
51
269.9945432
0
ARC
8
DEFAULT_255_2_778
10
6.4726347
20
10.134148
40
0.0203267
50
194.9708486
51
260.5517957
0
ARC
8
DEFAULT_255_2_778
10
6.2720756
20
10.9371421
40
0.0205805
50
191.0087205
51
193.9030081
0
ARC
8
DEFAULT_255_2_778
10
6.2716834
20
10.9370724
40
0.0201822
50
180.0133749
51
191.0268457
0
ARC
8
DEFAULT_255_2_778
10
6.2716209
20
10.9370189
40
0.0201197
50
115.3776278
51
179.8612696
0
ARC
8
DEFAULT_255_2_778
10
6.2717186
20
10.9372278
40
0.0199736
50
96.1540209
51
115.8877269
0
ARC
8
DEFAULT_255_2_778
10
6.2716395
20
10.9377065
40
0.0194892
50
89.995552
51
96.0735883
0
ARC
8
DEFAULT_255_2_778
10
6.2715396
20
10.9372268
40
0.0199693
50
36.4715834
51
89.7090976
0
ARC
8
DEFAULT_255_2_778
10
5.8074287
20
11.559064
40
0.019679
50
270.4730611
51
300.4372008
0
ARC
8
DEFAULT_255_2_778
10
5.8074443
20
11.5513593
40
0.0119744
50
269.7663943
51
270.7027644
0
ARC
8
DEFAULT_255_2_778
10
5.8074195
20
11.5597453
40
0.0203606
50
234.8518612
51
269.9324941
0
ARC
8
DEFAULT_255_2_778
10
5.8073942
20
11.5593262
40
0.0200047
50
180.1835322
51
234.2198712
0
ARC
8
DEFAULT_255_2_778
10
5.8066953
20
11.5592601
40
0.0193056
50
175.2755286
51
179.9940297
0
ARC
8
DEFAULT_255_2_778
10
5.8063917
20
11.5592826
40
0.0190012
50
168.1112988
51
175.2676802
0
ARC
8
DEFAULT_255_2_778
10
6.2218512
20
13.5870475
40
0.0198501
50
89.5762591
51
168.5232595
0
ARC
8
DEFAULT_255_2_778
10
6.7120186
20
13.587621
40
0.0192787
50
35.0662491
51
90.9528559
0
ARC
8
DEFAULT_255_2_778
10
6.7107801
20
13.5866243
40
0.0208653
50
0.252481
51
35.3525723
0
ARC
8
DEFAULT_255_2_778
10
6.7114006
20
13.5867166
40
0.0202445
50
354.698513
51
359.9989758
0
ARC
8
DEFAULT_255_2_778
10
6.7109466
20
13.5867683
40
0.0207014
50
343.5240106
51
354.6721453
0
ARC
8
DEFAULT_255_2_778
10
12.5668277
20
1.4055718
40
1.5549767
50
235.8711067
51
250.8214653
0
ARC
8
DEFAULT_255_2_778
10
20.620775
20
1.4080309
40
1.5576257
50
289.183323
51
304.1114276
0
ARC
8
DEFAULT_255_2_778
10
12.5956045
20
0.5215778
40
0.7384033
50
231.6248496
51
253.515
0
ARC
8
DEFAULT_255_2_778
10
12.536892
20
0.3491029
40
0.5564063
50
254.2725961
51
269.9285353
0
ARC
8
DEFAULT_255_2_778
10
20.7396528
20
0.3378554
40
0.5451584
50
270.0047449
51
277.0289864
0
ARC
8
DEFAULT_255_2_778
10
20.7197816
20
0.4321338
40
0.6412121
50
277.7603742
51
302.7134825
0
ARC
8
DEFAULT_255_2_778
10
20.5925088
20
0.6549355
40
0.8975558
50
301.8628193
51
307.483254
0
ARC
8
DEFAULT_255_2_778
10
20.5782703
20
1.3375584
40
1.5249462
50
306.919692
51
312.7854678
0
ARC
8
DEFAULT_255_2_778
10
12.5992234
20
1.3251619
40
1.5083071
50
227.2041805
51
233.1376434
0
ARC
8
DEFAULT_255_2_778
10
6.594171
20
3.5183733
40
0.300627
50
0.0426475
51
44.9591419
0
ARC
8
DEFAULT_255_2_778
10
6.5952743
20
3.5196611
40
0.2989364
50
44.9339062
51
90.0190939
0
LINE
8
DEFAULT_255_2_778
10
6.5951747
20
3.8185973
11
6.594798
21
3.8185971
0
ARC
8
DEFAULT_255_2_778
10
26.5949287
20
3.5184664
40
0.3001307
50
90.0058671
51
179.975047
0
ARC
8
DEFAULT_255_2_778
10
12.5968253
20
1.3207446
40
1.5034479
50
212.2628832
51
227.1676445
0
ARC
8
DEFAULT_255_2_778
10
12.5918736
20
1.3183196
40
1.4975197
50
183.8297586
51
195.4971335
0
ARC
8
DEFAULT_255_2_778
10
20.5972007
20
1.3164001
40
1.4967064
50
312.7985968
51
327.7708756
0
ARC
8
DEFAULT_255_2_778
10
20.5898238
20
1.3205678
40
1.5053731
50
332.1877433
51
340.5053738
0
ARC
8
DEFAULT_255_2_778
10
20.5947466
20
1.3169176
40
1.4988399
50
285.0365333
51
291.0497658
0
ARC
8
DEFAULT_255_2_778
10
20.5996871
20
1.3177844
40
1.4953441
50
344.4930811
51
356.1736935
0
ARC
8
DEFAULT_255_2_778
10
12.6235915
20
1.3312183
40
1.5318536
50
199.5665952
51
207.7401954
0
ARC
8
DEFAULT_255_2_778
10
20.5953521
20
134.4062397
40
1.4942574
50
74.9283917
51
90.0174136
0
ARC
8
DEFAULT_255_2_778
10
12.5942446
20
134.4069895
40
1.4935077
50
89.9826074
51
105.0754116
0
ARC
8
DEFAULT_255_2_778
10
12.5867419
20
134.4258509
40
1.4733459
50
104.9844586
51
111.1018392
0
ARC
8
DEFAULT_255_2_778
10
12.5929082
20
134.4028702
40
1.4970077
50
111.005358
51
126.8749529
0
ARC
8
DEFAULT_255_2_778
10
20.5971019
20
134.4045234
40
1.4951366
50
53.1150552
51
69.0046374
0
ARC
8
DEFAULT_255_2_778
10
12.5861896
20
134.4098593
40
1.4872059
50
126.8202257
51
132.8379529
0
ARC
8
DEFAULT_255_2_778
10
20.5926182
20
134.3978255
40
1.5033651
50
47.1723912
51
53.1224466
0
ARC
8
DEFAULT_255_2_778
10
26.5947078
20
132.2004065
40
0.3001098
50
179.9827087
51
224.9729515
0
ARC
8
DEFAULT_255_2_778
10
26.5945067
20
132.2006051
40
0.3001081
50
225.0269039
51
270.0174139
0
ARC
8
DEFAULT_255_2_778
10
6.5947331
20
132.2002573
40
0.2997604
50
269.9550591
51
315.0006231
0
ARC
8
DEFAULT_255_2_778
10
6.594809
20
132.2002324
40
0.299689
50
314.9937205
51
0.0505906
0
ARC
8
DEFAULT_255_2_778
10
12.5909751
20
134.4006786
40
1.4963103
50
164.4981371
51
176.1749748
0
ARC
8
DEFAULT_255_2_778
10
20.5942837
20
134.4000881
40
1.5006576
50
32.2380951
51
47.1736896
0
ARC
8
DEFAULT_255_2_778
10
20.5984206
20
134.4006786
40
1.4963105
50
3.8250256
51
15.5018617
0
ARC
8
DEFAULT_255_2_778
10
20.4728237
20
134.9236686
40
1.104752
50
53.296982
51
62.4440585
0
ARC
8
DEFAULT_255_2_778
10
12.5944036
20
134.4004901
40
1.4997453
50
152.1721093
51
160.5210063
0
ARC
8
DEFAULT_255_2_778
10
12.5951118
20
134.4000884
40
1.5006571
50
132.8263064
51
147.7619062
0
ARC
8
DEFAULT_255_2_778
10
20.6072655
20
134.406436
40
1.4863813
50
19.4181026
51
27.8406493
0
LINE
8
DEFAULT_255_2_778
10
9.358898
20
9.8007971
11
3.585398
21
9.8007971
0
LINE
8
DEFAULT_255_2_778
10
3.585398
20
9.8007971
11
6.471998
21
14.8008971
0
LINE
8
DEFAULT_255_2_778
10
6.471998
20
14.8008971
11
9.358898
21
9.8007971
0
LINE
8
DEFAULT_255_2_778
10
9.878498
20
9.7007971
11
6.645298
21
15.3006971
0
LINE
8
DEFAULT_255_2_778
10
6.298698
20
15.3006971
11
3.065498
21
9.7007971
0
LINE
8
DEFAULT_255_2_778
10
3.238798
20
9.4007971
11
9.705198
21
9.4007971
0
LINE
8
DEFAULT_255_2_778
10
6.989798
20
12.3910971
11
6.685498
21
10.6672971
0
LINE
8
DEFAULT_255_2_778
10
6.685498
20
10.6672971
11
6.858298
21
10.7969971
0
LINE
8
DEFAULT_255_2_778
10
6.887398
20
10.7702971
11
6.489498
21
10.1233971
0
LINE
8
DEFAULT_255_2_778
10
6.452998
20
10.1288971
11
6.252098
21
10.9321971
0
LINE
8
DEFAULT_255_2_778
10
6.287598
20
10.9490971
11
6.419098
21
10.7736971
0
LINE
8
DEFAULT_255_2_778
10
6.419098
20
10.7736971
11
6.525698
21
11.9468971
0
LINE
8
DEFAULT_255_2_778
10
6.525698
20
11.9468971
11
5.817398
21
11.5420971
0
LINE
8
DEFAULT_255_2_778
10
5.787798
20
11.5631971
11
6.202398
21
13.5909971
0
LINE
8
DEFAULT_255_2_778
10
6.221998
20
13.6068971
11
6.711698
21
13.6068971
0
LINE
8
DEFAULT_255_2_778
10
6.730798
20
13.5808971
11
6.242898
21
12.0015971
0
LINE
8
DEFAULT_255_2_778
10
6.242898
20
12.0015971
11
6.960198
21
12.4119971
0
LINE
8
DEFAULT_255_2_778
10
26.294798
20
3.5179971
11
26.294798
21
2.6178971
0
LINE
8
DEFAULT_255_2_778
10
26.294798
20
2.6178971
11
22.094798
21
2.6178971
0
LINE
8
DEFAULT_255_2_778
10
26.294798
20
3.2938971
11
22.094798
21
3.2938971
0
LINE
8
DEFAULT_255_2_778
10
22.094798
20
3.3878971
11
26.294798
21
3.3878971
0
LINE
8
DEFAULT_255_2_778
10
11.094798
20
2.6181971
11
6.894798
21
2.6181971
0
LINE
8
DEFAULT_255_2_778
10
6.894798
20
2.6181971
11
6.894798
21
3.5182971
0
LINE
8
DEFAULT_255_2_778
10
11.094798
20
3.2941971
11
6.894798
21
3.2941971
0
LINE
8
DEFAULT_255_2_778
10
6.894798
20
3.3880971
11
11.094798
21
3.3880971
0
LINE
8
DEFAULT_255_2_778
10
22.094798
20
1.6182971
11
22.094798
21
1.9180971
0
LINE
8
DEFAULT_255_2_778
10
22.094798
20
2.3181971
11
22.094798
21
3.8180971
0
LINE
8
DEFAULT_255_2_778
10
18.308398
20
3.8180971
11
18.308398
21
3.3954971
0
LINE
8
DEFAULT_255_2_778
10
18.308398
20
3.3954971
11
18.270298
21
3.1290971
0
LINE
8
DEFAULT_255_2_778
10
18.270298
20
3.1290971
11
18.247798
21
3.0613971
0
LINE
8
DEFAULT_255_2_778
10
18.247798
20
3.0613971
11
18.184298
21
2.9345971
0
LINE
8
DEFAULT_255_2_778
10
18.184298
20
2.9345971
11
18.022098
21
2.7723971
0
LINE
8
DEFAULT_255_2_778
10
18.022098
20
2.7723971
11
17.908098
21
2.7038971
0
LINE
8
DEFAULT_255_2_778
10
17.908098
20
2.7038971
11
17.775798
21
2.6819971
0
LINE
8
DEFAULT_255_2_778
10
17.775798
20
2.6819971
11
17.544798
21
2.6819971
0
LINE
8
DEFAULT_255_2_778
10
17.544798
20
2.6819971
11
17.412498
21
2.7038971
0
LINE
8
DEFAULT_255_2_778
10
17.412498
20
2.7038971
11
17.298498
21
2.7723971
0
LINE
8
DEFAULT_255_2_778
10
17.298498
20
2.7723971
11
17.136298
21
2.9345971
0
LINE
8
DEFAULT_255_2_778
10
17.136298
20
2.9345971
11
17.072798
21
3.0613971
0
LINE
8
DEFAULT_255_2_778
10
17.072798
20
3.0613971
11
17.050298
21
3.1290971
0
LINE
8
DEFAULT_255_2_778
10
17.050298
20
3.1290971
11
17.012198
21
3.3954971
0
LINE
8
DEFAULT_255_2_778
10
17.012198
20
3.3954971
11
17.012198
21
3.8180971
0
LINE
8
DEFAULT_255_2_778
10
18.127198
20
3.8180971
11
18.128498
21
3.4081971
0
LINE
8
DEFAULT_255_2_778
10
18.128498
20
3.4081971
11
18.094598
21
3.1705971
0
LINE
8
DEFAULT_255_2_778
10
18.094598
20
3.1705971
11
18.081098
21
3.1303971
0
LINE
8
DEFAULT_255_2_778
10
18.081098
20
3.1303971
11
18.036398
21
3.0412971
0
LINE
8
DEFAULT_255_2_778
10
18.036398
20
3.0412971
11
17.910498
21
2.9152971
0
LINE
8
DEFAULT_255_2_778
10
17.910498
20
2.9152971
11
17.844598
21
2.8758971
0
LINE
8
DEFAULT_255_2_778
10
17.844598
20
2.8758971
11
17.760698
21
2.8618971
0
LINE
8
DEFAULT_255_2_778
10
17.760698
20
2.8618971
11
17.559598
21
2.8618971
0
LINE
8
DEFAULT_255_2_778
10
17.559598
20
2.8618971
11
17.475798
21
2.8758971
0
LINE
8
DEFAULT_255_2_778
10
17.475798
20
2.8758971
11
17.409898
21
2.9152971
0
LINE
8
DEFAULT_255_2_778
10
17.409898
20
2.9152971
11
17.283898
21
3.0412971
0
LINE
8
DEFAULT_255_2_778
10
17.283898
20
3.0412971
11
17.239198
21
3.1303971
0
LINE
8
DEFAULT_255_2_778
10
17.239198
20
3.1303971
11
17.225698
21
3.1705971
0
LINE
8
DEFAULT_255_2_778
10
17.225698
20
3.1705971
11
17.191798
21
3.4081971
0
LINE
8
DEFAULT_255_2_778
10
17.191798
20
3.4081971
11
17.192898
21
3.8180971
0
LINE
8
DEFAULT_255_2_778
10
13.915998
20
3.8180971
11
14.583898
21
2.6681971
0
LINE
8
DEFAULT_255_2_778
10
14.583898
20
2.6681971
11
14.833598
21
2.6681971
0
LINE
8
DEFAULT_255_2_778
10
14.833598
20
2.6681971
11
14.833598
21
3.8180971
0
LINE
8
DEFAULT_255_2_778
10
13.496398
20
3.8180971
11
13.496398
21
2.6681971
0
LINE
8
DEFAULT_255_2_778
10
13.496398
20
2.6681971
11
13.691398
21
2.6681971
0
LINE
8
DEFAULT_255_2_778
10
13.691398
20
2.6681971
11
13.691398
21
3.8180971
0
LINE
8
DEFAULT_255_2_778
10
12.642098
20
3.8180971
11
12.642098
21
3.2647971
0
LINE
8
DEFAULT_255_2_778
10
12.642098
20
3.2647971
11
12.608998
21
3.1158971
0
LINE
8
DEFAULT_255_2_778
10
12.608998
20
3.1158971
11
12.561898
21
3.0216971
0
LINE
8
DEFAULT_255_2_778
10
12.561898
20
3.0216971
11
12.501598
21
2.9462971
0
LINE
8
DEFAULT_255_2_778
10
12.501598
20
2.9462971
11
12.412398
21
2.8869971
0
LINE
8
DEFAULT_255_2_778
10
12.412398
20
2.8869971
11
12.306898
21
2.8567971
0
LINE
8
DEFAULT_255_2_778
10
12.306898
20
2.8567971
11
12.070598
21
2.8567971
0
LINE
8
DEFAULT_255_2_778
10
12.070598
20
2.8567971
11
11.980398
21
2.8869971
0
LINE
8
DEFAULT_255_2_778
10
11.980398
20
2.8869971
11
11.871598
21
2.9491971
0
LINE
8
DEFAULT_255_2_778
10
11.871598
20
2.9491971
11
11.813398
21
3.0218971
0
LINE
8
DEFAULT_255_2_778
10
11.813398
20
3.0218971
11
11.766298
21
3.1160971
0
LINE
8
DEFAULT_255_2_778
10
11.766298
20
3.1160971
11
11.733198
21
3.2650971
0
LINE
8
DEFAULT_255_2_778
10
11.733198
20
3.2650971
11
11.733198
21
3.8182971
0
LINE
8
DEFAULT_255_2_778
10
11.543998
20
3.8182971
11
11.543998
21
3.2441971
0
LINE
8
DEFAULT_255_2_778
10
11.543998
20
3.2441971
11
11.586698
21
3.0523971
0
LINE
8
DEFAULT_255_2_778
10
11.586698
20
3.0523971
11
11.653098
21
2.9192971
0
LINE
8
DEFAULT_255_2_778
10
11.653098
20
2.9192971
11
11.746198
21
2.8028971
0
LINE
8
DEFAULT_255_2_778
10
11.746198
20
2.8028971
11
11.902598
21
2.7133971
0
LINE
8
DEFAULT_255_2_778
10
11.902598
20
2.7133971
11
12.039598
21
2.6676971
0
LINE
8
DEFAULT_255_2_778
10
12.039598
20
2.6676971
11
12.333298
21
2.6676971
0
LINE
8
DEFAULT_255_2_778
10
12.333298
20
2.6676971
11
12.492798
21
2.7131971
0
LINE
8
DEFAULT_255_2_778
10
12.492798
20
2.7131971
11
12.630998
21
2.8052971
0
LINE
8
DEFAULT_255_2_778
10
12.630998
20
2.8052971
11
12.722198
21
2.9192971
0
LINE
8
DEFAULT_255_2_778
10
12.722198
20
2.9192971
11
12.788698
21
3.0523971
0
LINE
8
DEFAULT_255_2_778
10
12.788698
20
3.0523971
11
12.831298
21
3.2441971
0
LINE
8
DEFAULT_255_2_778
10
12.831298
20
3.2441971
11
12.831298
21
3.8182971
0
LINE
8
DEFAULT_255_2_778
10
12.205498
20
-0.1073029
11
12.055998
21
-0.0631029
0
LINE
8
DEFAULT_255_2_778
10
11.694398
20
0.1183971
11
21.494298
21
0.1183971
0
LINE
8
DEFAULT_255_2_778
10
21.132598
20
-0.0631029
11
12.056298
21
-0.0631029
0
LINE
8
DEFAULT_255_2_778
10
15.555398
20
1.9683971
11
17.633998
21
1.9683971
0
LINE
8
DEFAULT_255_2_778
10
17.633998
20
1.9683971
11
16.594698
21
0.1683971
0
LINE
8
DEFAULT_255_2_778
10
16.594698
20
0.1683971
11
15.555398
21
1.9683971
0
LINE
8
DEFAULT_255_2_778
10
12.536198
20
-0.2073029
11
20.739698
21
-0.2073029
0
LINE
8
DEFAULT_255_2_778
10
21.138698
20
-0.0573029
11
12.137198
21
-0.0573029
0
LINE
8
DEFAULT_255_2_778
10
18.528498
20
2.3183971
11
14.660298
21
2.3183971
0
LINE
8
DEFAULT_255_2_778
10
16.623298
20
0.2183971
11
21.614098
21
0.2183971
0
LINE
8
DEFAULT_255_2_778
10
11.574498
20
0.2183971
11
16.565298
21
0.2183971
0
LINE
8
DEFAULT_255_2_778
10
11.094298
20
1.3185971
11
15.237398
21
1.3185971
0
LINE
8
DEFAULT_255_2_778
10
15.237398
20
1.3185971
11
15.294998
21
1.2184971
0
LINE
8
DEFAULT_255_2_778
10
15.294998
20
1.2184971
11
11.098198
21
1.2184971
0
LINE
8
DEFAULT_255_2_778
10
11.098198
20
1.2184971
11
11.094798
21
1.3185971
0
LINE
8
DEFAULT_255_2_778
10
11.094798
20
1.3185971
11
11.094798
21
1.3185971
0
LINE
8
DEFAULT_255_2_778
10
11.094798
20
1.3185971
11
11.094798
21
1.6185971
0
LINE
8
DEFAULT_255_2_778
10
11.094798
20
1.6185971
11
15.064898
21
1.6185971
0
LINE
8
DEFAULT_255_2_778
10
15.064898
20
1.6185971
11
15.122498
21
1.5185971
0
LINE
8
DEFAULT_255_2_778
10
15.122498
20
1.5185971
11
11.094798
21
1.5185971
0
LINE
8
DEFAULT_255_2_778
10
15.122498
20
1.5185971
11
15.238198
21
1.3185971
0
LINE
8
DEFAULT_255_2_778
10
17.951698
20
1.3185971
11
18.067098
21
1.5185971
0
LINE
8
DEFAULT_255_2_778
10
8.894798
20
3.8185971
11
8.894798
21
3.5185971
0
LINE
8
DEFAULT_255_2_778
10
8.894798
20
3.5185971
11
6.894798
21
3.5185971
0
LINE
8
DEFAULT_255_2_778
10
26.294798
20
3.5185971
11
24.294798
21
3.5185971
0
LINE
8
DEFAULT_255_2_778
10
24.294798
20
3.5185971
11
24.294798
21
3.8185971
0
LINE
8
DEFAULT_255_2_778
10
11.094798
20
2.3186971
11
11.094798
21
3.8185971
0
LINE
8
DEFAULT_255_2_778
10
15.559898
20
3.8185971
11
15.559898
21
2.6975971
0
LINE
8
DEFAULT_255_2_778
10
15.559898
20
2.6975971
11
16.496498
21
2.6975971
0
LINE
8
DEFAULT_255_2_778
10
16.496498
20
2.6975971
11
16.496498
21
2.8811971
0
LINE
8
DEFAULT_255_2_778
10
16.496498
20
2.8811971
11
15.743498
21
2.8811971
0
LINE
8
DEFAULT_255_2_778
10
15.743498
20
2.8811971
11
15.743498
21
3.8185971
0
LINE
8
DEFAULT_255_2_778
10
14.638898
20
3.8185971
11
14.638898
21
2.9628971
0
LINE
8
DEFAULT_255_2_778
10
14.638898
20
2.9628971
11
14.141998
21
3.8185971
0
LINE
8
DEFAULT_255_2_778
10
20.416898
20
3.8185971
11
20.416898
21
2.6914971
0
LINE
8
DEFAULT_255_2_778
10
20.416898
20
2.6914971
11
20.607898
21
2.6914971
0
LINE
8
DEFAULT_255_2_778
10
20.607898
20
2.6914971
11
20.607898
21
3.2298971
0
LINE
8
DEFAULT_255_2_778
10
20.607898
20
3.2298971
11
20.832798
21
3.4970971
0
LINE
8
DEFAULT_255_2_778
10
20.832798
20
3.4970971
11
21.461398
21
2.6911971
0
LINE
8
DEFAULT_255_2_778
10
21.461398
20
2.6911971
11
21.703798
21
2.6911971
0
LINE
8
DEFAULT_255_2_778
10
21.703798
20
2.6911971
11
20.958698
21
3.6465971
0
LINE
8
DEFAULT_255_2_778
10
20.958698
20
3.6465971
11
21.103198
21
3.8182971
0
LINE
8
DEFAULT_255_2_778
10
20.853398
20
3.8182971
11
20.607898
21
3.5264971
0
LINE
8
DEFAULT_255_2_778
10
20.607898
20
3.5264971
11
20.607898
21
3.8182971
0
LINE
8
DEFAULT_255_2_778
10
18.963798
20
3.8182971
11
18.942298
21
3.6904971
0
LINE
8
DEFAULT_255_2_778
10
18.942298
20
3.6904971
11
18.942298
21
3.4703971
0
LINE
8
DEFAULT_255_2_778
10
18.942298
20
3.4703971
11
18.958798
21
3.2901971
0
LINE
8
DEFAULT_255_2_778
10
18.958798
20
3.2901971
11
19.023298
21
3.1123971
0
LINE
8
DEFAULT_255_2_778
10
19.023298
20
3.1123971
11
19.089198
21
2.9970971
0
LINE
8
DEFAULT_255_2_778
10
19.089198
20
2.9970971
11
19.118298
21
2.9533971
0
LINE
8
DEFAULT_255_2_778
10
19.118298
20
2.9533971
11
19.155298
21
2.9163971
0
LINE
8
DEFAULT_255_2_778
10
19.155298
20
2.9163971
11
19.203698
21
2.8919971
0
LINE
8
DEFAULT_255_2_778
10
19.203698
20
2.8919971
11
19.343698
21
2.8607971
0
LINE
8
DEFAULT_255_2_778
10
19.343698
20
2.8607971
11
19.447698
21
2.8607971
0
LINE
8
DEFAULT_255_2_778
10
19.447698
20
2.8607971
11
19.563098
21
2.8896971
0
LINE
8
DEFAULT_255_2_778
10
19.563098
20
2.8896971
11
19.663798
21
2.9615971
0
LINE
8
DEFAULT_255_2_778
10
19.663798
20
2.9615971
11
19.716498
21
3.0274971
0
LINE
8
DEFAULT_255_2_778
10
19.716498
20
3.0274971
11
19.764898
21
3.1888971
0
LINE
8
DEFAULT_255_2_778
10
19.764898
20
3.1888971
11
19.935598
21
3.1377971
0
LINE
8
DEFAULT_255_2_778
10
19.935598
20
3.1377971
11
19.877098
21
2.9433971
0
LINE
8
DEFAULT_255_2_778
10
19.877098
20
2.9433971
11
19.787398
21
2.8311971
0
LINE
8
DEFAULT_255_2_778
10
19.787398
20
2.8311971
11
19.638998
21
2.7250971
0
LINE
8
DEFAULT_255_2_778
10
19.638998
20
2.7250971
11
19.469598
21
2.6826971
0
LINE
8
DEFAULT_255_2_778
10
19.469598
20
2.6826971
11
19.324398
21
2.6826971
0
LINE
8
DEFAULT_255_2_778
10
19.324398
20
2.6826971
11
19.143998
21
2.7229971
0
LINE
8
DEFAULT_255_2_778
10
19.143998
20
2.7229971
11
19.049998
21
2.7700971
0
LINE
8
DEFAULT_255_2_778
10
19.049998
20
2.7700971
11
18.980198
21
2.8398971
0
LINE
8
DEFAULT_255_2_778
10
18.980198
20
2.8398971
11
18.937798
21
2.9030971
0
LINE
8
DEFAULT_255_2_778
10
18.937798
20
2.9030971
11
18.861398
21
3.0369971
0
LINE
8
DEFAULT_255_2_778
10
18.861398
20
3.0369971
11
18.783598
21
3.2507971
0
LINE
8
DEFAULT_255_2_778
10
18.783598
20
3.2507971
11
18.764298
21
3.4621971
0
LINE
8
DEFAULT_255_2_778
10
18.764298
20
3.4621971
11
18.764298
21
3.7050971
0
LINE
8
DEFAULT_255_2_778
10
18.764298
20
3.7050971
11
18.783098
21
3.8180971
0
LINE
8
DEFAULT_255_2_778
10
17.547198
20
0.6181971
11
17.662598
21
0.8181971
0
LINE
8
DEFAULT_255_2_778
10
11.094498
20
2.2180971
11
11.094498
21
2.3181971
0
LINE
8
DEFAULT_255_2_778
10
11.094498
20
2.3181971
11
14.660298
21
2.3181971
0
LINE
8
DEFAULT_255_2_778
10
14.660298
20
2.3181971
11
14.717998
21
2.2180971
0
LINE
8
DEFAULT_255_2_778
10
21.863298
20
0.5181971
11
21.920998
21
0.6181971
0
LINE
8
DEFAULT_255_2_778
10
21.920998
20
0.6181971
11
17.547498
21
0.6181971
0
LINE
8
DEFAULT_255_2_778
10
17.547498
20
0.6181971
11
17.489798
21
0.5181971
0
LINE
8
DEFAULT_255_2_778
10
17.489798
20
0.5181971
11
21.863598
21
0.5181971
0
LINE
8
DEFAULT_255_2_778
10
11.180498
20
0.8181971
11
11.149098
21
0.9181971
0
LINE
8
DEFAULT_255_2_778
10
11.149098
20
0.9181971
11
15.468898
21
0.9181971
0
LINE
8
DEFAULT_255_2_778
10
15.468898
20
0.9181971
11
15.526598
21
0.8181971
0
LINE
8
DEFAULT_255_2_778
10
22.094598
20
2.2180971
11
22.094598
21
2.3181971
0
LINE
8
DEFAULT_255_2_778
10
22.094598
20
2.3181971
11
18.528798
21
2.3181971
0
LINE
8
DEFAULT_255_2_778
10
18.528798
20
2.3181971
11
18.471098
21
2.2180971
0
LINE
8
DEFAULT_255_2_778
10
22.008898
20
0.8181971
11
22.040298
21
0.9181971
0
LINE
8
DEFAULT_255_2_778
10
22.040298
20
0.9181971
11
17.720498
21
0.9181971
0
LINE
8
DEFAULT_255_2_778
10
17.720498
20
0.9181971
11
17.662798
21
0.8181971
0
LINE
8
DEFAULT_255_2_778
10
17.662798
20
0.8181971
11
22.008898
21
0.8181971
0
LINE
8
DEFAULT_255_2_778
10
18.355498
20
2.0180971
11
18.297798
21
1.9180971
0
LINE
8
DEFAULT_255_2_778
10
18.297798
20
1.9180971
11
22.094598
21
1.9180971
0
LINE
8
DEFAULT_255_2_778
10
22.094598
20
1.9180971
11
22.094598
21
2.2180971
0
LINE
8
DEFAULT_255_2_778
10
22.094598
20
2.2180971
11
18.471098
21
2.2180971
0
LINE
8
DEFAULT_255_2_778
10
18.471098
20
2.2180971
11
18.355798
21
2.0180971
0
LINE
8
DEFAULT_255_2_778
10
18.355798
20
2.0180971
11
22.094798
21
2.0180971
0
LINE
8
DEFAULT_255_2_778
10
22.094798
20
1.3179971
11
22.094798
21
1.6180971
0
LINE
8
DEFAULT_255_2_778
10
22.094798
20
1.6180971
11
18.124798
21
1.6180971
0
LINE
8
DEFAULT_255_2_778
10
18.124798
20
1.6180971
11
18.067098
21
1.5180971
0
LINE
8
DEFAULT_255_2_778
10
18.067098
20
1.5180971
11
22.094798
21
1.5180971
0
LINE
8
DEFAULT_255_2_778
10
22.091698
20
1.2179971
11
22.095098
21
1.3179971
0
LINE
8
DEFAULT_255_2_778
10
22.095098
20
1.3179971
11
17.951498
21
1.3179971
0
LINE
8
DEFAULT_255_2_778
10
17.951498
20
1.3179971
11
17.893798
21
1.2179971
0
LINE
8
DEFAULT_255_2_778
10
17.893798
20
1.2179971
11
22.091398
21
1.2179971
0
LINE
8
DEFAULT_255_2_778
10
11.094798
20
2.0180971
11
11.094798
21
2.2180971
0
LINE
8
DEFAULT_255_2_778
10
11.094798
20
2.2180971
11
14.718298
21
2.2180971
0
LINE
8
DEFAULT_255_2_778
10
14.718298
20
2.2180971
11
14.833598
21
2.0180971
0
LINE
8
DEFAULT_255_2_778
10
11.094498
20
1.6180971
11
11.094498
21
2.0180971
0
LINE
8
DEFAULT_255_2_778
10
11.094498
20
2.0180971
11
14.833598
21
2.0180971
0
LINE
8
DEFAULT_255_2_778
10
14.833598
20
2.0180971
11
14.891298
21
1.9180971
0
LINE
8
DEFAULT_255_2_778
10
14.891298
20
1.9180971
11
11.094498
21
1.9180971
0
LINE
8
DEFAULT_255_2_778
10
11.180198
20
0.8181971
11
15.526298
21
0.8181971
0
LINE
8
DEFAULT_255_2_778
10
15.526298
20
0.8181971
11
15.641698
21
0.6181971
0
LINE
8
DEFAULT_255_2_778
10
15.641698
20
0.6181971
11
11.268098
21
0.6181971
0
LINE
8
DEFAULT_255_2_778
10
11.268098
20
0.6181971
11
11.325798
21
0.5181971
0
LINE
8
DEFAULT_255_2_778
10
11.325798
20
0.5181971
11
15.699598
21
0.5181971
0
LINE
8
DEFAULT_255_2_778
10
15.699598
20
0.5181971
11
15.641898
21
0.6181971
0
LINE
8
DEFAULT_255_2_778
10
22.094798
20
133.1005971
11
26.294798
21
133.1005971
0
LINE
8
DEFAULT_255_2_778
10
26.294798
20
133.1005971
11
26.294798
21
132.2004971
0
LINE
8
DEFAULT_255_2_778
10
26.294798
20
132.3306971
11
22.094798
21
132.3306971
0
LINE
8
DEFAULT_255_2_778
10
22.094798
20
132.4245971
11
26.294798
21
132.4245971
0
LINE
8
DEFAULT_255_2_778
10
6.894798
20
132.2004971
11
6.894798
21
133.1005971
0
LINE
8
DEFAULT_255_2_778
10
6.894798
20
133.1005971
11
11.094798
21
133.1005971
0
LINE
8
DEFAULT_255_2_778
10
11.094798
20
132.3309971
11
6.894798
21
132.3309971
0
LINE
8
DEFAULT_255_2_778
10
6.894798
20
132.4248971
11
11.094798
21
132.4248971
0
LINE
8
DEFAULT_255_2_778
10
22.094798
20
134.1007971
11
22.094798
21
133.8006971
0
LINE
8
DEFAULT_255_2_778
10
22.094798
20
133.4008971
11
22.094798
21
131.9009971
0
LINE
8
DEFAULT_255_2_778
10
11.094798
20
134.1007971
11
11.094798
21
133.8006971
0
LINE
8
DEFAULT_255_2_778
10
11.094798
20
133.4008971
11
11.094798
21
131.9009971
0
LINE
8
DEFAULT_255_2_778
10
14.881198
20
131.9009971
11
14.881198
21
132.3232971
0
LINE
8
DEFAULT_255_2_778
10
14.881198
20
132.3232971
11
14.919398
21
132.5896971
0
LINE
8
DEFAULT_255_2_778
10
14.919398
20
132.5896971
11
14.941898
21
132.6574971
0
LINE
8
DEFAULT_255_2_778
10
14.941898
20
132.6574971
11
15.005298
21
132.7841971
0
LINE
8
DEFAULT_255_2_778
10
15.005298
20
132.7841971
11
15.167498
21
132.9463971
0
LINE
8
DEFAULT_255_2_778
10
15.167498
20
132.9463971
11
15.281598
21
133.0148971
0
LINE
8
DEFAULT_255_2_778
10
15.281598
20
133.0148971
11
15.413798
21
133.0368971
0
LINE
8
DEFAULT_255_2_778
10
15.413798
20
133.0368971
11
15.644798
21
133.0368971
0
LINE
8
DEFAULT_255_2_778
10
15.644798
20
133.0368971
11
15.777098
21
133.0148971
0
LINE
8
DEFAULT_255_2_778
10
15.777098
20
133.0148971
11
15.891198
21
132.9463971
0
LINE
8
DEFAULT_255_2_778
10
15.891198
20
132.9463971
11
16.053298
21
132.7841971
0
LINE
8
DEFAULT_255_2_778
10
16.053298
20
132.7841971
11
16.116798
21
132.6574971
0
LINE
8
DEFAULT_255_2_778
10
16.116798
20
132.6574971
11
16.139398
21
132.5896971
0
LINE
8
DEFAULT_255_2_778
10
16.139398
20
132.5896971
11
16.177398
21
132.3232971
0
LINE
8
DEFAULT_255_2_778
10
16.177398
20
132.3232971
11
16.177398
21
131.9006971
0
LINE
8
DEFAULT_255_2_778
10
15.062498
20
131.9006971
11
15.061198
21
132.3105971
0
LINE
8
DEFAULT_255_2_778
10
15.061198
20
132.3105971
11
15.094998
21
132.5481971
0
LINE
8
DEFAULT_255_2_778
10
15.094998
20
132.5481971
11
15.108498
21
132.5883971
0
LINE
8
DEFAULT_255_2_778
10
15.108498
20
132.5883971
11
15.153298
21
132.6775971
0
LINE
8
DEFAULT_255_2_778
10
15.153298
20
132.6775971
11
15.279198
21
132.8034971
0
LINE
8
DEFAULT_255_2_778
10
15.279198
20
132.8034971
11
15.345098
21
132.8428971
0
LINE
8
DEFAULT_255_2_778
10
15.345098
20
132.8428971
11
15.428998
21
132.8569971
0
LINE
8
DEFAULT_255_2_778
10
15.428998
20
132.8569971
11
15.629998
21
132.8569971
0
LINE
8
DEFAULT_255_2_778
10
15.629998
20
132.8569971
11
15.713898
21
132.8428971
0
LINE
8
DEFAULT_255_2_778
10
15.713898
20
132.8428971
11
15.779798
21
132.8034971
0
LINE
8
DEFAULT_255_2_778
10
15.779798
20
132.8034971
11
15.905698
21
132.6775971
0
LINE
8
DEFAULT_255_2_778
10
15.905698
20
132.6775971
11
15.950398
21
132.5883971
0
LINE
8
DEFAULT_255_2_778
10
15.950398
20
132.5883971
11
15.963898
21
132.5481971
0
LINE
8
DEFAULT_255_2_778
10
15.963898
20
132.5481971
11
15.997798
21
132.3105971
0
LINE
8
DEFAULT_255_2_778
10
15.997798
20
132.3105971
11
15.996498
21
131.9006971
0
LINE
8
DEFAULT_255_2_778
10
20.547798
20
131.9006971
11
20.547798
21
132.4539971
0
LINE
8
DEFAULT_255_2_778
10
20.547798
20
132.4539971
11
20.580898
21
132.6026971
0
LINE
8
DEFAULT_255_2_778
10
20.580898
20
132.6026971
11
20.627998
21
132.6968971
0
LINE
8
DEFAULT_255_2_778
10
20.627998
20
132.6968971
11
20.688298
21
132.7722971
0
LINE
8
DEFAULT_255_2_778
10
20.688298
20
132.7722971
11
20.777498
21
132.8315971
0
LINE
8
DEFAULT_255_2_778
10
20.777498
20
132.8315971
11
20.883098
21
132.8616971
0
LINE
8
DEFAULT_255_2_778
10
20.883098
20
132.8616971
11
21.119298
21
132.8616971
0
LINE
8
DEFAULT_255_2_778
10
21.119298
20
132.8616971
11
21.209598
21
132.8315971
0
LINE
8
DEFAULT_255_2_778
10
21.209598
20
132.8315971
11
21.318298
21
132.7693971
0
LINE
8
DEFAULT_255_2_778
10
21.318298
20
132.7693971
11
21.376498
21
132.6965971
0
LINE
8
DEFAULT_255_2_778
10
21.376498
20
132.6965971
11
21.423598
21
132.6023971
0
LINE
8
DEFAULT_255_2_778
10
21.423598
20
132.6023971
11
21.456698
21
132.4534971
0
LINE
8
DEFAULT_255_2_778
10
21.456698
20
132.4534971
11
21.456698
21
131.9001971
0
LINE
8
DEFAULT_255_2_778
10
21.645898
20
131.9001971
11
21.645898
21
132.4743971
0
LINE
8
DEFAULT_255_2_778
10
21.645898
20
132.4743971
11
21.603298
21
132.6661971
0
LINE
8
DEFAULT_255_2_778
10
21.603298
20
132.6661971
11
21.536898
21
132.7989971
0
LINE
8
DEFAULT_255_2_778
10
21.536898
20
132.7989971
11
21.443698
21
132.9156971
0
LINE
8
DEFAULT_255_2_778
10
21.443698
20
132.9156971
11
21.287298
21
133.0050971
0
LINE
8
DEFAULT_255_2_778
10
21.287298
20
133.0050971
11
21.150298
21
133.0508971
0
LINE
8
DEFAULT_255_2_778
10
21.150298
20
133.0508971
11
20.856598
21
133.0508971
0
LINE
8
DEFAULT_255_2_778
10
20.856598
20
133.0508971
11
20.697098
21
133.0053971
0
LINE
8
DEFAULT_255_2_778
10
20.697098
20
133.0053971
11
20.558898
21
132.9132971
0
LINE
8
DEFAULT_255_2_778
10
20.558898
20
132.9132971
11
20.467898
21
132.7992971
0
LINE
8
DEFAULT_255_2_778
10
20.467898
20
132.7992971
11
20.401498
21
132.6664971
0
LINE
8
DEFAULT_255_2_778
10
20.401498
20
132.6664971
11
20.358898
21
132.4745971
0
LINE
8
DEFAULT_255_2_778
10
20.358898
20
132.4745971
11
20.358898
21
131.9004971
0
LINE
8
DEFAULT_255_2_778
10
19.273898
20
131.9004971
11
18.605998
21
133.0503971
0
LINE
8
DEFAULT_255_2_778
10
18.605998
20
133.0503971
11
18.356298
21
133.0503971
0
LINE
8
DEFAULT_255_2_778
10
18.356298
20
133.0503971
11
18.356298
21
131.9004971
0
LINE
8
DEFAULT_255_2_778
10
19.693798
20
131.9004971
11
19.693798
21
133.0503971
0
LINE
8
DEFAULT_255_2_778
10
19.693798
20
133.0503971
11
19.498798
21
133.0503971
0
LINE
8
DEFAULT_255_2_778
10
19.498798
20
133.0503971
11
19.498798
21
131.9004971
0
LINE
8
DEFAULT_255_2_778
10
16.594698
20
135.5506971
11
17.633998
21
133.7506971
0
LINE
8
DEFAULT_255_2_778
10
17.633998
20
133.7506971
11
15.555398
21
133.7506971
0
LINE
8
DEFAULT_255_2_778
10
15.555398
20
133.7506971
11
16.594698
21
135.5506971
0
LINE
8
DEFAULT_255_2_778
10
20.594898
20
135.9004971
11
12.594698
21
135.9004971
0
LINE
8
DEFAULT_255_2_778
10
11.694598
20
135.6003971
11
21.494498
21
135.6003971
0
LINE
8
DEFAULT_255_2_778
10
21.132798
20
135.8003971
11
12.056298
21
135.8003971
0
LINE
8
DEFAULT_255_2_778
10
14.660598
20
133.4003971
11
18.528798
21
133.4003971
0
LINE
8
DEFAULT_255_2_778
10
16.565898
20
135.5003971
11
11.574998
21
135.5003971
0
LINE
8
DEFAULT_255_2_778
10
21.614598
20
135.5003971
11
16.623498
21
135.5003971
0
LINE
8
DEFAULT_255_2_778
10
24.294598
20
131.9004971
11
24.294598
21
132.2004971
0
LINE
8
DEFAULT_255_2_778
10
24.294598
20
132.2004971
11
26.294598
21
132.2004971
0
LINE
8
DEFAULT_255_2_778
10
6.894498
20
132.2004971
11
8.894498
21
132.2004971
0
LINE
8
DEFAULT_255_2_778
10
8.894498
20
132.2004971
11
8.894498
21
131.9004971
0
LINE
8
DEFAULT_255_2_778
10
17.629198
20
131.9004971
11
17.629198
21
133.0217971
0
LINE
8
DEFAULT_255_2_778
10
17.629198
20
133.0217971
11
16.692598
21
133.0217971
0
LINE
8
DEFAULT_255_2_778
10
16.692598
20
133.0217971
11
16.692598
21
132.8381971
0
LINE
8
DEFAULT_255_2_778
10
16.692598
20
132.8381971
11
17.445598
21
132.8381971
0
LINE
8
DEFAULT_255_2_778
10
17.445598
20
132.8381971
11
17.445598
21
131.9006971
0
LINE
8
DEFAULT_255_2_778
10
18.550198
20
131.9006971
11
18.550198
21
132.7563971
0
LINE
8
DEFAULT_255_2_778
10
18.550198
20
132.7563971
11
19.047098
21
131.9006971
0
LINE
8
DEFAULT_255_2_778
10
14.225298
20
131.9006971
11
14.246498
21
132.0284971
0
LINE
8
DEFAULT_255_2_778
10
14.246498
20
132.0284971
11
14.246498
21
132.2486971
0
LINE
8
DEFAULT_255_2_778
10
14.246498
20
132.2486971
11
14.230098
21
132.4288971
0
LINE
8
DEFAULT_255_2_778
10
14.230098
20
132.4288971
11
14.165598
21
132.6066971
0
LINE
8
DEFAULT_255_2_778
10
14.165598
20
132.6066971
11
14.099698
21
132.7219971
0
LINE
8
DEFAULT_255_2_778
10
14.099698
20
132.7219971
11
14.070598
21
132.7656971
0
LINE
8
DEFAULT_255_2_778
10
14.070598
20
132.7656971
11
14.033498
21
132.8026971
0
LINE
8
DEFAULT_255_2_778
10
14.033498
20
132.8026971
11
13.985098
21
132.8270971
0
LINE
8
DEFAULT_255_2_778
10
13.985098
20
132.8270971
11
13.845198
21
132.8582971
0
LINE
8
DEFAULT_255_2_778
10
13.845198
20
132.8582971
11
13.741198
21
132.8582971
0
LINE
8
DEFAULT_255_2_778
10
13.741198
20
132.8582971
11
13.625798
21
132.8293971
0
LINE
8
DEFAULT_255_2_778
10
13.625798
20
132.8293971
11
13.524998
21
132.7574971
0
LINE
8
DEFAULT_255_2_778
10
13.524998
20
132.7574971
11
13.472298
21
132.6915971
0
LINE
8
DEFAULT_255_2_778
10
13.472298
20
132.6915971
11
13.423898
21
132.5301971
0
LINE
8
DEFAULT_255_2_778
10
13.423898
20
132.5301971
11
13.253498
21
132.5812971
0
LINE
8
DEFAULT_255_2_778
10
13.253498
20
132.5812971
11
13.311998
21
132.7756971
0
LINE
8
DEFAULT_255_2_778
10
13.311998
20
132.7756971
11
13.401698
21
132.8878971
0
LINE
8
DEFAULT_255_2_778
10
13.401698
20
132.8878971
11
13.550098
21
132.9939971
0
LINE
8
DEFAULT_255_2_778
10
13.550098
20
132.9939971
11
13.719498
21
133.0362971
0
LINE
8
DEFAULT_255_2_778
10
13.719498
20
133.0362971
11
13.864698
21
133.0362971
0
LINE
8
DEFAULT_255_2_778
10
13.864698
20
133.0362971
11
14.045198
21
132.9963971
0
LINE
8
DEFAULT_255_2_778
10
14.045198
20
132.9963971
11
14.139098
21
132.9492971
0
LINE
8
DEFAULT_255_2_778
10
14.139098
20
132.9492971
11
14.208998
21
132.8793971
0
LINE
8
DEFAULT_255_2_778
10
14.208998
20
132.8793971
11
14.251298
21
132.8161971
0
LINE
8
DEFAULT_255_2_778
10
14.251298
20
132.8161971
11
14.327798
21
132.6822971
0
LINE
8
DEFAULT_255_2_778
10
14.327798
20
132.6822971
11
14.405498
21
132.4684971
0
LINE
8
DEFAULT_255_2_778
10
14.405498
20
132.4684971
11
14.424798
21
132.2570971
0
LINE
8
DEFAULT_255_2_778
10
14.424798
20
132.2570971
11
14.424798
21
132.0142971
0
LINE
8
DEFAULT_255_2_778
10
14.424798
20
132.0142971
11
14.406098
21
131.9012971
0
LINE
8
DEFAULT_255_2_778
10
12.772498
20
131.9012971
11
12.772498
21
133.0283971
0
LINE
8
DEFAULT_255_2_778
10
12.772498
20
133.0283971
11
12.581498
21
133.0283971
0
LINE
8
DEFAULT_255_2_778
10
12.581498
20
133.0283971
11
12.581498
21
132.4899971
0
LINE
8
DEFAULT_255_2_778
10
12.581498
20
132.4899971
11
12.356598
21
132.2224971
0
LINE
8
DEFAULT_255_2_778
10
12.356598
20
132.2224971
11
11.727898
21
133.0283971
0
LINE
8
DEFAULT_255_2_778
10
11.727898
20
133.0283971
11
11.485598
21
133.0283971
0
LINE
8
DEFAULT_255_2_778
10
11.485598
20
133.0283971
11
12.230598
21
132.0729971
0
LINE
8
DEFAULT_255_2_778
10
12.230598
20
132.0729971
11
12.086198
21
131.9012971
0
LINE
8
DEFAULT_255_2_778
10
12.335998
20
131.9012971
11
12.581498
21
132.1930971
0
LINE
8
DEFAULT_255_2_778
10
12.581498
20
132.1930971
11
12.581498
21
131.9012971
0
LINE
8
DEFAULT_255_2_778
10
15.526598
20
134.9005971
11
15.468898
21
134.8005971
0
LINE
8
DEFAULT_255_2_778
10
15.468898
20
134.8005971
11
11.149098
21
134.8005971
0
LINE
8
DEFAULT_255_2_778
10
11.149098
20
134.8005971
11
11.180498
21
134.9005971
0
LINE
8
DEFAULT_255_2_778
10
20.983898
20
135.9030971
11
12.205798
21
135.9030971
0
LINE
8
DEFAULT_255_2_778
10
15.642198
20
135.1005971
11
15.526798
21
134.9005971
0
LINE
8
DEFAULT_255_2_778
10
15.526798
20
134.9005971
11
11.180498
21
134.9005971
0
LINE
8
DEFAULT_255_2_778
10
22.094798
20
133.5006971
11
22.094798
21
133.4006971
0
LINE
8
DEFAULT_255_2_778
10
22.094798
20
133.4006971
11
18.528798
21
133.4006971
0
LINE
8
DEFAULT_255_2_778
10
18.528798
20
133.4006971
11
18.471098
21
133.5006971
0
LINE
8
DEFAULT_255_2_778
10
11.325798
20
135.2005971
11
11.268098
21
135.1005971
0
LINE
8
DEFAULT_255_2_778
10
11.268098
20
135.1005971
11
15.642198
21
135.1005971
0
LINE
8
DEFAULT_255_2_778
10
15.642198
20
135.1005971
11
15.699898
21
135.2005971
0
LINE
8
DEFAULT_255_2_778
10
15.699898
20
135.2005971
11
11.325798
21
135.2005971
0
LINE
8
DEFAULT_255_2_778
10
11.094498
20
133.5006971
11
11.094498
21
133.7006971
0
LINE
8
DEFAULT_255_2_778
10
11.094498
20
133.7006971
11
14.833598
21
133.7006971
0
LINE
8
DEFAULT_255_2_778
10
14.833598
20
133.7006971
11
14.718298
21
133.5006971
0
LINE
8
DEFAULT_255_2_778
10
14.718298
20
133.5006971
11
11.094798
21
133.5006971
0
LINE
8
DEFAULT_255_2_778
10
11.094798
20
133.5006971
11
11.094798
21
133.4006971
0
LINE
8
DEFAULT_255_2_778
10
11.094798
20
133.4006971
11
14.660598
21
133.4006971
0
LINE
8
DEFAULT_255_2_778
10
14.660598
20
133.4006971
11
14.718298
21
133.5006971
0
LINE
8
DEFAULT_255_2_778
10
22.094598
20
134.4007971
11
22.091098
21
134.5007971
0
LINE
8
DEFAULT_255_2_778
10
22.091098
20
134.5007971
11
17.893798
21
134.5007971
0
LINE
8
DEFAULT_255_2_778
10
17.893798
20
134.5007971
11
17.951498
21
134.4007971
0
LINE
8
DEFAULT_255_2_778
10
21.921298
20
135.1008971
11
21.863598
21
135.2008971
0
LINE
8
DEFAULT_255_2_778
10
21.863598
20
135.2008971
11
17.489798
21
135.2008971
0
LINE
8
DEFAULT_255_2_778
10
17.489798
20
135.2008971
11
17.547498
21
135.1008971
0
LINE
8
DEFAULT_255_2_778
10
11.094798
20
134.2004971
11
11.094798
21
134.1004971
0
LINE
8
DEFAULT_255_2_778
10
11.094798
20
134.1004971
11
15.064898
21
134.1004971
0
LINE
8
DEFAULT_255_2_778
10
15.064898
20
134.1004971
11
15.122498
21
134.2004971
0
LINE
8
DEFAULT_255_2_778
10
14.833898
20
133.7003971
11
14.891598
21
133.8004971
0
LINE
8
DEFAULT_255_2_778
10
14.891598
20
133.8004971
11
11.094798
21
133.8004971
0
LINE
8
DEFAULT_255_2_778
10
11.094798
20
133.8004971
11
11.094798
21
133.7003971
0
LINE
8
DEFAULT_255_2_778
10
22.094798
20
133.7003971
11
22.094798
21
133.5003971
0
LINE
8
DEFAULT_255_2_778
10
22.094798
20
133.5003971
11
18.471098
21
133.5003971
0
LINE
8
DEFAULT_255_2_778
10
18.471098
20
133.5003971
11
18.355798
21
133.7003971
0
LINE
8
DEFAULT_255_2_778
10
22.094798
20
134.2004971
11
22.094798
21
134.1004971
0
LINE
8
DEFAULT_255_2_778
10
22.094798
20
134.1004971
11
18.124798
21
134.1004971
0
LINE
8
DEFAULT_255_2_778
10
18.124798
20
134.1004971
11
18.067098
21
134.2004971
0
LINE
8
DEFAULT_255_2_778
10
11.094798
20
134.4004971
11
11.094798
21
134.2004971
0
LINE
8
DEFAULT_255_2_778
10
11.094798
20
134.2004971
11
15.122498
21
134.2004971
0
LINE
8
DEFAULT_255_2_778
10
15.122498
20
134.2004971
11
15.238198
21
134.4004971
0
LINE
8
DEFAULT_255_2_778
10
22.094798
20
134.4004971
11
22.094798
21
134.2004971
0
LINE
8
DEFAULT_255_2_778
10
22.094798
20
134.2004971
11
18.067098
21
134.2004971
0
LINE
8
DEFAULT_255_2_778
10
18.067098
20
134.2004971
11
17.951698
21
134.4004971
0
LINE
8
DEFAULT_255_2_778
10
17.951698
20
134.4004971
11
22.094798
21
134.4004971
0
LINE
8
DEFAULT_255_2_778
10
15.295898
20
134.5004971
11
11.098198
21
134.5004971
0
LINE
8
DEFAULT_255_2_778
10
11.098198
20
134.5004971
11
11.094798
21
134.4004971
0
LINE
8
DEFAULT_255_2_778
10
11.094798
20
134.4004971
11
15.237898
21
134.4004971
0
LINE
8
DEFAULT_255_2_778
10
15.237898
20
134.4004971
11
15.295898
21
134.5004971
0
LINE
8
DEFAULT_255_2_778
10
17.663098
20
134.9005971
11
17.720698
21
134.8005971
0
LINE
8
DEFAULT_255_2_778
10
17.720698
20
134.8005971
11
22.040598
21
134.8005971
0
LINE
8
DEFAULT_255_2_778
10
22.040598
20
134.8005971
11
22.009098
21
134.9005971
0
LINE
8
DEFAULT_255_2_778
10
22.009098
20
134.9005971
11
17.662798
21
134.9005971
0
LINE
8
DEFAULT_255_2_778
10
17.662798
20
134.9005971
11
17.547498
21
135.1005971
0
LINE
8
DEFAULT_255_2_778
10
17.547498
20
135.1005971
11
21.921598
21
135.1005971
0
LINE
8
DEFAULT_255_2_778
10
18.298098
20
133.8004971
11
22.094798
21
133.8004971
0
LINE
8
DEFAULT_255_2_778
10
22.094798
20
133.8004971
11
22.094798
21
133.7003971
0
LINE
8
DEFAULT_255_2_778
10
22.094798
20
133.7003971
11
18.355798
21
133.7003971
0
LINE
8
DEFAULT_255_2_778
10
18.355798
20
133.7003971
11
18.298098
21
133.8004971
0
ARC
8
DEFAULT_255_2_778
10
27.3449614
20
101.8710121
40
0.5000956
50
90.0053149
51
135.0041129
0
ARC
8
DEFAULT_255_2_778
10
27.3445081
20
101.8712695
40
0.4995932
50
134.9882299
51
180.0185436
0
ARC
8
DEFAULT_255_2_778
10
27.3449905
20
99.8710832
40
0.5000755
50
179.9971846
51
269.9913517
0
ARC
8
DEFAULT_255_2_778
10
29.344918
20
99.8711047
40
0.5000969
50
269.9996485
51
0.0003515
0
ARC
8
DEFAULT_255_2_778
10
29.3453252
20
101.8711296
40
0.4996898
50
359.9974993
51
45.0233811
0
ARC
8
DEFAULT_255_2_778
10
29.3448686
20
101.8710121
40
0.5000956
50
44.9958871
51
89.9946851
0
ARC
8
DEFAULT_255_2_778
10
29.3535274
20
99.8860671
40
0.5033876
50
317.038933
51
0.0046321
0
ARC
8
DEFAULT_255_2_778
10
29.3528038
20
101.8859981
40
0.5041112
50
0.0124661
51
45.0079155
0
ARC
8
DEFAULT_255_2_778
10
29.3527773
20
101.8862696
40
0.5039379
50
44.9839534
51
89.9957118
0
ARC
8
DEFAULT_255_2_778
10
27.3529725
20
101.8859928
40
0.5042149
50
90.0065388
51
164.4918203
0
ARC
8
DEFAULT_255_2_778
10
31.2190119
20
12.6387108
40
0.5000969
50
89.9996485
51
180.0003515
0
ARC
8
DEFAULT_255_2_778
10
34.0810438
20
12.3172724
40
0.5001288
50
179.9959452
51
233.1227391
0
ARC
8
DEFAULT_255_2_778
10
32.903632
20
11.8368857
40
0.146015
50
352.2548757
51
1.0739711
0
ARC
8
DEFAULT_255_2_778
10
28.2381186
20
11.9616148
40
4.8130491
50
358.5476167
51
359.3766204
0
ARC
8
DEFAULT_255_2_778
10
13.0121997
20
12.1515446
40
20.0401479
50
359.3072501
51
359.6628352
0
ARC
8
DEFAULT_255_2_778
10
-9.8349705
20
12.2945853
40
42.887765
50
359.6513571
51
359.9268047
0
ARC
8
DEFAULT_255_2_778
10
-20.5801329
20
12.3168851
40
53.6329477
50
359.9176463
51
0.0004515
0
ARC
8
DEFAULT_255_2_778
10
33.1929861
20
12.7977514
40
0.1459869
50
172.3015297
51
181.1182834
0
ARC
8
DEFAULT_255_2_778
10
37.8990109
20
12.6756022
40
4.8534504
50
178.5915009
51
179.4133026
0
ARC
8
DEFAULT_255_2_778
10
53.7230897
20
12.4884411
40
20.6786315
50
179.3437044
51
179.6882154
0
ARC
8
DEFAULT_255_2_778
10
78.9134835
20
12.3423619
40
45.869448
50
179.6769736
51
179.9344784
0
ARC
8
DEFAULT_255_2_778
10
92.2871059
20
12.3175396
40
59.2430909
50
179.9252629
51
180.0002242
0
LINE
8
DEFAULT_255_2_778
10
28.994915
20
125.9852078
11
6.194915
21
125.9852078
0
LINE
8
DEFAULT_255_2_778
10
6.194915
20
125.9852078
11
6.194915
21
127.4851078
0
LINE
8
DEFAULT_255_2_778
10
6.194915
20
127.4851078
11
28.994915
21
127.4851078
0
LINE
8
DEFAULT_255_2_778
10
28.994915
20
127.4851078
11
28.994915
21
125.9852078
0
LINE
8
DEFAULT_255_2_778
10
6.151815
20
125.3851078
11
6.218515
21
125.3113078
0
LINE
8
DEFAULT_255_2_778
10
6.218515
20
125.3113078
11
6.218515
21
108.0589078
0
LINE
8
DEFAULT_255_2_778
10
6.218515
20
108.0589078
11
28.970815
21
108.0589078
0
LINE
8
DEFAULT_255_2_778
10
28.970815
20
108.0589078
11
28.944615
21
108.0851078
0
LINE
8
DEFAULT_255_2_778
10
28.944615
20
108.0851078
11
6.244715
21
108.0851078
0
LINE
8
DEFAULT_255_2_778
10
6.244715
20
108.0851078
11
6.151815
21
107.9850078
0
LINE
8
DEFAULT_255_2_778
10
29.037715
20
125.3851078
11
28.944915
21
125.2851078
0
LINE
8
DEFAULT_255_2_778
10
28.944915
20
125.2851078
11
6.244715
21
125.2851078
0
LINE
8
DEFAULT_255_2_778
10
6.244715
20
125.2851078
11
6.218515
21
125.3113078
0
LINE
8
DEFAULT_255_2_778
10
6.218515
20
125.3113078
11
28.970815
21
125.3113078
0
LINE
8
DEFAULT_255_2_778
10
28.970815
20
125.3113078
11
28.970815
21
108.0589078
0
LINE
8
DEFAULT_255_2_778
10
28.970815
20
108.0589078
11
29.037515
21
107.9850078
0
LINE
8
DEFAULT_255_2_778
10
29.037515
20
107.9850078
11
29.037515
21
125.3851078
0
LINE
8
DEFAULT_255_2_778
10
29.037515
20
125.3851078
11
6.151815
21
125.3851078
0
LINE
8
DEFAULT_255_2_778
10
6.151815
20
125.3851078
11
6.151815
21
107.9850078
0
LINE
8
DEFAULT_255_2_778
10
6.151815
20
107.9850078
11
29.037715
21
107.9850078
0
LINE
8
DEFAULT_255_2_778
10
28.944615
20
108.0851078
11
28.944615
21
125.2851078
0
LINE
8
DEFAULT_255_2_778
10
6.244715
20
125.2851078
11
6.244715
21
108.0851078
0
LINE
8
DEFAULT_255_2_778
10
26.844915
20
101.8711078
11
26.844915
21
99.8711078
0
LINE
8
DEFAULT_255_2_778
10
27.344915
20
99.3710078
11
29.344915
21
99.3710078
0
LINE
8
DEFAULT_255_2_778
10
29.845015
20
99.8711078
11
29.845015
21
101.8711078
0
LINE
8
DEFAULT_255_2_778
10
29.344915
20
102.3711078
11
27.344915
21
102.3711078
0
LINE
8
DEFAULT_255_2_778
10
29.856915
20
99.8861078
11
29.856915
21
101.8861078
0
LINE
8
DEFAULT_255_2_778
10
29.352815
20
102.3902078
11
27.352915
21
102.3902078
0
LINE
8
DEFAULT_255_2_778
10
32.933215
20
13.1388078
11
32.934815
21
11.6389078
0
LINE
8
DEFAULT_255_2_778
10
30.718915
20
12.6387078
11
30.718915
21
11.6386078
0
LINE
8
DEFAULT_255_2_778
10
34.430715
20
11.6386078
11
34.430715
21
13.1385078
0
LINE
8
DEFAULT_255_2_778
10
30.418915
20
14.4585078
11
30.618915
21
14.4585078
0
LINE
8
DEFAULT_255_2_778
10
30.618915
20
13.1385078
11
30.418915
21
13.1385078
0
LINE
8
DEFAULT_255_2_778
10
30.618915
20
14.6586078
11
30.418915
21
14.6586078
0
LINE
8
DEFAULT_255_2_778
10
34.565715
20
13.1385078
11
34.565715
21
16.6384078
0
LINE
8
DEFAULT_255_2_778
10
31.618715
20
13.1385078
11
30.618915
21
13.1385078
0
LINE
8
DEFAULT_255_2_778
10
30.618915
20
13.1385078
11
30.618915
21
16.6384078
0
LINE
8
DEFAULT_255_2_778
10
34.542415
20
19.8584078
11
34.542415
21
20.8583078
0
LINE
8
DEFAULT_255_2_778
10
34.542915
20
16.6382078
11
34.542415
21
17.2383078
0
LINE
8
DEFAULT_255_2_778
10
30.718915
20
11.8175078
11
32.933215
21
11.8175078
0
LINE
8
DEFAULT_255_2_778
10
33.048315
20
11.8175078
11
33.035315
21
11.8175078
0
LINE
8
DEFAULT_255_2_778
10
33.035315
20
11.8175078
11
33.035315
21
11.6381078
0
LINE
8
DEFAULT_255_2_778
10
33.580915
20
12.3173078
11
33.580915
21
13.1380078
0
LINE
8
DEFAULT_255_2_778
10
33.052815
20
13.1380078
11
33.052815
21
12.3173078
0
LINE
8
DEFAULT_255_2_778
10
33.052815
20
12.3173078
11
33.580915
21
12.3173078
0
LINE
8
DEFAULT_255_2_778
10
33.780915
20
13.1380078
11
33.780915
21
11.8172078
0
LINE
8
DEFAULT_255_2_778
10
33.780915
20
11.8172078
11
33.048315
21
11.8172078
0
LINE
8
DEFAULT_255_2_778
10
33.052815
20
12.3173078
11
33.048315
21
12.8173078
0
LINE
8
DEFAULT_255_2_778
10
34.533715
20
11.6381078
11
34.612015
21
11.6381078
0
LINE
8
DEFAULT_255_2_778
10
34.533715
20
20.8580078
11
34.542615
21
20.8580078
0
LINE
8
DEFAULT_255_2_778
10
34.542615
20
20.8580078
11
34.542615
21
16.6379078
0
LINE
8
DEFAULT_255_2_778
10
34.542615
20
16.6379078
11
34.566215
21
16.6379078
0
LINE
8
DEFAULT_255_2_778
10
34.566215
20
16.6379078
11
34.566215
21
13.1380078
0
LINE
8
DEFAULT_255_2_778
10
34.566215
20
13.1380078
11
34.533915
21
13.1380078
0
LINE
8
DEFAULT_255_2_778
10
33.034515
20
19.8582078
11
33.469515
21
19.8582078
0
LINE
8
DEFAULT_255_2_778
10
33.469515
20
19.8582078
11
33.469515
21
17.7381078
0
LINE
8
DEFAULT_255_2_778
10
33.469515
20
17.7381078
11
33.034515
21
17.7381078
0
ARC
8
DEFAULT_255_2_778
10
33.0547948
20
5.3239216
40
1.5058868
50
270.0740931
51
306.6616449
0
ARC
8
DEFAULT_255_2_778
10
33.0608216
20
5.3142355
40
1.4945186
50
306.6980218
51
325.0992151
0
ARC
8
DEFAULT_255_2_778
10
33.0660569
20
5.3136235
40
1.4898768
50
325.0033261
51
343.4542909
0
ARC
8
DEFAULT_255_2_778
10
22.9893831
20
8.318797
40
11.741459
50
342.9607528
51
359.9953107
0
ARC
8
DEFAULT_255_2_778
10
22.9888858
20
127.3997005
40
11.7419564
50
0.0050531
51
17.0388841
0
ARC
8
DEFAULT_255_2_778
10
33.0127317
20
130.4064326
40
1.4874502
50
16.6062831
51
35.0629017
0
ARC
8
DEFAULT_255_2_778
10
33.0052733
20
130.403768
40
1.4950872
50
34.9822851
51
53.3541295
0
ARC
8
DEFAULT_255_2_778
10
32.9992975
20
130.3952452
40
1.5054922
50
53.365257
51
89.9259921
0
ARC
8
DEFAULT_255_2_778
10
2.1868867
20
130.4073165
40
1.4934201
50
89.9518334
51
108.34534
0
ARC
8
DEFAULT_255_2_778
10
2.1879162
20
130.4010874
40
1.499657
50
108.3077688
51
126.6257616
0
ARC
8
DEFAULT_255_2_778
10
2.1930961
20
130.3971572
40
1.5059026
50
126.6947203
51
163.242712
0
LINE
8
DEFAULT_255_2_778
10
2.1322422
20
3.8180361
11
2.1313101
21
3.8180358
0
ARC
8
DEFAULT_255_2_778
10
2.1311639
20
5.3094407
40
1.4914049
50
251.6056197
51
270.0056178
0
ARC
8
DEFAULT_255_2_778
10
2.1312842
20
5.3158373
40
1.4975139
50
233.3147911
51
251.6784823
0
ARC
8
DEFAULT_255_2_778
10
2.136698
20
5.3212146
40
1.5050609
50
196.6635729
51
233.2718091
0
ARC
8
DEFAULT_255_2_778
10
0.2490063
20
18.8318687
40
0.0357764
50
337.4279144
51
2.7210563
0
ARC
8
DEFAULT_255_2_778
10
-0.7805499
20
18.917318
40
1.0685794
50
355.5047822
51
357.7406719
0
ARC
8
DEFAULT_255_2_778
10
-5.4115481
20
19.1131108
40
5.7037113
50
357.6093274
51
358.6205027
0
ARC
8
DEFAULT_255_2_778
10
-18.801073
20
19.455543
40
19.0976096
50
358.5605369
51
359.029969
0
ARC
8
DEFAULT_255_2_778
10
-43.8260527
20
19.8919157
40
44.1263923
50
359.0135416
51
359.2836413
0
ARC
8
DEFAULT_255_2_778
10
-78.2819992
20
20.3335583
40
78.5851682
50
359.2757504
51
359.4354605
0
ARC
8
DEFAULT_255_2_778
10
-125.030253
20
20.7929542
40
125.3356792
50
359.4360241
51
359.5891687
0
ARC
8
DEFAULT_255_2_778
10
-187.8288431
20
21.2478644
40
188.135917
50
359.5877635
51
359.7147272
0
ARC
8
DEFAULT_255_2_778
10
-245.1953294
20
21.542909
40
245.5031615
50
359.7125294
51
359.792984
0
ARC
8
DEFAULT_255_2_778
10
-298.5387613
20
21.7322771
40
298.8469292
50
359.7936298
51
359.9010674
0
ARC
8
DEFAULT_255_2_778
10
-343.6596373
20
21.8141445
40
343.9678794
50
359.9004082
51
0.0006815
0
ARC
8
DEFAULT_255_2_778
10
0.3391933
20
116.9209614
40
0.0765706
50
177.9532107
51
195.3158521
0
ARC
8
DEFAULT_255_2_778
10
2.8793379
20
117.0572991
40
2.620075
50
181.3532499
51
182.9228953
0
ARC
8
DEFAULT_255_2_778
10
12.4461471
20
117.3146847
40
12.1903348
50
180.9408855
51
181.500737
0
ARC
8
DEFAULT_255_2_778
10
30.4611802
20
117.6265574
40
30.2080644
50
180.7074218
51
180.9712501
0
ARC
8
DEFAULT_255_2_778
10
59.7747643
20
117.9894974
40
59.5238952
50
180.489786
51
180.7083761
0
ARC
8
DEFAULT_255_2_778
10
104.5953024
20
118.3792013
40
104.3461271
50
180.3306855
51
180.4933834
0
ARC
8
DEFAULT_255_2_778
10
158.105521
20
118.6920166
40
157.8572597
50
180.1919824
51
180.3321282
0
ARC
8
DEFAULT_255_2_778
10
203.2627863
20
118.8507351
40
203.0148035
50
180.0934479
51
180.1940732
0
ARC
8
DEFAULT_255_2_778
10
230.9985973
20
118.8982373
40
230.7506551
50
179.9993796
51
180.0940105
0
ARC
8
DEFAULT_255_2_778
10
22.9975821
20
8.318376
40
11.99706
50
343.3934244
51
359.9988541
0
ARC
8
DEFAULT_255_2_778
10
12.1941402
20
127.4008735
40
11.9461981
50
163.3110316
51
180.0006591
0
ARC
8
DEFAULT_255_2_778
10
12.1928426
20
127.4010473
40
11.7343006
50
162.9555161
51
180.0005432
0
ARC
8
DEFAULT_255_2_778
10
22.9925204
20
127.3999406
40
11.9489218
50
0.0038142
51
16.6887217
0
ARC
8
DEFAULT_255_2_778
10
2.4065616
20
5.3082896
40
1.4902542
50
251.7206151
51
270.0530775
0
ARC
8
DEFAULT_255_2_778
10
2.4085273
20
5.3193128
40
1.5013385
50
233.5780643
51
251.7813316
0
ARC
8
DEFAULT_255_2_778
10
2.4127944
20
5.321227
40
1.5054139
50
197.1015356
51
233.490637
0
ARC
8
DEFAULT_255_2_778
10
12.1933491
20
8.3180999
40
11.7348069
50
179.9998235
51
197.0441095
0
ARC
8
DEFAULT_255_2_778
10
12.1946934
20
8.3184626
40
11.9999513
50
180.0015592
51
196.6028901
0
ARC
8
DEFAULT_255_2_778
10
12.1925304
20
127.4007459
40
11.7297882
50
162.9472183
51
180.0000478
0
ARC
8
DEFAULT_255_2_778
10
22.9739511
20
8.3217014
40
11.7527623
50
342.9628322
51
347.7001507
0
ARC
8
DEFAULT_255_2_778
10
32.6986883
20
131.7504593
40
0.0282938
50
163.6247635
51
180.977709
0
ARC
8
DEFAULT_255_2_778
10
32.7979539
20
131.7455849
40
0.1276309
50
178.0281589
51
180.095007
0
ARC
8
DEFAULT_255_2_778
10
33.3845667
20
131.7620017
40
0.714437
50
181.3336678
51
185.9151415
0
ARC
8
DEFAULT_255_2_778
10
36.9949083
20
132.0948408
40
4.3400502
50
185.3738889
51
186.6170781
0
ARC
8
DEFAULT_255_2_778
10
47.4372304
20
133.2878904
40
14.8503006
50
186.5468565
51
187.0542604
0
ARC
8
DEFAULT_255_2_778
10
12.155859
20
127.4015353
40
11.499717
50
175.0783451
51
180.003982
0
ARC
8
DEFAULT_255_2_778
10
12.1919879
20
127.4009396
40
11.7072458
50
163.0377182
51
180.000996
0
ARC
8
DEFAULT_255_2_778
10
2.407807
20
130.4037259
40
1.4943324
50
144.718845
51
163.0036206
0
ARC
8
DEFAULT_255_2_778
10
2.4082232
20
130.40498
40
1.4939484
50
126.4783673
51
144.7673295
0
ARC
8
DEFAULT_255_2_778
10
2.4145864
20
130.3949012
40
1.5058359
50
90.070173
51
126.4450556
0
ARC
8
DEFAULT_255_2_778
10
2.4787005
20
131.7478223
40
0.0408008
50
356.0783063
51
15.3692178
0
ARC
8
DEFAULT_255_2_778
10
1.9107239
20
131.7569737
40
0.6087989
50
354.4743931
51
358.8760455
0
ARC
8
DEFAULT_255_2_778
10
0.3540154
20
131.8840775
40
2.1706387
50
354.4948306
51
355.0916236
0
ARC
8
DEFAULT_255_2_778
10
-3.138736
20
132.2415632
40
5.6816135
50
353.3764107
51
354.2855008
0
ARC
8
DEFAULT_255_2_778
10
-13.7499104
20
133.4613942
40
16.3626694
50
352.9927664
51
353.419371
0
ARC
8
DEFAULT_255_2_778
10
12.1692387
20
127.4015322
40
10.0136967
50
175.0864199
51
180.0079882
0
ARC
8
DEFAULT_255_2_778
10
32.77832
20
130.4082835
40
1.4921533
50
71.7445913
51
90.0567458
0
ARC
8
DEFAULT_255_2_778
10
32.7776097
20
130.4016853
40
1.4986426
50
53.5615344
51
71.7978257
0
ARC
8
DEFAULT_255_2_778
10
32.7720145
20
130.3971186
40
1.5056409
50
17.1198423
51
53.4934586
0
ARC
8
DEFAULT_255_2_778
10
2.484503
20
5.3832409
40
1.5004306
50
196.8172601
51
212.8458633
0
ARC
8
DEFAULT_255_2_778
10
2.4893893
20
5.3876998
40
1.5069545
50
212.8875267
51
228.8640385
0
ARC
8
DEFAULT_255_2_778
10
2.4905796
20
5.393223
40
1.5118998
50
228.9677584
51
244.8962162
0
ARC
8
DEFAULT_255_2_778
10
2.4847457
20
5.3860988
40
1.5029751
50
244.9823821
51
261.046836
0
ARC
8
DEFAULT_255_2_778
10
2.439281
20
130.3714659
40
1.5121885
50
126.6724557
51
162.8870835
0
ARC
8
DEFAULT_255_2_778
10
2.4325338
20
130.3668884
40
1.5118521
50
90.1399044
51
126.3637557
0
ARC
8
DEFAULT_255_2_778
10
32.7571765
20
130.3666641
40
1.5120767
50
53.6390268
51
89.8573117
0
ARC
8
DEFAULT_255_2_778
10
32.7494658
20
130.3705452
40
1.5135466
50
17.1335558
51
53.3168595
0
ARC
8
DEFAULT_255_2_778
10
22.994546
20
127.4004404
40
11.7105962
50
0.0014469
51
16.9598359
0
ARC
8
DEFAULT_255_2_778
10
22.9940346
20
127.4002482
40
11.7331075
50
0.0023826
51
17.0503519
0
ARC
8
DEFAULT_255_2_778
10
12.1981526
20
8.3182585
40
11.6478105
50
180.0006022
51
196.8130252
0
ARC
8
DEFAULT_255_2_778
10
-2.5307948
20
4.5549697
40
4.8519633
50
354.2749
51
356.0843057
0
ARC
8
DEFAULT_255_2_778
10
0.82845
20
4.2125322
40
1.4753253
50
350.6601133
51
354.4933819
0
ARC
8
DEFAULT_255_2_778
10
2.09915
20
3.9952629
40
0.1863892
50
336.6060163
51
353.1711674
0
ARC
8
DEFAULT_255_2_778
10
2.2554038
20
3.9294109
40
0.0169095
50
315.3919096
51
331.1694498
0
ARC
8
DEFAULT_255_2_778
10
2.4964533
20
5.4002525
40
1.500298
50
196.7673953
51
261.2198329
0
ARC
8
DEFAULT_255_2_778
10
1.0373715
20
4.9767005
40
0.024398
50
337.6837833
51
5.0248599
0
ARC
8
DEFAULT_255_2_778
10
0.7048354
20
4.9645934
40
0.3571244
50
2.285863
51
10.3370207
0
ARC
8
DEFAULT_255_2_778
10
-0.2310677
20
4.8210172
40
1.3038732
50
9.1640793
51
10.3126592
0
ARC
8
DEFAULT_255_2_778
10
-6.3583293
20
3.6358684
40
7.5446334
50
10.8374548
51
12.5078575
0
ARC
8
DEFAULT_255_2_778
10
13.891846
20
8.3458928
40
13.24084
50
185.4673029
51
190.1011161
0
ARC
8
DEFAULT_255_2_778
10
13.1719273
20
8.2751621
40
12.5174574
50
180.0390186
51
185.4589875
0
ARC
8
DEFAULT_255_2_778
10
13.2119905
20
8.275513
40
12.5575208
50
179.8055247
51
180.040495
0
ARC
8
DEFAULT_255_2_778
10
1.8131921
20
10.659475
40
2.6123434
50
243.6707382
51
270.0018027
0
ARC
8
DEFAULT_255_2_778
10
1.8132793
20
10.6597063
40
2.6125748
50
269.9998921
51
273.0543834
0
ARC
8
DEFAULT_255_2_778
10
1.8132516
20
10.6601368
40
2.6130061
50
273.0544854
51
277.4917019
0
ARC
8
DEFAULT_255_2_778
10
25.6462148
20
8.0059437
40
23.4923585
50
179.8451475
51
180.0000107
0
ARC
8
DEFAULT_255_2_778
10
24.2322555
20
7.9982008
40
22.0784006
50
179.9799178
51
182.0541151
0
ARC
8
DEFAULT_255_2_778
10
24.8198998
20
8.0157321
40
22.6662958
50
182.0451586
51
183.9702344
0
ARC
8
DEFAULT_255_2_778
10
23.5686776
20
7.9344205
40
21.4124474
50
183.9849939
51
184.1154231
0
ARC
8
DEFAULT_255_2_778
10
25.7053356
20
8.0804722
40
23.5540788
50
184.09678
51
185.0130341
0
ARC
8
DEFAULT_255_2_778
10
27.2462779
20
8.21638
40
25.1010029
50
185.0147159
51
185.81957
0
ARC
8
DEFAULT_255_2_778
10
22.9907282
20
8.3187486
40
11.6223139
50
347.783207
51
359.9979665
0
ARC
8
DEFAULT_255_2_778
10
34.6630169
20
5.8398095
40
0.3137829
50
176.4321947
51
179.7350491
0
ARC
8
DEFAULT_255_2_778
10
34.3745559
20
5.8347198
40
0.0261497
50
165.5151755
51
218.1567561
0
ARC
8
DEFAULT_255_2_778
10
34.35434
20
5.8206931
40
0.002157
50
260.7590409
51
270.0567188
0
ARC
8
DEFAULT_255_2_778
10
22.9922435
20
8.3193961
40
11.7126033
50
342.9128851
51
347.6713619
0
ARC
8
DEFAULT_255_2_778
10
32.7719888
20
5.3223222
40
1.505774
50
306.4898063
51
342.8670411
0
ARC
8
DEFAULT_255_2_778
10
32.7796809
20
5.3127972
40
1.493542
50
288.1707607
51
306.4698641
0
ARC
8
DEFAULT_255_2_778
10
32.7781672
20
5.3098693
40
1.4912341
50
269.9375621
51
288.2611009
0
ARC
8
DEFAULT_255_2_778
10
32.7415595
20
3.9149161
40
0.050079
50
175.7806589
51
197.2853012
0
ARC
8
DEFAULT_255_2_778
10
33.310197
20
3.9066646
40
0.6186959
50
173.9630183
51
178.8945662
0
ARC
8
DEFAULT_255_2_778
10
34.7008581
20
3.7821494
40
2.0148648
50
173.8891615
51
174.6009102
0
ARC
8
DEFAULT_255_2_778
10
36.5668387
20
3.562873
40
3.8936333
50
172.0776496
51
173.6037919
0
ARC
8
DEFAULT_255_2_778
10
51.45224
20
1.5214867
40
18.9183545
50
171.7420277
51
172.1677975
0
ARC
8
DEFAULT_255_2_778
10
10.2165738
20
8.0236294
40
22.8197917
50
356.049418
51
357.9815975
0
ARC
8
DEFAULT_255_2_778
10
12.1936317
20
7.9435679
40
20.8411432
50
358.010131
51
358.0448756
0
ARC
8
DEFAULT_255_2_778
10
10.5293489
20
8.0058023
40
22.5065809
50
358.031082
51
0.0014872
0
ARC
8
DEFAULT_255_2_778
10
10.6306562
20
8.006483
40
22.4052736
50
359.9997532
51
0.1602195
0
ARC
8
DEFAULT_255_2_778
10
33.3767627
20
10.6630252
40
2.6161972
50
262.5124074
51
266.7299243
0
ARC
8
DEFAULT_255_2_778
10
33.3766447
20
10.661126
40
2.6142944
50
266.7301315
51
269.999941
0
ARC
8
DEFAULT_255_2_778
10
33.376842
20
10.6581072
40
2.6112756
50
269.995612
51
296.3347404
0
ARC
8
DEFAULT_255_2_778
10
22.0072801
20
8.272178
40
12.5280453
50
0.0000019
51
0.2088131
0
ARC
8
DEFAULT_255_2_778
10
21.9846601
20
8.2723602
40
12.5506652
50
354.5669733
51
359.9991702
0
ARC
8
DEFAULT_255_2_778
10
21.4458105
20
8.3303303
40
13.0925846
50
352.0651399
51
354.5376955
0
ARC
8
DEFAULT_255_2_778
10
21.1073071
20
8.3773341
40
13.4343358
50
350.1654747
51
352.0658891
0
ARC
8
DEFAULT_255_2_778
10
19.7704785
20
8.6030055
40
14.7900667
50
349.9575081
51
350.1886387
0
ARC
8
DEFAULT_255_2_778
10
34.8495288
20
4.9154494
40
0.7243893
50
169.0026861
51
173.9600927
0
ARC
8
DEFAULT_255_2_778
10
34.2797066
20
4.9773862
40
0.151222
50
174.5797935
51
179.491492
0
ARC
8
DEFAULT_255_2_778
10
34.1520034
20
4.9765936
40
0.0236094
50
174.8125325
51
202.8222545
0
ARC
8
DEFAULT_255_2_778
10
32.6936704
20
5.4004196
40
1.5004043
50
273.5598339
51
343.2271625
0
ARC
8
DEFAULT_255_2_778
10
32.6937073
20
5.4099209
40
1.509885
50
270.0240904
51
273.53605
0
ARC
8
DEFAULT_255_2_778
10
32.7512049
20
5.3288716
40
1.5108406
50
270.1493124
51
306.3188095
0
ARC
8
DEFAULT_255_2_778
10
32.7433296
20
5.3263046
40
1.5134571
50
306.6165915
51
342.7156856
0
ARC
8
DEFAULT_255_2_778
10
13.8444492
20
127.2556151
40
13.1948992
50
171.4895034
51
175.076233
0
ARC
8
DEFAULT_255_2_778
10
14.9072733
20
127.082131
40
14.2717014
50
168.4726092
51
171.4321508
0
ARC
8
DEFAULT_255_2_778
10
0.5884778
20
130.7222209
40
0.4943805
50
348.331869
51
354.2044981
0
ARC
8
DEFAULT_255_2_778
10
1.0057517
20
130.6777807
40
0.0747809
50
355.7964503
51
359.7082611
0
ARC
8
DEFAULT_255_2_778
10
1.0662923
20
130.678587
40
0.0142888
50
355.2344309
51
21.9844117
0
ARC
8
DEFAULT_255_2_778
10
2.5169518
20
130.2594856
40
1.4987677
50
121.101569
51
163.5487382
0
ARC
8
DEFAULT_255_2_778
10
2.5171246
20
130.2615255
40
1.4971107
50
89.9840196
51
121.1475593
0
ARC
8
DEFAULT_255_2_778
10
32.6713057
20
130.259781
40
1.4988551
50
47.5563659
51
90.0024279
0
ARC
8
DEFAULT_255_2_778
10
32.6731277
20
130.2599746
40
1.4974831
50
16.4462703
51
47.6028112
0
ARC
8
DEFAULT_255_2_778
10
34.1232839
20
130.6781942
40
0.0150778
50
157.6157758
51
184.9625802
0
ARC
8
DEFAULT_255_2_778
10
34.3615396
20
130.688882
40
0.2535608
50
182.7108006
51
191.0935495
0
ARC
8
DEFAULT_255_2_778
10
35.133996
20
130.8158501
40
1.036292
50
189.7646153
51
190.8243294
0
ARC
8
DEFAULT_255_2_778
10
38.3188081
20
131.4526037
40
4.284107
50
191.1897322
51
192.6743322
0
ARC
8
DEFAULT_255_2_778
10
46.5604492
20
133.2678996
40
12.7232706
50
192.5066812
51
192.7221622
0
ARC
8
DEFAULT_255_2_778
10
21.3161211
20
127.2528118
40
13.2235743
50
4.9265594
51
8.4971767
0
ARC
8
DEFAULT_255_2_778
10
23.0605812
20
127.4040686
40
9.9731615
50
359.9820037
51
4.9235878
0
ARC
8
DEFAULT_255_2_778
10
23.0328848
20
127.4029757
40
11.5002575
50
359.9898386
51
4.9157206
0
LINE
8
DEFAULT_255_2_778
10
32.7813422
20
3.8180361
11
32.8654422
21
3.8180361
0
LINE
8
DEFAULT_255_2_778
10
32.8654422
20
3.8180361
11
33.0567422
21
3.8180361
0
LINE
8
DEFAULT_255_2_778
10
34.4942422
20
4.8893361
11
34.2844422
21
4.8811361
0
LINE
8
DEFAULT_255_2_778
10
34.2844422
20
4.8811361
11
34.2154422
21
4.8782361
0
LINE
8
DEFAULT_255_2_778
10
34.7308422
20
8.3178361
11
34.7308422
21
127.4007361
0
LINE
8
DEFAULT_255_2_778
10
34.2154422
20
130.8403361
11
34.3561422
21
130.8347361
0
LINE
8
DEFAULT_255_2_778
10
34.3561422
20
130.8347361
11
34.4381422
21
130.8315361
0
LINE
8
DEFAULT_255_2_778
10
33.0012422
20
131.9007361
11
32.9123422
21
131.9007361
0
LINE
8
DEFAULT_255_2_778
10
32.9123422
20
131.9007361
11
32.7813422
21
131.9007361
0
LINE
8
DEFAULT_255_2_778
10
32.7813422
20
131.9007361
11
2.4079422
21
131.9007361
0
LINE
8
DEFAULT_255_2_778
10
2.4079422
20
131.9007361
11
2.3238422
21
131.9007361
0
LINE
8
DEFAULT_255_2_778
10
2.3238422
20
131.9007361
11
2.1881422
21
131.9007361
0
LINE
8
DEFAULT_255_2_778
10
34.9948422
20
8.3178361
11
34.9948422
21
102.0422361
0
LINE
8
DEFAULT_255_2_778
10
34.9948422
20
102.0422361
11
34.9416422
21
108.1422361
0
LINE
8
DEFAULT_255_2_778
10
34.9416422
20
108.1422361
11
34.9416422
21
127.4007361
0
LINE
8
DEFAULT_255_2_778
10
5.9944422
20
95.7319361
11
5.9944422
21
95.8007361
0
LINE
8
DEFAULT_255_2_778
10
4.7945422
20
95.8007361
11
4.7945422
21
95.7319361
0
LINE
8
DEFAULT_255_2_778
10
3.7944422
20
95.7319361
11
3.7944422
21
95.8007361
0
LINE
8
DEFAULT_255_2_778
10
2.2558422
20
95.7319361
11
2.1891422
21
95.8007361
0
LINE
8
DEFAULT_255_2_778
10
0.7580422
20
95.8007361
11
0.7580422
21
95.7319361
0
LINE
8
DEFAULT_255_2_778
10
33.0522422
20
92.0589361
11
33.0522422
21
90.6590361
0
LINE
8
DEFAULT_255_2_778
10
33.5804422
20
87.0591361
11
33.5804422
21
87.1591361
0
LINE
8
DEFAULT_255_2_778
10
33.5804422
20
90.6590361
11
33.5804422
21
92.0589361
0
LINE
8
DEFAULT_255_2_778
10
32.9327422
20
92.0589361
11
32.9327422
21
90.6590361
0
LINE
8
DEFAULT_255_2_778
10
31.7185422
20
87.0591361
11
31.7185422
21
87.1591361
0
LINE
8
DEFAULT_255_2_778
10
31.7185422
20
90.6590361
11
31.7185422
21
92.0589361
0
LINE
8
DEFAULT_255_2_778
10
34.4305422
20
87.0589361
11
34.4305422
21
87.1589361
0
LINE
8
DEFAULT_255_2_778
10
34.4305422
20
90.6588361
11
34.4305422
21
92.0587361
0
LINE
8
DEFAULT_255_2_778
10
33.5804422
20
20.8588361
11
33.5804422
21
83.1388361
0
LINE
8
DEFAULT_255_2_778
10
33.7804422
20
83.1388361
11
33.7804422
21
20.8588361
0
LINE
8
DEFAULT_255_2_778
10
34.4305422
20
20.8588361
11
34.4305422
21
83.1388361
0
LINE
8
DEFAULT_255_2_778
10
30.6186422
20
89.5388361
11
30.4186422
21
89.5388361
0
LINE
8
DEFAULT_255_2_778
10
30.4186422
20
90.6588361
11
30.6186422
21
90.6588361
0
LINE
8
DEFAULT_255_2_778
10
30.6186422
20
89.3388361
11
30.4186422
21
89.3388361
0
LINE
8
DEFAULT_255_2_778
10
32.9993422
20
95.8007361
11
32.9329422
21
95.7319361
0
LINE
8
DEFAULT_255_2_778
10
33.3687422
20
87.0589361
11
33.3687422
21
87.1589361
0
LINE
8
DEFAULT_255_2_778
10
31.8688422
20
87.1589361
11
31.8688422
21
87.0589361
0
LINE
8
DEFAULT_255_2_778
10
30.6189422
20
87.0589361
11
30.6189422
21
87.1589361
0
LINE
8
DEFAULT_255_2_778
10
33.7806422
20
92.0589361
11
33.7806422
21
90.6590361
0
LINE
8
DEFAULT_255_2_778
10
33.7806422
20
87.1591361
11
33.7806422
21
87.0591361
0
LINE
8
DEFAULT_255_2_778
10
34.5334422
20
95.8010361
11
34.7046422
21
95.8010361
0
LINE
8
DEFAULT_255_2_778
10
34.7046422
20
95.8010361
11
34.7046422
21
127.4007361
0
LINE
8
DEFAULT_255_2_778
10
34.7046422
20
127.4007361
11
34.5334422
21
127.4007361
0
LINE
8
DEFAULT_255_2_778
10
34.5334422
20
127.4007361
11
34.5334422
21
95.8007361
0
LINE
8
DEFAULT_255_2_778
10
34.5334422
20
95.8007361
11
33.0340422
21
95.8007361
0
LINE
8
DEFAULT_255_2_778
10
33.0340422
20
95.8007361
11
33.0340422
21
127.4007361
0
LINE
8
DEFAULT_255_2_778
10
34.7265422
20
127.4007361
11
34.7265422
21
95.8007361
0
LINE
8
DEFAULT_255_2_778
10
34.7265422
20
95.8007361
11
34.7048422
21
95.8007361
0
LINE
8
DEFAULT_255_2_778
10
11.7946422
20
95.8007361
11
11.7946422
21
95.7319361
0
LINE
8
DEFAULT_255_2_778
10
13.9948422
20
95.8007361
11
13.9948422
21
95.7319361
0
LINE
8
DEFAULT_255_2_778
10
12.9947422
20
95.7319361
11
12.9947422
21
95.8007361
0
LINE
8
DEFAULT_255_2_778
10
34.2423422
20
94.8318361
11
34.2423422
21
95.7316361
0
LINE
8
DEFAULT_255_2_778
10
34.2423422
20
95.7316361
11
34.2336422
21
95.7316361
0
LINE
8
DEFAULT_255_2_778
10
34.5659422
20
87.1586361
11
34.5659422
21
90.6585361
0
LINE
8
DEFAULT_255_2_778
10
33.0340422
20
90.6585361
11
31.6190422
21
90.6585361
0
LINE
8
DEFAULT_255_2_778
10
31.6190422
20
90.6585361
11
31.6190422
21
87.1586361
0
LINE
8
DEFAULT_255_2_778
10
31.6190422
20
87.1586361
11
33.0340422
21
87.1586361
0
LINE
8
DEFAULT_255_2_778
10
31.6190422
20
87.1586361
11
30.6189422
21
87.1586361
0
LINE
8
DEFAULT_255_2_778
10
30.6189422
20
87.1586361
11
30.6189422
21
90.6585361
0
LINE
8
DEFAULT_255_2_778
10
30.6189422
20
90.6585361
11
31.6190422
21
90.6585361
0
LINE
8
DEFAULT_255_2_778
10
34.5336422
20
87.1586361
11
34.5336422
21
90.6585361
0
LINE
8
DEFAULT_255_2_778
10
34.5336422
20
90.6585361
11
33.0343422
21
90.6585361
0
LINE
8
DEFAULT_255_2_778
10
33.0343422
20
90.6585361
11
33.0343422
21
87.1586361
0
LINE
8
DEFAULT_255_2_778
10
33.0343422
20
87.1586361
11
34.5662422
21
87.1586361
0
LINE
8
DEFAULT_255_2_778
10
34.5662422
20
87.1586361
11
34.5662422
21
90.6585361
0
LINE
8
DEFAULT_255_2_778
10
34.5662422
20
90.6585361
11
34.5339422
21
90.6585361
0
LINE
8
DEFAULT_255_2_778
10
33.0345422
20
86.0585361
11
33.4695422
21
86.0585361
0
LINE
8
DEFAULT_255_2_778
10
33.4695422
20
86.0585361
11
33.4695422
21
84.1384361
0
LINE
8
DEFAULT_255_2_778
10
33.4695422
20
84.1384361
11
33.0345422
21
84.1384361
0
LINE
8
DEFAULT_255_2_778
10
34.5339422
20
87.0583361
11
34.5416422
21
87.0583361
0
LINE
8
DEFAULT_255_2_778
10
34.5416422
20
87.0583361
11
34.5429422
21
83.1383361
0
LINE
8
DEFAULT_255_2_778
10
34.5429422
20
83.1383361
11
34.5339422
21
83.1383361
0
LINE
8
DEFAULT_255_2_778
10
2.6241422
20
3.8180361
11
14.9947422
21
3.8180361
0
LINE
8
DEFAULT_255_2_778
10
2.4079422
20
3.8180361
11
2.2907422
21
3.8180361
0
LINE
8
DEFAULT_255_2_778
10
2.2907422
20
3.8180361
11
2.1322422
21
3.8180361
0
LINE
8
DEFAULT_255_2_778
10
0.1947422
20
8.3181361
11
0.1947422
21
16.8181361
0
LINE
8
DEFAULT_255_2_778
10
0.1947422
20
16.8181361
11
0.2122422
21
18.8181361
0
LINE
8
DEFAULT_255_2_778
10
0.2122422
20
18.8181361
11
0.2820422
21
18.8181361
0
LINE
8
DEFAULT_255_2_778
10
0.3082422
20
21.8182361
11
0.3082422
21
21.8182361
0
LINE
8
DEFAULT_255_2_778
10
0.3082422
20
21.8182361
11
0.3082422
21
113.9008361
0
LINE
8
DEFAULT_255_2_778
10
0.3082422
20
113.9008361
11
0.2820422
21
116.9007361
0
LINE
8
DEFAULT_255_2_778
10
0.2820422
20
116.9007361
11
0.2820422
21
116.9007361
0
LINE
8
DEFAULT_255_2_778
10
0.2820422
20
116.9007361
11
0.2653422
21
116.9007361
0
LINE
8
DEFAULT_255_2_778
10
0.2653422
20
116.9007361
11
0.2653422
21
116.9007361
0
LINE
8
DEFAULT_255_2_778
10
0.2479422
20
118.9007361
11
0.2479422
21
127.4007361
0
LINE
8
DEFAULT_255_2_778
10
34.7308422
20
8.3181361
11
34.9946422
21
8.3181361
0
LINE
8
DEFAULT_255_2_778
10
0.4585422
20
127.4007361
11
0.2479422
21
127.4007361
0
LINE
8
DEFAULT_255_2_778
10
0.7511422
20
130.8315361
11
0.8908422
21
130.8371361
0
LINE
8
DEFAULT_255_2_778
10
0.8908422
20
130.8371361
11
0.9739422
21
130.8405361
0
LINE
8
DEFAULT_255_2_778
10
0.4585422
20
127.4009361
11
0.4585422
21
8.3183361
0
LINE
8
DEFAULT_255_2_778
10
34.7308422
20
127.4007361
11
34.9414422
21
127.4007361
0
LINE
8
DEFAULT_255_2_778
10
2.6241422
20
4.1181361
11
2.6241422
21
3.8180361
0
LINE
8
DEFAULT_255_2_778
10
2.6241422
20
3.8180361
11
2.4079422
21
3.8180361
0
LINE
8
DEFAULT_255_2_778
10
0.4585422
20
8.3181361
11
0.1947422
21
8.3181361
0
LINE
8
DEFAULT_255_2_778
10
0.6950422
20
4.8896361
11
0.7225422
21
4.8885361
0
LINE
8
DEFAULT_255_2_778
10
0.7225422
20
4.8885361
11
0.8331422
21
4.8843361
0
LINE
8
DEFAULT_255_2_778
10
0.8331422
20
4.8843361
11
0.9739422
21
4.8787361
0
LINE
8
DEFAULT_255_2_778
10
2.6241422
20
5.1423361
11
2.6241422
21
4.1183361
0
LINE
8
DEFAULT_255_2_778
10
2.6241422
20
4.1183361
11
2.4085422
21
4.1183361
0
LINE
8
DEFAULT_255_2_778
10
34.4310422
20
94.8320361
11
34.4310422
21
95.8010361
0
LINE
8
DEFAULT_255_2_778
10
34.4569422
20
5.8180361
11
34.4347422
21
5.8180361
0
LINE
8
DEFAULT_255_2_778
10
32.7609422
20
131.8787361
11
32.6715422
21
131.7584361
0
LINE
8
DEFAULT_255_2_778
10
32.6993422
20
131.4641361
11
32.7406422
21
131.1339361
0
LINE
8
DEFAULT_255_2_778
10
32.7406422
20
131.1339361
11
32.7930422
21
130.6998361
0
LINE
8
DEFAULT_255_2_778
10
32.7930422
20
130.6998361
11
32.8509422
21
130.1727361
0
LINE
8
DEFAULT_255_2_778
10
32.8509422
20
130.1727361
11
32.9075422
21
129.5779361
0
LINE
8
DEFAULT_255_2_778
10
32.9075422
20
129.5779361
11
32.9578422
21
128.9308361
0
LINE
8
DEFAULT_255_2_778
10
32.9578422
20
128.9308361
11
32.9972422
21
128.2598361
0
LINE
8
DEFAULT_255_2_778
10
32.9972422
20
128.2598361
11
2.1923422
21
128.2598361
0
LINE
8
DEFAULT_255_2_778
10
2.1923422
20
128.2598361
11
1.9055422
21
128.2844361
0
LINE
8
DEFAULT_255_2_778
10
1.9055422
20
128.2844361
11
1.6293422
21
128.3082361
0
LINE
8
DEFAULT_255_2_778
10
1.6293422
20
128.3082361
11
1.3742422
21
128.3301361
0
LINE
8
DEFAULT_255_2_778
10
1.3742422
20
128.3301361
11
1.1493422
21
128.3495361
0
LINE
8
DEFAULT_255_2_778
10
1.1493422
20
128.3495361
11
0.9633422
21
128.3653361
0
LINE
8
DEFAULT_255_2_778
10
0.9633422
20
128.3653361
11
0.8231422
21
128.3775361
0
LINE
8
DEFAULT_255_2_778
10
0.8231422
20
128.3775361
11
0.7337422
21
128.3852361
0
LINE
8
DEFAULT_255_2_778
10
0.7337422
20
128.3852361
11
0.6985422
21
128.3881361
0
LINE
8
DEFAULT_255_2_778
10
0.6561422
20
127.4007361
11
2.1555422
21
127.4007361
0
LINE
8
DEFAULT_255_2_778
10
2.1555422
20
127.4007361
11
2.1555422
21
95.8007361
0
LINE
8
DEFAULT_255_2_778
10
2.1555422
20
95.8007361
11
0.6559422
21
95.8007361
0
LINE
8
DEFAULT_255_2_778
10
0.6559422
20
95.8007361
11
0.6559422
21
127.4007361
0
LINE
8
DEFAULT_255_2_778
10
0.6559422
20
127.4007361
11
0.4847422
21
127.4007361
0
LINE
8
DEFAULT_255_2_778
10
0.9940422
20
130.8164361
11
0.9787422
21
130.8405361
0
LINE
8
DEFAULT_255_2_778
10
2.4127422
20
131.9007361
11
2.4288422
21
131.8790361
0
LINE
8
DEFAULT_255_2_778
10
2.4288422
20
131.8790361
11
2.5180422
21
131.7586361
0
LINE
8
DEFAULT_255_2_778
10
2.4905422
20
131.4652361
11
2.4495422
21
131.1371361
0
LINE
8
DEFAULT_255_2_778
10
2.4495422
20
131.1371361
11
2.3968422
21
130.7008361
0
LINE
8
DEFAULT_255_2_778
10
2.3968422
20
130.7008361
11
2.3391422
21
130.1764361
0
LINE
8
DEFAULT_255_2_778
10
2.3391422
20
130.1764361
11
2.2823422
21
129.5800361
0
LINE
8
DEFAULT_255_2_778
10
2.2823422
20
129.5800361
11
2.2320422
21
128.9339361
0
LINE
8
DEFAULT_255_2_778
10
2.2320422
20
128.9339361
11
2.1923422
21
128.2592361
0
LINE
8
DEFAULT_255_2_778
10
32.7607422
20
131.8787361
11
32.7768422
21
131.9004361
0
LINE
8
DEFAULT_255_2_778
10
34.2109422
20
130.8403361
11
34.1955422
21
130.8162361
0
LINE
8
DEFAULT_255_2_778
10
0.5633422
20
95.7319361
11
0.8633422
21
95.7319361
0
LINE
8
DEFAULT_255_2_778
10
14.9947422
20
3.9000361
11
14.9947422
21
3.8180361
0
LINE
8
DEFAULT_255_2_778
10
14.9947422
20
3.8180361
11
32.7535422
21
3.8180361
0
LINE
8
DEFAULT_255_2_778
10
2.2508422
20
3.9014361
11
2.2674422
21
3.9172361
0
LINE
8
DEFAULT_255_2_778
10
0.9559422
20
95.7319361
11
0.8636422
21
95.7319361
0
LINE
8
DEFAULT_255_2_778
10
0.8636422
20
95.7319361
11
0.8636422
21
94.8320361
0
LINE
8
DEFAULT_255_2_778
10
0.5500422
20
8.3181361
11
0.5500422
21
95.7319361
0
LINE
8
DEFAULT_255_2_778
10
0.5500422
20
95.7319361
11
0.5633422
21
95.7319361
0
LINE
8
DEFAULT_255_2_778
10
0.5633422
20
95.7319361
11
0.5633422
21
94.8320361
0
LINE
8
DEFAULT_255_2_778
10
0.5633422
20
94.8320361
11
0.6559422
21
94.8320361
0
LINE
8
DEFAULT_255_2_778
10
34.6117422
20
11.6391361
11
34.6130422
21
11.3182361
0
LINE
8
DEFAULT_255_2_778
10
34.6130422
20
11.3182361
11
34.6130422
21
8.3181361
0
LINE
8
DEFAULT_255_2_778
10
34.5334422
20
94.8318361
11
34.5424422
21
94.8318361
0
LINE
8
DEFAULT_255_2_778
10
34.5424422
20
94.8318361
11
34.5424422
21
92.0587361
0
LINE
8
DEFAULT_255_2_778
10
34.5424422
20
92.0587361
11
34.5334422
21
92.0587361
0
LINE
8
DEFAULT_255_2_778
10
0.6559422
20
95.8007361
11
0.4847422
21
95.8007361
0
LINE
8
DEFAULT_255_2_778
10
0.4847422
20
95.8007361
11
0.4847422
21
127.4007361
0
LINE
8
DEFAULT_255_2_778
10
0.4847422
20
127.4007361
11
0.4627422
21
127.4007361
0
LINE
8
DEFAULT_255_2_778
10
0.4627422
20
127.4007361
11
0.4627422
21
95.8007361
0
LINE
8
DEFAULT_255_2_778
10
0.4627422
20
95.8007361
11
0.4847422
21
95.8007361
0
LINE
8
DEFAULT_255_2_778
10
1.0797422
20
130.6839361
11
1.0236422
21
130.7707361
0
LINE
8
DEFAULT_255_2_778
10
1.0236422
20
130.7707361
11
0.9940422
21
130.8167361
0
LINE
8
DEFAULT_255_2_778
10
2.4288422
20
131.8787361
11
32.7609422
21
131.8787361
0
LINE
8
DEFAULT_255_2_778
10
34.7051422
20
127.4007361
11
34.7271422
21
127.4007361
0
LINE
8
DEFAULT_255_2_778
10
34.1958422
20
130.8167361
11
34.1399422
21
130.7299361
0
LINE
8
DEFAULT_255_2_778
10
34.1399422
20
130.7299361
11
34.1100422
21
130.6839361
0
LINE
8
DEFAULT_255_2_778
10
33.0343422
20
11.6388361
11
34.5336422
21
11.6388361
0
LINE
8
DEFAULT_255_2_778
10
34.5336422
20
11.6388361
11
34.5336422
21
8.8983361
0
LINE
8
DEFAULT_255_2_778
10
0.6561422
20
8.8983361
11
0.6561422
21
8.8983361
0
LINE
8
DEFAULT_255_2_778
10
0.6561422
20
8.8983361
11
0.6548422
21
8.3178361
0
LINE
8
DEFAULT_255_2_778
10
0.6548422
20
8.3178361
11
0.5503422
21
8.3181361
0
LINE
8
DEFAULT_255_2_778
10
1.0482422
20
4.9491361
11
1.0599422
21
4.9674361
0
LINE
8
DEFAULT_255_2_778
10
0.9559422
20
94.8318361
11
0.9559422
21
95.7316361
0
LINE
8
DEFAULT_255_2_778
10
0.9559422
20
95.7316361
11
2.1555422
21
95.7316361
0
LINE
8
DEFAULT_255_2_778
10
2.1555422
20
95.7316361
11
2.1555422
21
94.8318361
0
LINE
8
DEFAULT_255_2_778
10
2.1555422
20
94.8318361
11
0.6559422
21
94.8318361
0
LINE
8
DEFAULT_255_2_778
10
0.6559422
20
94.8318361
11
0.6559422
21
8.8983361
0
LINE
8
DEFAULT_255_2_778
10
0.6559422
20
8.8983361
11
2.1553422
21
8.8983361
0
LINE
8
DEFAULT_255_2_778
10
2.1553422
20
8.8983361
11
2.1553422
21
8.8983361
0
LINE
8
DEFAULT_255_2_778
10
2.1553422
20
8.8983361
11
2.1539422
21
8.0691361
0
LINE
8
DEFAULT_255_2_778
10
2.3500422
20
5.1386361
11
2.3471422
21
5.0409361
0
LINE
8
DEFAULT_255_2_778
10
2.3471422
20
5.0444361
11
2.3294422
21
4.5731361
0
LINE
8
DEFAULT_255_2_778
10
2.3294422
20
4.5731361
11
2.3098422
21
4.2236361
0
LINE
8
DEFAULT_255_2_778
10
1.0072422
20
5.2698361
11
0.9374422
21
5.5997361
0
LINE
8
DEFAULT_255_2_778
10
0.9374422
20
5.5997361
11
0.8562422
21
6.0236361
0
LINE
8
DEFAULT_255_2_778
10
2.2746422
20
5.6712361
11
2.3471422
21
5.0444361
0
LINE
8
DEFAULT_255_2_778
10
2.3471422
20
5.0444361
11
2.3471422
21
5.0444361
0
LINE
8
DEFAULT_255_2_778
10
33.0340422
20
92.0589361
11
34.5334422
21
92.0589361
0
LINE
8
DEFAULT_255_2_778
10
34.5334422
20
92.0589361
11
34.5334422
21
94.8318361
0
LINE
8
DEFAULT_255_2_778
10
34.5334422
20
94.8318361
11
33.0340422
21
94.8318361
0
LINE
8
DEFAULT_255_2_778
10
33.0340422
20
94.8318361
11
33.0340422
21
95.7319361
0
LINE
8
DEFAULT_255_2_778
10
33.0340422
20
95.7319361
11
2.1555422
21
95.7319361
0
LINE
8
DEFAULT_255_2_778
10
2.1555422
20
95.7319361
11
2.1555422
21
95.8007361
0
LINE
8
DEFAULT_255_2_778
10
2.1555422
20
95.8007361
11
33.0340422
21
95.8007361
0
LINE
8
DEFAULT_255_2_778
10
33.0340422
20
95.8007361
11
33.0353422
21
95.7319361
0
LINE
8
DEFAULT_255_2_778
10
33.0353422
20
95.7319361
11
34.2336422
21
95.7319361
0
LINE
8
DEFAULT_255_2_778
10
34.2336422
20
95.7319361
11
34.2336422
21
94.8320361
0
LINE
8
DEFAULT_255_2_778
10
33.0353422
20
8.0694361
11
33.0340422
21
8.8986361
0
LINE
8
DEFAULT_255_2_778
10
33.0340422
20
8.8986361
11
34.5334422
21
8.8986361
0
LINE
8
DEFAULT_255_2_778
10
34.5334422
20
8.8986361
11
34.5347422
21
8.3181361
0
LINE
8
DEFAULT_255_2_778
10
34.5347422
20
8.3181361
11
34.6130422
21
8.3183361
0
LINE
8
DEFAULT_255_2_778
10
34.3543422
20
5.8185361
11
34.3812422
21
5.8185361
0
LINE
8
DEFAULT_255_2_778
10
34.3812422
20
5.8185361
11
34.4323422
21
5.8185361
0
LINE
8
DEFAULT_255_2_778
10
34.4323422
20
5.8185361
11
34.4347422
21
5.8185361
0
LINE
8
DEFAULT_255_2_778
10
34.1878422
20
4.8779361
11
34.2109422
21
4.8787361
0
LINE
8
DEFAULT_255_2_778
10
2.3503422
20
5.1420361
11
14.9947422
21
5.1420361
0
LINE
8
DEFAULT_255_2_778
10
14.9947422
20
5.1420361
11
14.9947422
21
3.9000361
0
LINE
8
DEFAULT_255_2_778
10
14.9947422
20
3.9000361
11
32.6937422
21
3.9000361
0
LINE
8
DEFAULT_255_2_778
10
32.7300422
20
4.2387361
11
32.7848422
21
4.6179361
0
LINE
8
DEFAULT_255_2_778
10
32.7848422
20
4.6179361
11
32.8525422
21
5.1243361
0
LINE
8
DEFAULT_255_2_778
10
32.8525422
20
5.1243361
11
32.9218422
21
5.7394361
0
LINE
8
DEFAULT_255_2_778
10
32.9218422
20
5.7394361
11
32.9821422
21
6.4514361
0
LINE
8
DEFAULT_255_2_778
10
34.3339422
20
6.0239361
11
34.2524422
21
5.5984361
0
LINE
8
DEFAULT_255_2_778
10
34.2524422
20
5.5984361
11
34.1828422
21
5.2698361
0
LINE
8
DEFAULT_255_2_778
10
34.1828422
20
5.2698361
11
34.1384422
21
5.0536361
0
LINE
8
DEFAULT_255_2_778
10
32.6943422
20
3.9000361
11
32.7551422
21
3.8180361
0
LINE
8
DEFAULT_255_2_778
10
34.1884422
20
4.8766361
11
34.1302422
21
4.9674361
0
LINE
8
DEFAULT_255_2_778
10
0.9234422
20
129.9341361
11
0.9869422
21
130.2325361
0
LINE
8
DEFAULT_255_2_778
10
0.9869422
20
130.2325361
11
1.0392422
21
130.4667361
0
LINE
8
DEFAULT_255_2_778
10
1.0392422
20
130.4667361
11
1.0726422
21
130.6222361
0
LINE
8
DEFAULT_255_2_778
10
2.5175422
20
131.7586361
11
32.6712422
21
131.7586361
0
LINE
8
DEFAULT_255_2_778
10
34.1495422
20
130.4659361
11
34.2024422
21
130.2301361
0
LINE
8
DEFAULT_255_2_778
10
34.2024422
20
130.2301361
11
34.2656422
21
129.9330361
0
LINE
8
DEFAULT_255_2_778
10
34.2656422
20
129.9330361
11
34.3320422
21
129.5864361
0
LINE
8
DEFAULT_255_2_778
10
34.3320422
20
129.5864361
11
34.3945422
21
129.2067361
0
LINE
8
DEFAULT_255_2_778
10
34.4908422
20
128.3884361
11
34.4556422
21
128.3854361
0
LINE
8
DEFAULT_255_2_778
10
34.4556422
20
128.3854361
11
34.3662422
21
128.3778361
0
LINE
8
DEFAULT_255_2_778
10
34.3662422
20
128.3778361
11
34.2259422
21
128.3656361
0
LINE
8
DEFAULT_255_2_778
10
34.2259422
20
128.3656361
11
34.0399422
21
128.3497361
0
LINE
8
DEFAULT_255_2_778
10
34.0399422
20
128.3497361
11
33.8150422
21
128.3304361
0
LINE
8
DEFAULT_255_2_778
10
33.8150422
20
128.3304361
11
33.5600422
21
128.3085361
0
LINE
8
DEFAULT_255_2_778
10
33.5600422
20
128.3085361
11
33.2838422
21
128.2846361
0
LINE
8
DEFAULT_255_2_778
10
33.2838422
20
128.2846361
11
32.9969422
21
128.2600361
0
LINE
8
DEFAULT_255_2_778
10
33.0337422
20
127.4009361
11
34.5331422
21
127.4009361
0
LINE
8
DEFAULT_255_2_778
10
33.0337422
20
87.0591361
11
34.5331422
21
87.0591361
0
LINE
8
DEFAULT_255_2_778
10
34.5331422
20
87.0591361
11
34.5331422
21
83.1391361
0
LINE
8
DEFAULT_255_2_778
10
34.5331422
20
83.1391361
11
33.4687422
21
83.1391361
0
LINE
8
DEFAULT_255_2_778
10
33.4687422
20
83.1391361
11
33.4687422
21
20.8590361
0
LINE
8
DEFAULT_255_2_778
10
33.4687422
20
20.8590361
11
34.5331422
21
20.8590361
0
LINE
8
DEFAULT_255_2_778
10
34.5331422
20
20.8590361
11
34.5331422
21
13.1390361
0
LINE
8
DEFAULT_255_2_778
10
34.5331422
20
13.1390361
11
33.0337422
21
13.1390361
0
LINE
8
DEFAULT_255_2_778
10
33.0337422
20
13.1390361
11
33.0337422
21
17.7391361
0
LINE
8
DEFAULT_255_2_778
10
33.0337422
20
17.7391361
11
31.7688422
21
17.7391361
0
LINE
8
DEFAULT_255_2_778
10
31.7688422
20
17.7391361
11
31.7688422
21
19.8592361
0
LINE
8
DEFAULT_255_2_778
10
31.7688422
20
19.8592361
11
33.0337422
21
19.8592361
0
LINE
8
DEFAULT_255_2_778
10
33.0337422
20
19.8592361
11
33.0337422
21
84.1389361
0
LINE
8
DEFAULT_255_2_778
10
33.0337422
20
84.1389361
11
31.7688422
21
84.1389361
0
LINE
8
DEFAULT_255_2_778
10
31.7688422
20
84.1389361
11
31.7688422
21
86.0590361
0
LINE
8
DEFAULT_255_2_778
10
31.7688422
20
86.0590361
11
33.0337422
21
86.0590361
0
LINE
8
DEFAULT_255_2_778
10
33.0337422
20
86.0590361
11
33.0337422
21
87.0591361
0
LINE
8
DEFAULT_255_2_778
10
33.0337422
20
87.0591361
11
30.4186422
21
87.0591361
0
LINE
8
DEFAULT_255_2_778
10
30.4186422
20
87.0591361
11
30.4186422
21
92.0589361
0
LINE
8
DEFAULT_255_2_778
10
30.4186422
20
92.0589361
11
33.0337422
21
92.0589361
0
LINE
8
DEFAULT_255_2_778
10
33.0337422
20
92.0589361
11
33.0337422
21
94.8318361
0
LINE
8
DEFAULT_255_2_778
10
33.0337422
20
94.8318361
11
2.1555422
21
94.8318361
0
LINE
8
DEFAULT_255_2_778
10
2.1555422
20
94.8318361
11
2.1555422
21
8.8983361
0
LINE
8
DEFAULT_255_2_778
10
2.1555422
20
8.8983361
11
33.0340422
21
8.8983361
0
LINE
8
DEFAULT_255_2_778
10
33.0340422
20
8.8983361
11
33.0340422
21
11.6388361
0
LINE
8
DEFAULT_255_2_778
10
33.0340422
20
11.6388361
11
30.4188422
21
11.6388361
0
LINE
8
DEFAULT_255_2_778
10
30.4188422
20
11.6388361
11
30.4188422
21
16.6389361
0
LINE
8
DEFAULT_255_2_778
10
30.4188422
20
16.6389361
11
31.6187422
21
16.6389361
0
LINE
8
DEFAULT_255_2_778
10
31.6187422
20
16.6389361
11
31.6187422
21
13.1390361
0
LINE
8
DEFAULT_255_2_778
10
31.6187422
20
13.1390361
11
33.0337422
21
13.1390361
0
LINE
8
DEFAULT_255_2_778
10
34.5421422
20
83.1391361
11
34.5421422
21
84.1389361
0
LINE
8
DEFAULT_255_2_778
10
34.5416422
20
86.5591361
11
34.5411422
21
87.0591361
0
ARC
8
DEFAULT_255_2_778
10
6.899732
20
101.1773764
40
0.6882221
50
70.6313466
51
91.0764067
0
ARC
8
DEFAULT_255_2_778
10
6.9736206
20
101.4032963
40
0.4506138
50
48.2112649
51
69.9678105
0
ARC
8
DEFAULT_255_2_778
10
6.9861703
20
101.4224623
40
0.4279741
50
357.7120779
51
47.7540932
0
ARC
8
DEFAULT_255_2_778
10
6.9330516
20
101.3917341
40
0.4809452
50
332.6635747
51
1.6255259
0
ARC
8
DEFAULT_255_2_778
10
7.035523
20
101.3490477
40
0.3704279
50
310.6438742
51
331.2501854
0
ARC
8
DEFAULT_255_2_778
10
6.9679242
20
101.4435615
40
0.4862817
50
278.6477666
51
309.433738
0
ARC
8
DEFAULT_255_2_778
10
6.890451
20
101.8251597
40
0.8754016
50
269.623801
51
279.9055348
0
ARC
8
DEFAULT_255_2_778
10
6.8995424
20
101.5427521
40
0.4304636
50
268.3041425
51
292.79055
0
ARC
8
DEFAULT_255_2_778
10
6.9599273
20
101.3818167
40
0.2587879
50
294.2674687
51
311.2927777
0
ARC
8
DEFAULT_255_2_778
10
6.9475594
20
101.3827275
40
0.267775
50
313.1528306
51
1.6951732
0
ARC
8
DEFAULT_255_2_778
10
6.757078
20
101.4037122
40
0.4583254
50
358.3667185
51
0.0081139
0
ARC
8
DEFAULT_255_2_778
10
6.9334598
20
101.4167005
40
0.2822395
50
357.3755744
51
45.665074
0
ARC
8
DEFAULT_255_2_778
10
6.9144296
20
101.3780004
40
0.3234987
50
48.0450853
51
89.2456293
0
ARC
8
DEFAULT_255_2_778
10
6.8875854
20
101.1716716
40
0.5307117
50
86.640144
51
88.8536123
0
ARC
8
DEFAULT_255_2_778
10
8.0471592
20
101.5443478
40
0.3380668
50
268.6345417
51
301.4709081
0
ARC
8
DEFAULT_255_2_778
10
8.0885338
20
101.460498
40
0.2450974
50
303.4551653
51
311.8326675
0
ARC
8
DEFAULT_255_2_778
10
8.0916949
20
101.4540017
40
0.2381568
50
312.3084083
51
2.6173055
0
ARC
8
DEFAULT_255_2_778
10
8.013984
20
101.4775982
40
0.3158756
50
357.691931
51
27.2451078
0
ARC
8
DEFAULT_255_2_778
10
8.1086961
20
101.5090862
40
0.2177986
50
31.2903456
51
87.8088988
0
ARC
8
DEFAULT_255_2_778
10
8.0672703
20
101.2785608
40
0.450918
50
83.6652772
51
90.1609969
0
ARC
8
DEFAULT_255_2_778
10
8.0523497
20
101.455943
40
0.2738746
50
87.1424219
51
132.2788973
0
ARC
8
DEFAULT_255_2_778
10
8.042243
20
101.4817561
40
0.2481739
50
134.5622844
51
182.4893365
0
ARC
8
DEFAULT_255_2_778
10
7.9865146
20
101.4795618
40
0.3836074
50
131.2264419
51
181.2823247
0
ARC
8
DEFAULT_255_2_778
10
8.047738
20
101.4113513
40
0.475259
50
88.1769214
51
131.3582836
0
ARC
8
DEFAULT_255_2_778
10
8.0660011
20
101.2001325
40
0.6862445
50
89.9998178
51
90.2624565
0
ARC
8
DEFAULT_255_2_778
10
8.0791606
20
101.33014
40
0.5563926
50
67.3037387
51
91.3550352
0
ARC
8
DEFAULT_255_2_778
10
8.1395949
20
101.4934698
40
0.3824612
50
47.1083743
51
66.2152191
0
ARC
8
DEFAULT_255_2_778
10
8.1268845
20
101.4909903
40
0.3930026
50
0.9146776
51
45.9967116
0
ARC
8
DEFAULT_255_2_778
10
7.8949737
20
101.4607437
40
0.6259296
50
359.9664417
51
3.3448615
0
ARC
8
DEFAULT_255_2_778
10
8.189998
20
101.4651528
40
0.3309397
50
323.9027373
51
359.1731505
0
ARC
8
DEFAULT_255_2_778
10
8.1425205
20
101.4886184
40
0.3832333
50
291.7134392
51
325.2500778
0
ARC
8
DEFAULT_255_2_778
10
8.1832543
20
100.7773479
40
0.3693219
50
37.5391678
51
74.1209913
0
ARC
8
DEFAULT_255_2_778
10
8.1826714
20
100.7913981
40
0.3614061
50
358.2207726
51
35.7163215
0
ARC
8
DEFAULT_255_2_778
10
8.1207496
20
100.7643014
40
0.4234514
50
321.7237735
51
2.1485793
0
ARC
8
DEFAULT_255_2_778
10
8.1461598
20
100.7550247
40
0.3978469
50
311.8513296
51
320.5056252
0
ARC
8
DEFAULT_255_2_778
10
8.0957548
20
100.8224691
40
0.4817727
50
270.8897214
51
310.9648981
0
ARC
8
DEFAULT_255_2_778
10
8.0676818
20
101.0606256
40
0.7207486
50
269.9778575
51
272.8274987
0
ARC
8
DEFAULT_255_2_778
10
8.0535703
20
100.8954112
40
0.5557063
50
243.5438564
51
271.4263874
0
ARC
8
DEFAULT_255_2_778
10
8.0092487
20
100.7860684
40
0.4381619
50
229.1409947
51
242.3625098
0
ARC
8
DEFAULT_255_2_778
10
7.9706587
20
100.7439978
40
0.381101
50
177.9429795
51
229.3911443
0
ARC
8
DEFAULT_255_2_778
10
8.027893
20
100.7470271
40
0.2460203
50
177.5189564
51
226.8711362
0
ARC
8
DEFAULT_255_2_778
10
8.0524149
20
100.7898609
40
0.2942658
50
229.088703
51
272.9196059
0
ARC
8
DEFAULT_255_2_778
10
8.0805418
20
100.820464
40
0.3247528
50
267.6813446
51
299.519676
0
ARC
8
DEFAULT_255_2_778
10
8.1246145
20
100.7260184
40
0.2210033
50
301.6418872
51
314.4220589
0
ARC
8
DEFAULT_255_2_778
10
8.0848773
20
100.7514495
40
0.2671895
50
316.6914559
51
0.3477521
0
ARC
8
DEFAULT_255_2_778
10
7.8812962
20
100.7756563
40
0.4713071
50
357.2533225
51
0.0268337
0
ARC
8
DEFAULT_255_2_778
10
8.0998152
20
100.7917308
40
0.2532847
50
356.4113728
51
47.2012412
0
ARC
8
DEFAULT_255_2_778
10
8.0756897
20
100.734946
40
0.312041
50
51.0378415
51
85.8861729
0
ARC
8
DEFAULT_255_2_778
10
8.0334195
20
100.4712266
40
0.5785804
50
83.5838854
51
89.4173312
0
ARC
8
DEFAULT_255_2_778
10
8.9050546
20
100.9902617
40
1.4285026
50
350.734489
51
0.4979736
0
ARC
8
DEFAULT_255_2_778
10
9.6149606
20
100.8689414
40
0.7083461
50
333.78456
51
351.1741616
0
ARC
8
DEFAULT_255_2_778
10
9.848389
20
100.7625162
40
0.4519799
50
325.0163747
51
332.8162474
0
ARC
8
DEFAULT_255_2_778
10
9.9056843
20
100.7283186
40
0.3854602
50
273.0501832
51
324.2982416
0
ARC
8
DEFAULT_255_2_778
10
9.8613871
20
100.9922605
40
0.6520846
50
269.8959847
51
275.7037882
0
ARC
8
DEFAULT_255_2_778
10
9.8467654
20
100.83498
40
0.4949854
50
244.5658614
51
271.5556559
0
ARC
8
DEFAULT_255_2_778
10
9.7971544
20
100.710342
40
0.3612262
50
215.6169434
51
243.1816495
0
ARC
8
DEFAULT_255_2_778
10
9.9828734
20
100.8305637
40
0.5823085
50
192.2894895
51
214.5911981
0
ARC
8
DEFAULT_255_2_778
10
10.5579534
20
100.9688264
40
1.1737084
50
181.4491722
51
192.9088756
0
ARC
8
DEFAULT_255_2_778
10
11.0794646
20
100.9991499
40
1.6959063
50
180.7491255
51
182.0277372
0
ARC
8
DEFAULT_255_2_778
10
10.7717812
20
101.2448454
40
1.388134
50
170.5087647
51
180.5146432
0
ARC
8
DEFAULT_255_2_778
10
10.076813
20
101.3668423
40
0.6825864
50
152.8027525
51
170.9896481
0
ARC
8
DEFAULT_255_2_778
10
9.8580222
20
101.4701632
40
0.4408365
50
144.6405676
51
151.749678
0
ARC
8
DEFAULT_255_2_778
10
9.8095356
20
101.4980451
40
0.3851953
50
93.6852342
51
143.8491304
0
ARC
8
DEFAULT_255_2_778
10
9.8566398
20
101.2281554
40
0.6582232
50
89.8726092
51
96.2678622
0
ARC
8
DEFAULT_255_2_778
10
9.8713163
20
101.3699731
40
0.5165729
50
66.3349098
51
91.4656819
0
ARC
8
DEFAULT_255_2_778
10
9.9296757
20
101.5213302
40
0.3545942
50
36.2043243
51
65.1550684
0
ARC
8
DEFAULT_255_2_778
10
9.7678003
20
101.4163866
40
0.5473098
50
12.7086288
51
35.0596395
0
ARC
8
DEFAULT_255_2_778
10
9.1914861
20
101.2731871
40
1.1410812
50
1.9050919
51
13.3566808
0
ARC
8
DEFAULT_255_2_778
10
8.6106167
20
101.2362114
40
1.722949
50
0.4877039
51
2.4918721
0
ARC
8
DEFAULT_255_2_778
10
8.9689798
20
101.2763251
40
1.1732843
50
359.4165249
51
8.8801982
0
ARC
8
DEFAULT_255_2_778
10
9.6613111
20
101.3910758
40
0.4715826
50
8.090343
51
27.4746143
0
ARC
8
DEFAULT_255_2_778
10
9.8371816
20
101.4730892
40
0.2778365
50
29.2020418
51
31.5287257
0
ARC
8
DEFAULT_255_2_778
10
9.8740849
20
101.4952056
40
0.234816
50
31.6376039
51
93.9025932
0
ARC
8
DEFAULT_255_2_778
10
9.8419741
20
101.4981722
40
0.2318666
50
86.0111436
51
148.6288938
0
ARC
8
DEFAULT_255_2_778
10
10.0364722
20
101.3962615
40
0.451209
50
150.4373036
51
170.8727137
0
ARC
8
DEFAULT_255_2_778
10
10.6627061
20
101.2803593
40
1.0880039
50
170.0776966
51
180.0780568
0
ARC
8
DEFAULT_255_2_778
10
10.7173591
20
100.9608128
40
1.1427216
50
179.3850626
51
189.4522097
0
ARC
8
DEFAULT_255_2_778
10
10.0568123
20
100.844586
40
0.4720961
50
188.7032912
51
208.8374485
0
ARC
8
DEFAULT_255_2_778
10
9.8975331
20
100.7668057
40
0.2951812
50
210.5244054
51
211.4082925
0
ARC
8
DEFAULT_255_2_778
10
9.8483365
20
100.7311247
40
0.2346479
50
210.232513
51
272.8988331
0
ARC
8
DEFAULT_255_2_778
10
9.8736616
20
100.7276252
40
0.2312401
50
266.6634486
51
328.3471614
0
ARC
8
DEFAULT_255_2_778
10
9.6912214
20
100.8277917
40
0.4392306
50
329.7134965
51
350.5352521
0
ARC
8
DEFAULT_255_2_778
10
9.0446571
20
100.9518225
40
1.0975057
50
349.6988452
51
359.8043003
0
ARC
8
DEFAULT_255_2_778
10
8.4819292
20
100.9720999
40
1.660401
50
359.1708995
51
359.2917956
0
ARC
8
DEFAULT_255_2_778
10
11.1424185
20
101.4673205
40
0.348729
50
325.9927388
51
0.9129788
0
ARC
8
DEFAULT_255_2_778
10
11.0956385
20
101.5017598
40
0.406777
50
295.522287
51
325.6567939
0
ARC
8
DEFAULT_255_2_778
10
11.1074649
20
100.7368096
40
0.4301286
50
35.5311727
51
67.6678231
0
ARC
8
DEFAULT_255_2_778
10
11.1549129
20
100.7713889
40
0.3714202
50
359.2731298
51
35.4438127
0
ARC
8
DEFAULT_255_2_778
10
11.1330765
20
100.7497071
40
0.3935928
50
311.6214563
51
2.4711052
0
ARC
8
DEFAULT_255_2_778
10
11.0827378
20
100.8235443
40
0.48236
50
272.4395782
51
310.2657342
0
ARC
8
DEFAULT_255_2_778
10
11.0482989
20
101.0795993
40
0.7400224
50
269.9461428
51
274.2600189
0
ARC
8
DEFAULT_255_2_778
10
11.0341559
20
100.9103965
40
0.5709779
50
245.7941007
51
271.3495274
0
ARC
8
DEFAULT_255_2_778
10
10.9812469
20
100.7723525
40
0.4234596
50
228.3823066
51
244.6651406
0
ARC
8
DEFAULT_255_2_778
10
10.9639661
20
100.7496514
40
0.3950171
50
177.5732812
51
228.0692845
0
ARC
8
DEFAULT_255_2_778
10
10.9526998
20
100.7705896
40
0.3834197
50
145.7143725
51
180.6295017
0
ARC
8
DEFAULT_255_2_778
10
10.9772602
20
100.7515888
40
0.4144201
50
112.2406398
51
145.4566916
0
ARC
8
DEFAULT_255_2_778
10
10.9902119
20
101.4903881
40
0.3937129
50
213.5534734
51
244.4498626
0
ARC
8
DEFAULT_255_2_778
10
10.9586797
20
101.4670032
40
0.3545157
50
179.1476179
51
213.2205412
0
ARC
8
DEFAULT_255_2_778
10
11.002548
20
101.4883256
40
0.3986679
50
140.269463
51
182.3070814
0
ARC
8
DEFAULT_255_2_778
10
10.9787725
20
101.4976727
40
0.3744941
50
132.4097204
51
139.0441423
0
ARC
8
DEFAULT_255_2_778
10
11.0190376
20
101.4425838
40
0.4423868
50
91.0567208
51
131.4481433
0
ARC
8
DEFAULT_255_2_778
10
11.047273
20
101.2109062
40
0.674971
50
89.9719633
51
93.0908446
0
ARC
8
DEFAULT_255_2_778
10
11.0617045
20
101.3942335
40
0.4918458
50
60.673541
51
91.6429016
0
ARC
8
DEFAULT_255_2_778
10
11.0983988
20
101.4782529
40
0.4007263
50
47.6012072
51
59.3637567
0
ARC
8
DEFAULT_255_2_778
10
11.1035475
20
101.4908697
40
0.387966
50
357.3630059
51
46.9063262
0
ARC
8
DEFAULT_255_2_778
10
10.8015434
20
101.4720917
40
0.68956
50
0.015399
51
0.07714
0
ARC
8
DEFAULT_255_2_778
10
11.0585134
20
100.7817666
40
0.2766926
50
357.806644
51
44.8126634
0
ARC
8
DEFAULT_255_2_778
10
11.057278
20
100.772371
40
0.28425
50
45.9807619
51
92.3740839
0
ARC
8
DEFAULT_255_2_778
10
11.0327535
20
100.7775838
40
0.2790846
50
87.3815747
51
134.166269
0
ARC
8
DEFAULT_255_2_778
10
11.0405666
20
100.7833902
40
0.2805294
50
136.1376088
51
182.4952214
0
ARC
8
DEFAULT_255_2_778
10
11.0274654
20
100.7566727
40
0.2675555
50
176.8924315
51
224.3690855
0
ARC
8
DEFAULT_255_2_778
10
11.0262384
20
100.7802265
40
0.2837015
50
227.9451378
51
270.9435681
0
ARC
8
DEFAULT_255_2_778
10
11.0474903
20
100.9763087
40
0.4800317
50
268.0206484
51
270.0134869
0
ARC
8
DEFAULT_255_2_778
10
11.0615447
20
100.7998183
40
0.3038612
50
267.3703005
51
305.6102694
0
ARC
8
DEFAULT_255_2_778
10
11.0922884
20
100.7423053
40
0.2393531
50
307.6438479
51
313.9820901
0
ARC
8
DEFAULT_255_2_778
10
11.0690093
20
100.7572626
40
0.2663577
50
315.3511207
51
2.9944731
0
ARC
8
DEFAULT_255_2_778
10
11.0372494
20
101.4832578
40
0.2461371
50
87.5891269
51
134.3130955
0
ARC
8
DEFAULT_255_2_778
10
11.0516902
20
101.4831047
40
0.2565386
50
136.5975643
51
183.0003128
0
ARC
8
DEFAULT_255_2_778
10
11.0499349
20
101.4585345
40
0.2546755
50
177.4923908
51
223.2061848
0
ARC
8
DEFAULT_255_2_778
10
11.036405
20
101.4567214
40
0.2437017
50
225.0735798
51
272.6337188
0
ARC
8
DEFAULT_255_2_778
10
11.0590869
20
101.456226
40
0.2432202
50
267.2937682
51
314.9779091
0
ARC
8
DEFAULT_255_2_778
10
11.044936
20
101.4586961
40
0.2551037
50
316.8343508
51
2.4670736
0
ARC
8
DEFAULT_255_2_778
10
11.0456328
20
101.4796633
40
0.2543666
50
357.7500224
51
44.0989811
0
ARC
8
DEFAULT_255_2_778
10
11.0550168
20
101.485564
40
0.2435321
50
44.6384235
51
91.7915261
0
LINE
8
DEFAULT_255_2_778
10
6.8847033
20
100.9499771
11
6.5301033
21
100.9499771
0
LINE
8
DEFAULT_255_2_778
10
6.5301033
20
100.9499771
11
6.5301033
21
100.3607771
0
LINE
8
DEFAULT_255_2_778
10
6.5301033
20
100.3607771
11
6.3317033
21
100.3607771
0
LINE
8
DEFAULT_255_2_778
10
6.3317033
20
100.3607771
11
6.3317033
21
101.8654771
0
LINE
8
DEFAULT_255_2_778
10
6.3317033
20
101.8654771
11
6.8868033
21
101.8654771
0
LINE
8
DEFAULT_255_2_778
10
6.8847033
20
100.9497771
11
6.8847033
21
100.9499771
0
LINE
8
DEFAULT_255_2_778
10
6.5301033
20
101.7024771
11
6.5301033
21
101.1124771
0
LINE
8
DEFAULT_255_2_778
10
6.5301033
20
101.1124771
11
6.8868033
21
101.1124771
0
LINE
8
DEFAULT_255_2_778
10
6.8982033
20
101.7022771
11
6.5301033
21
101.7022771
0
LINE
8
DEFAULT_255_2_778
10
6.5301033
20
101.7022771
11
6.5301033
21
101.7024771
0
LINE
8
DEFAULT_255_2_778
10
7.8954033
20
101.0502771
11
7.8954033
21
101.2063771
0
LINE
8
DEFAULT_255_2_778
10
7.8954033
20
101.2063771
11
8.0391033
21
101.2063771
0
LINE
8
DEFAULT_255_2_778
10
7.7943033
20
101.4709771
11
7.6030033
21
101.4709771
0
LINE
8
DEFAULT_255_2_778
10
7.5898033
20
100.7576771
11
7.7821033
21
100.7576771
0
LINE
8
DEFAULT_255_2_778
10
8.0393033
20
101.0497771
11
7.8957033
21
101.0497771
0
LINE
8
DEFAULT_255_2_778
10
7.8957033
20
101.0497771
11
7.8954033
21
101.0502771
0
LINE
8
DEFAULT_255_2_778
10
9.2233033
20
101.0780771
11
9.2233033
21
100.9219771
0
LINE
8
DEFAULT_255_2_778
10
9.2233033
20
100.9219771
11
8.7190033
21
100.9219771
0
LINE
8
DEFAULT_255_2_778
10
8.7190033
20
100.9219771
11
8.7190033
21
101.0780771
0
LINE
8
DEFAULT_255_2_778
10
8.7190033
20
101.0780771
11
9.2233033
21
101.0780771
0
LINE
8
DEFAULT_255_2_778
10
9.2233033
20
101.0780771
11
9.2233033
21
101.0780771
0
LINE
8
DEFAULT_255_2_778
10
10.3335033
20
101.2508771
11
10.3335033
21
101.0026771
0
LINE
8
DEFAULT_255_2_778
10
9.3837033
20
100.9769771
11
9.3837033
21
101.2323771
0
LINE
8
DEFAULT_255_2_778
10
10.3335033
20
101.2508771
11
10.3335033
21
101.2508771
0
LINE
8
DEFAULT_255_2_778
10
10.1422033
20
100.9510771
11
10.1422033
21
101.2643771
0
LINE
8
DEFAULT_255_2_778
10
9.5747033
20
101.2788771
11
9.5747033
21
100.9730771
0
LINE
8
DEFAULT_255_2_778
10
10.1422033
20
100.9515771
11
10.1422033
21
100.9510771
0
LINE
8
DEFAULT_255_2_778
10
11.4911033
20
101.4722771
11
11.4911033
21
101.4728771
0
LINE
8
DEFAULT_255_2_778
10
11.3350033
20
100.7711771
11
11.3350033
21
100.7711771
0
LINE
8
DEFAULT_255_2_778
10
11.0474033
20
101.7289771
11
11.0476033
21
101.7291771
0
LINE
8
DEFAULT_255_2_778
10
12.8563033
20
101.8657771
11
12.8563033
21
101.7024771
0
LINE
8
DEFAULT_255_2_778
10
12.8563033
20
101.7024771
11
12.3727033
21
101.7024771
0
LINE
8
DEFAULT_255_2_778
10
12.3727033
20
101.7024771
11
12.3727033
21
100.3610771
0
LINE
8
DEFAULT_255_2_778
10
12.3727033
20
100.3610771
11
12.1753033
21
100.3610771
0
LINE
8
DEFAULT_255_2_778
10
12.1753033
20
100.3610771
11
12.1753033
21
101.7024771
0
LINE
8
DEFAULT_255_2_778
10
12.1753033
20
101.7024771
11
11.6927033
21
101.7024771
0
LINE
8
DEFAULT_255_2_778
10
11.6927033
20
101.7024771
11
11.6927033
21
101.8657771
0
LINE
8
DEFAULT_255_2_778
10
11.6927033
20
101.8657771
11
12.8563033
21
101.8657771
0
LINE
8
DEFAULT_255_2_778
10
12.8563033
20
101.8657771
11
12.8563033
21
101.8657771
0
LINE
8
DEFAULT_255_2_778
10
14.2361033
20
101.8657771
11
14.2361033
21
100.3607771
0
LINE
8
DEFAULT_255_2_778
10
14.2361033
20
100.3607771
11
14.0366033
21
100.3607771
0
LINE
8
DEFAULT_255_2_778
10
14.0366033
20
100.3607771
11
14.0366033
21
101.0563771
0
LINE
8
DEFAULT_255_2_778
10
14.0366033
20
101.0563771
11
13.2781033
21
101.0563771
0
LINE
8
DEFAULT_255_2_778
10
13.2781033
20
101.0563771
11
13.2781033
21
100.3607771
0
LINE
8
DEFAULT_255_2_778
10
13.2781033
20
100.3607771
11
13.0796033
21
100.3607771
0
LINE
8
DEFAULT_255_2_778
10
13.0796033
20
100.3607771
11
13.0796033
21
101.8654771
0
LINE
8
DEFAULT_255_2_778
10
13.0796033
20
101.8654771
11
13.2781033
21
101.8654771
0
LINE
8
DEFAULT_255_2_778
10
13.2781033
20
101.8654771
11
13.2781033
21
101.2185771
0
LINE
8
DEFAULT_255_2_778
10
13.2781033
20
101.2185771
11
14.0366033
21
101.2185771
0
LINE
8
DEFAULT_255_2_778
10
14.0366033
20
101.2185771
11
14.0366033
21
101.8654771
0
LINE
8
DEFAULT_255_2_778
10
14.0366033
20
101.8654771
11
14.2361033
21
101.8654771
0
LINE
8
DEFAULT_255_2_778
10
14.2361033
20
101.8654771
11
14.2361033
21
101.8657771
0
LINE
8
DEFAULT_255_2_778
10
14.5886033
20
101.8657771
11
14.8449033
21
101.8657771
0
LINE
8
DEFAULT_255_2_778
10
14.8449033
20
101.8657771
11
15.3368033
21
100.6377771
0
LINE
8
DEFAULT_255_2_778
10
15.3368033
20
100.6377771
11
15.8287033
21
101.8657771
0
LINE
8
DEFAULT_255_2_778
10
15.8287033
20
101.8657771
11
16.0861033
21
101.8657771
0
LINE
8
DEFAULT_255_2_778
10
16.0861033
20
101.8657771
11
16.0861033
21
100.3607771
0
LINE
8
DEFAULT_255_2_778
10
16.0861033
20
100.3607771
11
15.8877033
21
100.3607771
0
LINE
8
DEFAULT_255_2_778
10
15.8877033
20
100.3607771
11
15.8877033
21
100.9468771
0
LINE
8
DEFAULT_255_2_778
10
15.8877033
20
100.9468771
11
15.9062033
21
101.5794771
0
LINE
8
DEFAULT_255_2_778
10
15.9062033
20
101.5794771
11
15.4122033
21
100.3610771
0
LINE
8
DEFAULT_255_2_778
10
15.4122033
20
100.3610771
11
15.2603033
21
100.3610771
0
LINE
8
DEFAULT_255_2_778
10
15.2603033
20
100.3610771
11
14.7674033
21
101.5765771
0
LINE
8
DEFAULT_255_2_778
10
14.7674033
20
101.5765771
11
14.7870033
21
100.9470771
0
LINE
8
DEFAULT_255_2_778
10
14.7870033
20
100.9470771
11
14.7870033
21
100.3610771
0
LINE
8
DEFAULT_255_2_778
10
14.7870033
20
100.3610771
11
14.5886033
21
100.3610771
0
LINE
8
DEFAULT_255_2_778
10
14.5886033
20
100.3610771
11
14.5886033
21
101.8657771
0
LINE
8
DEFAULT_255_2_778
10
14.5886033
20
101.8657771
11
14.5886033
21
101.8657771
0
ENDSEC
0
EOF