0
SECTION
2
HEADER
9
$MEASUREMENT
70
1
0
ENDSEC
0
SECTION
2
TABLES
0
TABLE
2
LTYPE
0
LTYPE
72
65
70
64
2
CONTINUOUS
3
______
73
0
40
0
0
ENDTAB
0
TABLE
2
LAYER
0
LAYER
2
DEFAULT_255_2_778
70
0
62
255
6
CONTINUOUS
0
LAYER
2
DEFAULT_255_1_234
70
0
62
255
6
CONTINUOUS
0
LAYER
2
DEFAULT_255_2_778_1
70
0
62
255
6
CONTINUOUS
0
ENDTAB
0
ENDSEC
0
SECTION
2
ENTITIES
0
ARC
8
DEFAULT_255_2_778
10
3.5700693
20
107.5552026
40
0.7914215
50
129.1312896
51
180.1450914
0
ARC
8
DEFAULT_255_2_778
10
3.5703345
20
107.5556897
40
0.7912112
50
89.854026
51
129.1684493
0
ARC
8
DEFAULT_255_2_778
10
25.7993937
20
107.5553762
40
0.7915249
50
39.4792447
51
90.147911
0
ARC
8
DEFAULT_255_2_778
10
25.7999935
20
107.5552229
40
0.7911595
50
359.8533901
51
39.5154338
0
ARC
8
DEFAULT_255_2_778
10
25.7996693
20
-1.9863497
40
0.7914836
50
309.4761667
51
0.1482649
0
ARC
8
DEFAULT_255_2_778
10
25.799398
20
-1.9867808
40
0.7913235
50
269.8517415
51
309.511178
0
ARC
8
DEFAULT_255_2_778
10
3.570342
20
-1.9867226
40
0.7913815
50
219.1282118
51
270.1454017
0
ARC
8
DEFAULT_255_2_778
10
3.5700247
20
-1.9863401
40
0.7913769
50
179.8524075
51
219.1641908
0
LINE
8
DEFAULT_255_2_778
10
3.5723503
20
108.3468985
11
25.7973503
21
108.3468985
0
LINE
8
DEFAULT_255_2_778
10
26.5911503
20
107.5531985
11
26.5911503
21
-1.9843015
0
LINE
8
DEFAULT_255_2_778
10
25.7973503
20
-2.7781015
11
3.5723503
21
-2.7781015
0
LINE
8
DEFAULT_255_2_778
10
2.7786503
20
-1.9843015
11
2.7786503
21
107.5531985
0
LINE
8
DEFAULT_255_1_234
10
10.3493344
20
-0.1934909
11
10.0738458
21
-0.1934909
0
LINE
8
DEFAULT_255_1_234
10
10.0738458
20
-0.1934909
11
10.0738458
21
-0.6513
0
LINE
8
DEFAULT_255_1_234
10
10.0738458
20
-0.6513
11
9.9196364
21
-0.6513
0
LINE
8
DEFAULT_255_1_234
10
9.9196364
20
-0.6513
11
9.9196364
21
0.5181211
0
LINE
8
DEFAULT_255_1_234
10
9.9196364
20
0.5181211
11
10.3509407
21
0.5181211
0
LINE
8
DEFAULT_255_1_234
10
10.0738458
20
0.3912196
11
10.0738458
21
-0.0673926
0
LINE
8
DEFAULT_255_1_234
10
10.0738458
20
-0.0673926
11
10.3509407
21
-0.0673926
0
LINE
8
DEFAULT_255_1_234
10
10.3597756
20
0.3912196
11
10.0738458
21
0.3912196
0
ARC
8
DEFAULT_255_1_234
10
10.3551534
20
-0.0877805
40
0.6059162
50
78.8378113
51
90.3983573
0
ARC
8
DEFAULT_255_1_234
10
10.3967548
20
0.1142879
40
0.3996205
50
58.9632738
51
79.0810598
0
ARC
8
DEFAULT_255_1_234
10
10.426909
20
0.1702721
40
0.3361177
50
48.0197965
51
58.447194
0
ARC
8
DEFAULT_255_1_234
10
10.4357951
20
0.1788225
40
0.3238191
50
3.3375044
51
48.1766626
0
ARC
8
DEFAULT_255_1_234
10
10.312779
20
0.1611171
40
0.4477806
50
359.9477528
51
4.6829065
0
ARC
8
DEFAULT_255_1_234
10
10.3251107
20
0.1568628
40
0.4354656
50
346.1877825
51
0.5060252
0
ARC
8
DEFAULT_255_1_234
10
10.4609975
20
0.1215731
40
0.295089
50
310.8831995
51
346.5426355
0
ARC
8
DEFAULT_255_1_234
10
10.4301395
20
0.1632695
40
0.3468331
50
286.6925341
51
310.2288297
0
ARC
8
DEFAULT_255_1_234
10
10.3732226
20
0.3422882
40
0.5346654
50
274.6850312
51
287.0245141
0
ARC
8
DEFAULT_255_1_234
10
10.3506949
20
0.5631932
40
0.7566852
50
269.8969846
51
275.018904
0
ARC
8
DEFAULT_255_1_234
10
10.353454
20
0.3552707
40
0.4226708
50
269.6593078
51
279.4153575
0
ARC
8
DEFAULT_255_1_234
10
10.3791815
20
0.2062133
40
0.2714146
50
279.2049762
51
294.9900808
0
ARC
8
DEFAULT_255_1_234
10
10.4082141
20
0.1414508
40
0.2004525
50
295.2888114
51
311.2911209
0
ARC
8
DEFAULT_255_1_234
10
10.4153035
20
0.130922
40
0.1878703
50
311.7854996
51
347.2861051
0
ARC
8
DEFAULT_255_1_234
10
10.3169194
20
0.1562092
40
0.2894234
50
346.6893224
51
0.1059443
0
ARC
8
DEFAULT_255_1_234
10
10.2414089
20
0.1590685
40
0.3649409
50
359.6350983
51
0.0053152
0
ARC
8
DEFAULT_255_1_234
10
10.3384417
20
0.1615937
40
0.2679199
50
359.4672059
51
15.5933957
0
ARC
8
DEFAULT_255_1_234
10
10.4009306
20
0.1784779
40
0.2031932
50
15.7442113
51
46.6203375
0
ARC
8
DEFAULT_255_1_234
10
10.3861527
20
0.1614484
40
0.2257226
50
46.8628658
51
75.6676503
0
ARC
8
DEFAULT_255_1_234
10
10.3567347
20
0.0555718
40
0.3355939
50
75.276167
51
88.2915297
0
ARC
8
DEFAULT_255_1_234
10
10.3509054
20
-0.0322476
40
0.4235602
50
87.8575022
51
88.8000139
0
LINE
8
DEFAULT_255_1_234
10
11.1348384
20
-0.1155831
11
11.1348384
21
0.0056962
0
LINE
8
DEFAULT_255_1_234
10
11.1348384
20
0.0056962
11
11.2464795
21
0.0056962
0
LINE
8
DEFAULT_255_1_234
10
11.0561273
20
0.2113087
11
10.9075402
21
0.2113087
0
LINE
8
DEFAULT_255_1_234
10
10.8970989
20
-0.3428813
11
11.0464893
21
-0.3428813
0
LINE
8
DEFAULT_255_1_234
10
11.2464795
20
-0.1155831
11
11.1348384
21
-0.1155831
0
ARC
8
DEFAULT_255_1_234
10
11.2435662
20
0.3449713
40
0.3392876
50
270.4919872
51
281.8951556
0
ARC
8
DEFAULT_255_1_234
10
11.2676923
20
0.2347702
40
0.2264817
50
281.6691735
51
301.2943132
0
ARC
8
DEFAULT_255_1_234
10
11.2847134
20
0.2036304
40
0.1910381
50
301.7833094
51
311.7545298
0
ARC
8
DEFAULT_255_1_234
10
11.2938709
20
0.1934748
40
0.1773635
50
311.7323931
51
354.2802411
0
ARC
8
DEFAULT_255_1_234
10
11.2212335
20
0.2059722
40
0.2509385
50
353.0937916
51
0.1181479
0
ARC
8
DEFAULT_255_1_234
10
11.175112
20
0.2107386
40
0.2970898
50
359.1805295
51
15.0453146
0
ARC
8
DEFAULT_255_1_234
10
11.3096957
20
0.2499992
40
0.1569564
50
13.9577229
51
77.6713066
0
ARC
8
DEFAULT_255_1_234
10
11.2710486
20
0.1114949
40
0.3006298
50
76.1116566
51
90.7026153
0
ARC
8
DEFAULT_255_1_234
10
11.2651324
20
0.1388545
40
0.2732568
50
89.5324876
51
103.531937
0
ARC
8
DEFAULT_255_1_234
10
11.2450768
20
0.2187884
40
0.1908508
50
103.2931773
51
133.5619022
0
ARC
8
DEFAULT_255_1_234
10
11.2406256
20
0.2247375
40
0.1834746
50
133.8349307
51
173.5344437
0
ARC
8
DEFAULT_255_1_234
10
11.31293
20
0.2119213
40
0.2568033
50
172.5096846
51
180.1366907
0
ARC
8
DEFAULT_255_1_234
10
11.2178193
20
0.2153622
40
0.3103056
50
155.3484492
51
180.7484736
0
ARC
8
DEFAULT_255_1_234
10
11.2129283
20
0.2124846
40
0.3070957
50
131.5744599
51
154.4798489
0
ARC
8
DEFAULT_255_1_234
10
11.244243
20
0.180831
40
0.3515643
50
96.9875458
51
131.9690667
0
ARC
8
DEFAULT_255_1_234
10
11.266191
20
0.0562636
40
0.4779224
50
89.8596053
51
97.7825159
0
ARC
8
DEFAULT_255_1_234
10
11.2709973
20
0.0300616
40
0.5041361
50
78.3655447
51
90.4131539
0
ARC
8
DEFAULT_255_1_234
10
11.3067891
20
0.1959887
40
0.3344039
50
56.6229102
51
78.638727
0
ARC
8
DEFAULT_255_1_234
10
11.3282834
20
0.2335805
40
0.2912001
50
47.0253525
51
56.0854072
0
ARC
8
DEFAULT_255_1_234
10
11.3302614
20
0.2375223
40
0.2869704
50
10.9208013
51
46.7778124
0
ARC
8
DEFAULT_255_1_234
10
11.1938681
20
0.2059857
40
0.426899
50
359.6364486
51
11.6087304
0
ARC
8
DEFAULT_255_1_234
10
11.3773525
20
0.2044752
40
0.243409
50
332.3549906
51
359.7179418
0
ARC
8
DEFAULT_255_1_234
10
11.3123126
20
0.2353142
40
0.3153459
50
325.2333722
51
332.8745602
0
ARC
8
DEFAULT_255_1_234
10
11.327575
20
0.2246828
40
0.2967456
50
292.9802137
51
325.2392345
0
ARC
8
DEFAULT_255_1_234
10
11.3001124
20
0.2780863
40
0.3566604
50
292.5402179
51
293.6924929
0
ARC
8
DEFAULT_255_1_234
10
11.339372
20
-0.3673909
40
0.3307468
50
57.6435486
51
72.8625112
0
ARC
8
DEFAULT_255_1_234
10
11.374822
20
-0.3099451
40
0.2632492
50
36.7248896
51
57.4697979
0
ARC
8
DEFAULT_255_1_234
10
11.3736852
20
-0.308678
40
0.2634081
50
8.0545065
51
36.356114
0
ARC
8
DEFAULT_255_1_234
10
11.2874038
20
-0.3241826
40
0.3510261
50
359.8320645
51
8.5869982
0
ARC
8
DEFAULT_255_1_234
10
11.2498814
20
-0.3289899
40
0.3885653
50
343.9829931
51
0.5571613
0
ARC
8
DEFAULT_255_1_234
10
11.3385011
20
-0.3532562
40
0.2966924
50
311.6359546
51
343.7651759
0
ARC
8
DEFAULT_255_1_234
10
11.300658
20
-0.3105898
40
0.3537231
50
279.7829875
51
311.6255694
0
ARC
8
DEFAULT_255_1_234
10
11.2705356
20
-0.166872
40
0.5004971
50
269.7286406
51
280.3856417
0
ARC
8
DEFAULT_255_1_234
10
11.2643429
20
-0.1710004
40
0.4963778
50
256.6828919
51
270.4412052
0
ARC
8
DEFAULT_255_1_234
10
11.2304725
20
-0.3094606
40
0.3538406
50
229.4223008
51
256.8556159
0
ARC
8
DEFAULT_255_1_234
10
11.1890118
20
-0.3561264
40
0.2914296
50
181.818294
51
229.6455059
0
ARC
8
DEFAULT_255_1_234
10
11.2930074
20
-0.3430504
40
0.3959084
50
179.9755256
51
183.2323064
0
ARC
8
DEFAULT_255_1_234
10
11.275782
20
-0.3450963
40
0.2293034
50
179.4465117
51
196.2869258
0
ARC
8
DEFAULT_255_1_234
10
11.2270228
20
-0.3584349
40
0.1787621
50
196.5661473
51
227.705904
0
ARC
8
DEFAULT_255_1_234
10
11.2434323
20
-0.3400845
40
0.2033784
50
227.7652068
51
257.8762805
0
ARC
8
DEFAULT_255_1_234
10
11.2659293
20
-0.2457844
40
0.3003081
50
257.4584385
51
270.426602
0
ARC
8
DEFAULT_255_1_234
10
11.2704859
20
-0.2168004
40
0.329292
50
269.5962073
51
280.8789248
0
ARC
8
DEFAULT_255_1_234
10
11.2934388
20
-0.3314315
40
0.2123908
50
280.6346389
51
299.8595945
0
ARC
8
DEFAULT_255_1_234
10
11.3125294
20
-0.3676788
40
0.171457
50
300.3576302
51
314.5517981
0
ARC
8
DEFAULT_255_1_234
10
11.3042354
20
-0.3616081
40
0.1816095
50
315.0728369
51
345.0431014
0
ARC
8
DEFAULT_255_1_234
10
11.2119169
20
-0.3347159
40
0.2777492
50
344.5986631
51
357.9269593
0
ARC
8
DEFAULT_255_1_234
10
11.1223495
20
-0.3285724
40
0.3674917
50
357.4748886
51
0.0231117
0
ARC
8
DEFAULT_255_1_234
10
11.2246604
20
-0.3261321
40
0.2651907
50
359.5047933
51
13.4239635
0
ARC
8
DEFAULT_255_1_234
10
11.3113248
20
-0.3039522
40
0.1757509
50
12.9498199
51
48.7551375
0
ARC
8
DEFAULT_255_1_234
10
11.2930982
20
-0.32886
40
0.2065134
50
49.5088623
51
72.1836453
0
ARC
8
DEFAULT_255_1_234
10
11.2573135
20
-0.4350709
40
0.3185836
50
71.9010081
51
84.3554254
0
ARC
8
DEFAULT_255_1_234
10
11.2411766
20
-0.5711674
40
0.4556151
50
84.0193428
51
89.333121
0
LINE
8
DEFAULT_255_1_234
10
12.1669167
20
-0.0938974
11
12.1669167
21
-0.2151766
0
LINE
8
DEFAULT_255_1_234
10
12.1669167
20
-0.2151766
11
11.7749679
21
-0.2151766
0
LINE
8
DEFAULT_255_1_234
10
11.7749679
20
-0.2151766
11
11.7749679
21
-0.0938974
0
LINE
8
DEFAULT_255_1_234
10
11.7749679
20
-0.0938974
11
12.1669167
21
-0.0938974
0
LINE
8
DEFAULT_255_1_234
10
13.0295254
20
0.0402327
11
13.0295254
21
-0.1525291
0
LINE
8
DEFAULT_255_1_234
10
12.2914087
20
-0.1726084
11
12.2914087
21
0.0257755
0
LINE
8
DEFAULT_255_1_234
10
12.8809383
20
-0.1926877
11
12.8809383
21
0.0506739
0
LINE
8
DEFAULT_255_1_234
10
12.4399958
20
0.0619184
11
12.4399958
21
-0.1758211
0
ARC
8
DEFAULT_255_1_234
10
11.8048144
20
-0.1574195
40
1.2247208
50
353.8441951
51
0.2287902
0
ARC
8
DEFAULT_255_1_234
10
12.2687648
20
-0.2092194
40
0.7578929
50
344.4934747
51
353.9765454
0
ARC
8
DEFAULT_255_1_234
10
12.5680238
20
-0.2943019
40
0.4467846
50
329.2803592
51
344.7472793
0
ARC
8
DEFAULT_255_1_234
10
12.6673063
20
-0.3487982
40
0.3336173
50
324.9352394
51
328.6160465
0
ARC
8
DEFAULT_255_1_234
10
12.7050171
20
-0.3751573
40
0.2876076
50
280.580143
51
324.9173126
0
ARC
8
DEFAULT_255_1_234
10
12.6648964
20
-0.2080901
40
0.4592847
50
269.5977311
51
281.6734359
0
ARC
8
DEFAULT_255_1_234
10
12.657687
20
-0.2200827
40
0.4472986
50
256.6228859
51
270.51044
0
ARC
8
DEFAULT_255_1_234
10
12.6174847
20
-0.3749123
40
0.2873874
50
215.8618325
51
257.2788573
0
ARC
8
DEFAULT_255_1_234
10
12.7195879
20
-0.3064023
40
0.4102928
50
197.9693508
51
215.2623606
0
ARC
8
DEFAULT_255_1_234
10
12.9680995
20
-0.2225291
40
0.6725652
50
187.8816417
51
198.2346507
0
ARC
8
DEFAULT_255_1_234
10
13.3639203
20
-0.1653921
40
1.0724845
50
180.8976217
51
188.0055519
0
ARC
8
DEFAULT_255_1_234
10
13.6439391
20
-0.1550223
40
1.3526448
50
180.7449369
51
181.1510016
0
ARC
8
DEFAULT_255_1_234
10
13.486212
20
0.0306042
40
1.1948131
50
173.7675579
51
180.231553
0
ARC
8
DEFAULT_255_1_234
10
13.0344267
20
0.0816666
40
0.7401564
50
164.3058563
51
173.9002247
0
ARC
8
DEFAULT_255_1_234
10
12.7432336
20
0.1655656
40
0.4371288
50
148.7922025
51
164.568378
0
ARC
8
DEFAULT_255_1_234
10
12.6480788
20
0.2186929
40
0.3282386
50
144.5883898
51
148.1176286
0
ARC
8
DEFAULT_255_1_234
10
12.6137686
20
0.2426315
40
0.2864044
50
101.6440918
51
144.514236
0
ARC
8
DEFAULT_255_1_234
10
12.6562752
20
0.0737069
40
0.4604934
50
89.5284041
51
102.5819763
0
ARC
8
DEFAULT_255_1_234
10
12.664184
20
0.0698018
40
0.464401
50
77.0437873
51
90.5081339
0
ARC
8
DEFAULT_255_1_234
10
12.7043842
20
0.2340615
40
0.2953195
50
48.2778575
51
77.4994676
0
ARC
8
DEFAULT_255_1_234
10
12.7116473
20
0.2469746
40
0.2808655
50
36.3142134
51
47.6305865
0
ARC
8
DEFAULT_255_1_234
10
12.624778
20
0.1884515
40
0.3855453
50
18.2931786
51
35.6769206
0
ARC
8
DEFAULT_255_1_234
10
12.3704539
20
0.1011593
40
0.654423
50
8.024666
51
18.5605216
0
ARC
8
DEFAULT_255_1_234
10
11.9541459
20
0.0396792
40
1.0752407
50
1.1274072
51
8.1718305
0
ARC
8
DEFAULT_255_1_234
10
11.630565
20
0.0269885
40
1.3990231
50
0.5424119
51
1.3863029
0
ARC
8
DEFAULT_255_1_234
10
11.8127027
20
0.0542342
40
1.0682415
50
359.8090433
51
4.9407866
0
ARC
8
DEFAULT_255_1_234
10
12.2337041
20
0.0918113
40
0.6455691
50
4.8362157
51
12.2904523
0
ARC
8
DEFAULT_255_1_234
10
12.5092156
20
0.1531965
40
0.3633074
50
12.0805627
51
23.8173984
0
ARC
8
DEFAULT_255_1_234
10
12.6265862
20
0.2028919
40
0.2358723
50
24.2871213
51
31.3935614
0
ARC
8
DEFAULT_255_1_234
10
12.6790559
20
0.2372233
40
0.1732111
50
30.7407893
51
82.4657128
0
ARC
8
DEFAULT_255_1_234
10
12.6610693
20
0.1488691
40
0.263235
50
81.1060089
51
90.2184952
0
ARC
8
DEFAULT_255_1_234
10
12.6574992
20
0.1746924
40
0.2374236
50
89.3806855
51
105.6762551
0
ARC
8
DEFAULT_255_1_234
10
12.6391623
20
0.2413567
40
0.1682847
50
105.7981136
51
149.7388061
0
ARC
8
DEFAULT_255_1_234
10
12.7455701
20
0.177395
40
0.2924306
50
149.4208916
51
163.6286378
0
ARC
8
DEFAULT_255_1_234
10
12.9546589
20
0.113625
40
0.5110213
50
163.3763315
51
172.1410975
0
ARC
8
DEFAULT_255_1_234
10
13.2847308
20
0.0663518
40
0.8444586
50
172.0259487
51
178.0703232
0
ARC
8
DEFAULT_255_1_234
10
13.5877397
20
0.0519906
40
1.1477868
50
177.8631668
51
179.5044149
0
ARC
8
DEFAULT_255_1_234
10
13.4804802
20
-0.1794611
40
1.0404907
50
179.7995573
51
185.2460446
0
ARC
8
DEFAULT_255_1_234
10
13.0761841
20
-0.2177487
40
0.6343885
50
185.1411642
51
193.0079639
0
ARC
8
DEFAULT_255_1_234
10
12.8118314
20
-0.2802359
40
0.3627568
50
192.7897626
51
205.2507664
0
ARC
8
DEFAULT_255_1_234
10
12.7071861
20
-0.3269585
40
0.2481908
50
205.8005384
51
211.2537509
0
ARC
8
DEFAULT_255_1_234
10
12.6548301
20
-0.362042
40
0.1852521
50
210.3789793
51
238.4008143
0
ARC
8
DEFAULT_255_1_234
10
12.6528823
20
-0.3573624
40
0.1882621
50
239.6520629
51
265.9793761
0
ARC
8
DEFAULT_255_1_234
10
12.6614023
20
-0.2901573
40
0.2559272
50
265.1315437
51
270.060332
0
ARC
8
DEFAULT_255_1_234
10
12.6642802
20
-0.3225466
40
0.2235528
50
269.3314664
51
287.2178029
0
ARC
8
DEFAULT_255_1_234
10
12.6780654
20
-0.3728721
40
0.1714108
50
287.7958004
51
329.080874
0
ARC
8
DEFAULT_255_1_234
10
12.5823111
20
-0.313107
40
0.2842745
50
328.6634704
51
343.3325132
0
ARC
8
DEFAULT_255_1_234
10
12.3650131
20
-0.2454137
40
0.5118644
50
343.0499468
51
351.9393422
0
ARC
8
DEFAULT_255_1_234
10
12.0183431
20
-0.1943051
40
0.8622784
50
351.8069023
51
357.7959224
0
ARC
8
DEFAULT_255_1_234
10
11.6947987
20
-0.1775279
40
1.1862365
50
357.5871873
51
359.2677531
0
LINE
8
DEFAULT_255_1_234
10
13.7764771
20
0.5189243
11
13.8029818
21
0.5189243
0
LINE
8
DEFAULT_255_1_234
10
13.8029818
20
0.5189243
11
13.8029818
21
0.392826
0
LINE
8
DEFAULT_255_1_234
10
13.8029818
20
0.392826
11
13.7756739
21
0.392826
0
LINE
8
DEFAULT_255_1_234
10
13.2287125
20
-0.2063417
11
13.2287125
21
-0.1493164
0
LINE
8
DEFAULT_255_1_234
10
13.3781029
20
-0.1685925
11
13.3781029
21
-0.2232083
0
ARC
8
DEFAULT_255_1_234
10
13.7809087
20
-0.1069545
40
0.4998079
50
90.6001036
51
104.514704
0
ARC
8
DEFAULT_255_1_234
10
13.7420603
20
0.0375131
40
0.3502176
50
104.2855254
51
133.862935
0
ARC
8
DEFAULT_255_1_234
10
13.758436
20
0.026683
40
0.3693984
50
134.5302688
51
161.6210873
0
ARC
8
DEFAULT_255_1_234
10
13.9237549
20
-0.0316105
40
0.5446739
50
161.2849839
51
174.2076652
0
ARC
8
DEFAULT_255_1_234
10
14.0644486
20
-0.0510213
40
0.6866274
50
173.7810589
51
174.9254635
0
ARC
8
DEFAULT_255_1_234
10
13.6094318
20
-0.1893161
40
0.3033419
50
95.8330959
51
138.9954921
0
ARC
8
DEFAULT_255_1_234
10
13.6317674
20
-0.3171625
40
0.4328947
50
89.8753725
51
97.0544009
0
ARC
8
DEFAULT_255_1_234
10
13.636514
20
-0.2336252
40
0.3493769
50
71.6407809
51
90.6240094
0
ARC
8
DEFAULT_255_1_234
10
13.6515713
20
-0.1781918
40
0.2920396
50
39.6367836
51
71.019018
0
ARC
8
DEFAULT_255_1_234
10
13.5879186
20
-0.2332002
40
0.3761538
50
10.658731
51
39.9043955
0
ARC
8
DEFAULT_255_1_234
10
13.4331269
20
-0.2668314
40
0.5345136
50
359.682601
51
11.132623
0
ARC
8
DEFAULT_255_1_234
10
13.42914
20
-0.273899
40
0.5385081
50
347.2486944
51
0.4369317
0
ARC
8
DEFAULT_255_1_234
10
13.5958877
20
-0.3140193
40
0.3670249
50
318.1409698
51
347.6118597
0
ARC
8
DEFAULT_255_1_234
10
13.628387
20
-0.3407298
40
0.3250007
50
275.6342139
51
317.8248465
0
ARC
8
DEFAULT_255_1_234
10
13.6062981
20
-0.2107781
40
0.4565864
50
269.8874292
51
276.7917694
0
ARC
8
DEFAULT_255_1_234
10
13.6008052
20
-0.3133257
40
0.3540676
50
246.9140195
51
270.7437342
0
ARC
8
DEFAULT_255_1_234
10
13.6014442
20
-0.3275616
40
0.3412781
50
218.1665114
51
245.878116
0
ARC
8
DEFAULT_255_1_234
10
13.6893903
20
-0.2539721
40
0.455911
50
191.4115814
51
218.6077802
0
ARC
8
DEFAULT_255_1_234
10
13.8831992
20
-0.2105167
40
0.6545001
50
179.6345085
51
191.7836486
0
ARC
8
DEFAULT_255_1_234
10
14.4414329
20
-0.1426303
40
1.2127388
50
171.4525249
51
180.3158839
0
ARC
8
DEFAULT_255_1_234
10
14.0019205
20
-0.0742392
40
0.7679464
50
157.9802646
51
171.6246686
0
ARC
8
DEFAULT_255_1_234
10
13.7805226
20
0.0140421
40
0.5296008
50
141.4298019
51
157.854097
0
ARC
8
DEFAULT_255_1_234
10
13.7163546
20
0.0594381
40
0.4511509
50
102.8715806
51
140.8564722
0
ARC
8
DEFAULT_255_1_234
10
13.7811162
20
-0.1845448
40
0.7034845
50
90.3778349
51
103.5869322
0
ARC
8
DEFAULT_255_1_234
10
13.6072938
20
-0.245027
40
0.2370698
50
89.8751008
51
126.2071704
0
ARC
8
DEFAULT_255_1_234
10
13.6118728
20
-0.2604697
40
0.2522934
50
124.9745049
51
144.895901
0
ARC
8
DEFAULT_255_1_234
10
13.5942918
20
-0.246144
40
0.2296779
50
145.2974905
51
160.2660252
0
ARC
8
DEFAULT_255_1_234
10
13.9015457
20
-0.2263929
40
0.5234525
50
179.6514266
51
190.2855912
0
ARC
8
DEFAULT_255_1_234
10
13.7321594
20
-0.2583214
40
0.3510893
50
190.0945431
51
207.5098196
0
ARC
8
DEFAULT_255_1_234
10
13.6755864
20
-0.2852377
40
0.288489
50
207.9583163
51
216.3251085
0
ARC
8
DEFAULT_255_1_234
10
13.6415972
20
-0.3131895
40
0.2445587
50
215.7661442
51
232.5456785
0
ARC
8
DEFAULT_255_1_234
10
13.6032955
20
-0.3618518
40
0.1826382
50
232.8005391
51
270.6605633
0
ARC
8
DEFAULT_255_1_234
10
13.6078656
20
-0.3254388
40
0.2190529
50
269.35537
51
288.4744281
0
ARC
8
DEFAULT_255_1_234
10
13.6171553
20
-0.3603882
40
0.1829749
50
289.1833337
51
322.9683818
0
ARC
8
DEFAULT_255_1_234
10
13.5560075
20
-0.3121609
40
0.2608399
50
322.6007884
51
346.5182367
0
ARC
8
DEFAULT_255_1_234
10
13.4402671
20
-0.2826384
40
0.3802777
50
346.2582162
51
358.7741648
0
ARC
8
DEFAULT_255_1_234
10
13.338434
20
-0.2771035
40
0.4822176
50
358.3755224
51
0.0098023
0
ARC
8
DEFAULT_255_1_234
10
13.4140527
20
-0.2743343
40
0.4066078
50
359.6214041
51
11.2839074
0
ARC
8
DEFAULT_255_1_234
10
13.5417674
20
-0.2476934
40
0.2761514
50
11.0482309
51
31.8146458
0
ARC
8
DEFAULT_255_1_234
10
13.5726717
20
-0.2309416
40
0.2410679
50
32.3035391
51
38.082671
0
ARC
8
DEFAULT_255_1_234
10
13.6147377
20
-0.1928338
40
0.1844966
50
36.825067
51
85.7415724
0
ARC
8
DEFAULT_255_1_234
10
13.608021
20
-0.2428699
40
0.2349122
50
85.0140713
51
90.0513278
0
LINE
8
DEFAULT_255_1_234
10
14.5057589
20
-0.6513
11
14.1820799
21
-0.6513
0
LINE
8
DEFAULT_255_1_234
10
14.1820799
20
-0.6513
11
14.1820799
21
0.5181211
0
LINE
8
DEFAULT_255_1_234
10
14.1820799
20
0.5181211
11
14.5121843
21
0.5181211
0
LINE
8
DEFAULT_255_1_234
10
15.0278219
20
-0.0272339
11
15.0278219
21
-0.1019291
0
LINE
8
DEFAULT_255_1_234
10
14.5162002
20
0.3912196
11
14.3362893
21
0.3912196
0
LINE
8
DEFAULT_255_1_234
10
14.3362893
20
0.3912196
11
14.3362893
21
-0.5252017
0
LINE
8
DEFAULT_255_1_234
10
14.3362893
20
-0.5252017
11
14.4985304
21
-0.5252017
0
LINE
8
DEFAULT_255_1_234
10
14.8752189
20
-0.0987164
11
14.8752189
21
-0.0304466
0
ARC
8
DEFAULT_255_1_234
10
14.5160786
20
-0.0684106
40
0.5865446
50
75.4101064
51
90.3804066
0
ARC
8
DEFAULT_255_1_234
10
14.5390299
20
0.0272492
40
0.4881916
50
60.145586
51
75.1888407
0
ARC
8
DEFAULT_255_1_234
10
14.5549075
20
0.0549199
40
0.4562893
50
26.5253612
51
60.1450928
0
ARC
8
DEFAULT_255_1_234
10
14.4428824
20
-0.0044842
40
0.5830602
50
7.4030428
51
26.8320788
0
ARC
8
DEFAULT_255_1_234
10
14.2834581
20
-0.0293196
40
0.7443669
50
0.1605367
51
7.7176192
0
ARC
8
DEFAULT_255_1_234
10
14.2998485
20
-0.1057566
40
0.7279835
50
348.7289388
51
0.3012466
0
ARC
8
DEFAULT_255_1_234
10
14.4654916
20
-0.1386614
40
0.559104
50
333.0706509
51
348.7181832
0
ARC
8
DEFAULT_255_1_234
10
14.5621673
20
-0.1911681
40
0.4491417
50
299.2531685
51
333.4571258
0
ARC
8
DEFAULT_255_1_234
10
14.5260813
20
-0.1226172
40
0.5265881
50
278.107187
51
299.0339503
0
ARC
8
DEFAULT_255_1_234
10
14.5004892
20
0.0281216
40
0.679442
50
270.4443897
51
278.4511052
0
ARC
8
DEFAULT_255_1_234
10
14.5025722
20
-0.0647787
40
0.4604407
50
269.4970433
51
284.0205042
0
ARC
8
DEFAULT_255_1_234
10
14.5381023
20
-0.2013022
40
0.3193797
50
283.7700273
51
318.1555492
0
ARC
8
DEFAULT_255_1_234
10
14.5043781
20
-0.1760633
40
0.3613588
50
318.7415601
51
343.6873628
0
ARC
8
DEFAULT_255_1_234
10
14.3239804
20
-0.1197168
40
0.5503313
50
343.3325091
51
355.8548958
0
ARC
8
DEFAULT_255_1_234
10
14.1141489
20
-0.0997681
40
0.7610708
50
355.4988528
51
0.0791727
0
ARC
8
DEFAULT_255_1_234
10
14.1924111
20
-0.026222
40
0.6828208
50
359.6455037
51
9.8607896
0
ARC
8
DEFAULT_255_1_234
10
14.4284809
20
0.0164099
40
0.4429406
50
9.6571907
51
26.1932807
0
ARC
8
DEFAULT_255_1_234
10
14.5212798
20
0.0595118
40
0.3406537
50
26.5777228
51
40.1532208
0
ARC
8
DEFAULT_255_1_234
10
14.5468524
20
0.0794619
40
0.308246
50
40.3840491
51
80.1431104
0
ARC
8
DEFAULT_255_1_234
10
14.5141642
20
-0.0654667
40
0.4566909
50
79.2152159
51
89.7445637
0
LINE
8
DEFAULT_255_1_234
10
16.0012686
20
-0.6513
11
15.8896274
21
-0.3460939
0
LINE
8
DEFAULT_255_1_234
10
15.8896274
20
-0.3460939
11
15.3996914
21
-0.3460939
0
LINE
8
DEFAULT_255_1_234
10
15.3996914
20
-0.3460939
11
15.2896566
21
-0.6513
0
LINE
8
DEFAULT_255_1_234
10
15.2896566
20
-0.6513
11
15.1306282
21
-0.6513
0
LINE
8
DEFAULT_255_1_234
10
15.1306282
20
-0.6513
11
15.5771928
21
0.5181211
0
LINE
8
DEFAULT_255_1_234
10
15.5771928
20
0.5181211
11
15.712126
21
0.5181211
0
LINE
8
DEFAULT_255_1_234
10
15.712126
20
0.5181211
11
16.1594938
21
-0.6513
0
LINE
8
DEFAULT_255_1_234
10
16.1594938
20
-0.6513
11
16.0012686
21
-0.6513
0
LINE
8
DEFAULT_255_1_234
10
15.6446594
20
0.3277689
11
15.4462755
21
-0.2191925
0
LINE
8
DEFAULT_255_1_234
10
15.4462755
20
-0.2191925
11
15.8438465
21
-0.2191925
0
LINE
8
DEFAULT_255_1_234
10
15.8438465
20
-0.2191925
11
15.6446594
21
0.3277689
0
LINE
8
DEFAULT_255_1_234
10
17.0927818
20
0.1799849
11
16.9377693
21
0.1799849
0
LINE
8
DEFAULT_255_1_234
10
16.2454334
20
-0.3123606
11
16.400446
21
-0.3123606
0
ARC
8
DEFAULT_255_1_234
10
17.0036506
20
1.0746768
40
1.252368
50
248.9199003
51
254.1439814
0
ARC
8
DEFAULT_255_1_234
10
16.8356001
20
0.6420234
40
0.788226
50
241.633709
51
249.0064503
0
ARC
8
DEFAULT_255_1_234
10
16.6827395
20
0.3619317
40
0.4691427
50
230.498225
51
241.8087113
0
ARC
8
DEFAULT_255_1_234
10
16.6042969
20
0.2619906
40
0.3421437
50
227.4064532
51
229.9881192
0
ARC
8
DEFAULT_255_1_234
10
16.555549
20
0.2144088
40
0.2741476
50
200.6781896
51
228.1763934
0
ARC
8
DEFAULT_255_1_234
10
16.5627801
20
0.2129077
40
0.2804109
50
179.5061581
51
199.8694617
0
ARC
8
DEFAULT_255_1_234
10
16.5618552
20
0.220321
40
0.2795204
50
132.4834203
51
181.0242172
0
ARC
8
DEFAULT_255_1_234
10
16.6214135
20
0.1640704
40
0.3612768
50
129.2532479
51
133.4242687
0
ARC
8
DEFAULT_255_1_234
10
16.6360584
20
0.1420965
40
0.3875675
50
101.98776
51
128.8742646
0
ARC
8
DEFAULT_255_1_234
10
16.6759195
20
-0.0300259
40
0.5642249
50
89.5906553
51
102.3169264
0
ARC
8
DEFAULT_255_1_234
10
16.6829687
20
0.0018148
40
0.5323783
50
77.2360837
51
90.3248275
0
ARC
8
DEFAULT_255_1_234
10
16.7036766
20
0.09854
40
0.4334697
50
63.837784
51
77.0809408
0
ARC
8
DEFAULT_255_1_234
10
16.7314528
20
0.1502911
40
0.3747796
50
45.9864267
51
64.1607727
0
ARC
8
DEFAULT_255_1_234
10
16.7575409
20
0.1800866
40
0.3352302
50
32.2747395
51
45.6547121
0
ARC
8
DEFAULT_255_1_234
10
16.764185
20
0.181988
40
0.328603
50
359.6507365
51
32.6130309
0
ARC
8
DEFAULT_255_1_234
10
16.6698945
20
0.182466
40
0.2678863
50
359.469343
51
14.9832209
0
ARC
8
DEFAULT_255_1_234
10
16.7404008
20
0.2013539
40
0.1948938
50
14.9781179
51
48.2004265
0
ARC
8
DEFAULT_255_1_234
10
16.7239652
20
0.1806983
40
0.2212521
50
48.5927837
51
74.1241538
0
ARC
8
DEFAULT_255_1_234
10
16.6906141
20
0.0706248
40
0.3362561
50
73.7888341
51
86.6652678
0
ARC
8
DEFAULT_255_1_234
10
16.6803707
20
-0.0501119
40
0.4573953
50
86.2640471
51
90.0526343
0
ARC
8
DEFAULT_255_1_234
10
16.6775419
20
-0.0105808
40
0.4178709
50
89.6697524
51
99.2309573
0
ARC
8
DEFAULT_255_1_234
10
16.653287
20
0.1338964
40
0.2713749
50
99.069534
51
113.7658566
0
ARC
8
DEFAULT_255_1_234
10
16.6259061
20
0.1984677
40
0.2012469
50
114.0401004
51
127.9850673
0
ARC
8
DEFAULT_255_1_234
10
16.6018625
20
0.228073
40
0.1631167
50
127.7287463
51
176.7105154
0
ARC
8
DEFAULT_255_1_234
10
16.6697343
20
0.2179693
40
0.2315392
50
175.1779447
51
180.0581938
0
ARC
8
DEFAULT_255_1_234
10
16.5854189
20
0.2167428
40
0.1472271
50
179.6142195
51
228.1246017
0
ARC
8
DEFAULT_255_1_234
10
16.6295858
20
0.2576308
40
0.2072299
50
226.5779593
51
230.8800004
0
ARC
8
DEFAULT_255_1_234
10
16.6766937
20
0.3201636
40
0.2854818
50
231.4635071
51
241.9260842
0
ARC
8
DEFAULT_255_1_234
10
16.7964115
20
0.54048
40
0.53622
50
241.7178533
51
248.3259551
0
ARC
8
DEFAULT_255_1_234
10
16.9349487
20
0.8837064
40
0.9063478
50
248.2007737
51
252.4528373
0
ARC
8
DEFAULT_255_1_234
10
17.0553211
20
1.2558441
40
1.2974635
50
252.3391078
51
254.3469452
0
ARC
8
DEFAULT_255_1_234
10
16.3010914
20
-1.4418852
40
1.5037162
50
71.0197183
51
74.4087047
0
ARC
8
DEFAULT_255_1_234
10
16.4705599
20
-0.9526889
40
0.9859993
50
66.1847285
51
71.086374
0
ARC
8
DEFAULT_255_1_234
10
16.6261912
20
-0.60228
40
0.6025855
50
59.3536294
51
66.2691831
0
ARC
8
DEFAULT_255_1_234
10
16.7150564
20
-0.4519391
40
0.4279449
50
49.1020879
51
59.3293958
0
ARC
8
DEFAULT_255_1_234
10
16.7969304
20
-0.3586166
40
0.3038015
50
32.7919921
51
49.2505539
0
ARC
8
DEFAULT_255_1_234
10
16.8290394
20
-0.3357809
40
0.264448
50
31.1181161
51
32.4005348
0
ARC
8
DEFAULT_255_1_234
10
16.8201932
20
-0.3393221
40
0.2738556
50
8.1116974
51
30.7958831
0
ARC
8
DEFAULT_255_1_234
10
16.73916
20
-0.3531247
40
0.3560327
50
359.8389159
51
8.4706516
0
ARC
8
DEFAULT_255_1_234
10
16.8017391
20
-0.3579863
40
0.2934776
50
337.4731098
51
0.7537279
0
ARC
8
DEFAULT_255_1_234
10
16.8196086
20
-0.3599613
40
0.2762607
50
307.5917067
51
336.4315538
0
ARC
8
DEFAULT_255_1_234
10
16.7735914
20
-0.3086898
40
0.3449979
50
307.6551545
51
308.4529766
0
ARC
8
DEFAULT_255_1_234
10
16.7505633
20
-0.273175
40
0.3871988
50
284.3734338
51
307.1424381
0
ARC
8
DEFAULT_255_1_234
10
16.7010463
20
-0.0910068
40
0.5759636
50
272.4382747
51
284.646547
0
ARC
8
DEFAULT_255_1_234
10
16.6883672
20
0.0889893
40
0.7563528
50
269.9708387
51
272.8178037
0
ARC
8
DEFAULT_255_1_234
10
16.6840711
20
-0.1148284
40
0.5525489
50
248.2707594
51
270.4055579
0
ARC
8
DEFAULT_255_1_234
10
16.6786453
20
-0.1338808
40
0.5328452
50
246.1383403
51
248.0542782
0
ARC
8
DEFAULT_255_1_234
10
16.6367832
20
-0.2218157
40
0.4355005
50
233.1670131
51
246.4950969
0
ARC
8
DEFAULT_255_1_234
10
16.5813736
20
-0.2966188
40
0.3424126
50
215.3403242
51
233.0843104
0
ARC
8
DEFAULT_255_1_234
10
16.5541168
20
-0.3164451
40
0.3087104
50
179.2419209
51
215.2648451
0
ARC
8
DEFAULT_255_1_234
10
16.6308762
20
-0.3150334
40
0.2304457
50
179.335461
51
199.1045811
0
ARC
8
DEFAULT_255_1_234
10
16.5976438
20
-0.3237234
40
0.1962176
50
199.8828939
51
232.7063202
0
ARC
8
DEFAULT_255_1_234
10
16.6448706
20
-0.2643212
40
0.2720938
50
232.3738199
51
255.5136649
0
ARC
8
DEFAULT_255_1_234
10
16.6789573
20
-0.1399165
40
0.4010747
50
255.2446292
51
267.5320849
0
ARC
8
DEFAULT_255_1_234
10
16.6877196
20
-0.0166298
40
0.5246356
50
267.1557994
51
270.0286766
0
ARC
8
DEFAULT_255_1_234
10
16.6904969
20
-0.061005
40
0.4802668
50
269.7000017
51
278.1660162
0
ARC
8
DEFAULT_255_1_234
10
16.7160974
20
-0.2340485
40
0.3053425
50
278.0231263
51
290.625471
0
ARC
8
DEFAULT_255_1_234
10
16.7508661
20
-0.3267975
40
0.206291
50
290.6619762
51
307.0370976
0
ARC
8
DEFAULT_255_1_234
10
16.780905
20
-0.3636496
40
0.1587906
50
306.3943566
51
355.3030547
0
ARC
8
DEFAULT_255_1_234
10
16.7296981
20
-0.3559887
40
0.2104809
50
354.3660432
51
0.0698737
0
ARC
8
DEFAULT_255_1_234
10
16.7439326
20
-0.3537383
40
0.1962563
50
359.417946
51
16.1971788
0
ARC
8
DEFAULT_255_1_234
10
16.7894637
20
-0.3412582
40
0.149053
50
16.4723299
51
52.6262157
0
ARC
8
DEFAULT_255_1_234
10
16.7073691
20
-0.4496567
40
0.2850296
50
52.7386432
51
62.4979148
0
ARC
8
DEFAULT_255_1_234
10
16.5688768
20
-0.7102717
40
0.5801521
50
62.2515216
51
68.1220564
0
ARC
8
DEFAULT_255_1_234
10
16.3968678
20
-1.1330128
40
1.0365451
50
68.0062803
51
71.8053402
0
ARC
8
DEFAULT_255_1_234
10
16.217305
20
-1.6715242
40
1.6042013
50
71.7183119
51
73.9258742
0
LINE
8
DEFAULT_255_1_234
10
17.578702
20
-0.0938974
11
17.578702
21
-0.2151766
0
LINE
8
DEFAULT_255_1_234
10
17.578702
20
-0.2151766
11
17.1867532
21
-0.2151766
0
LINE
8
DEFAULT_255_1_234
10
17.1867532
20
-0.2151766
11
17.1867532
21
-0.0938974
0
LINE
8
DEFAULT_255_1_234
10
17.1867532
20
-0.0938974
11
17.578702
21
-0.0938974
0
LINE
8
DEFAULT_255_1_234
10
18.4742408
20
-0.5300208
11
18.4742408
21
-0.6513
0
LINE
8
DEFAULT_255_1_234
10
18.4742408
20
-0.6513
11
17.708013
21
-0.6513
0
LINE
8
DEFAULT_255_1_234
10
17.708013
20
-0.6513
11
17.708013
21
-0.5444779
0
LINE
8
DEFAULT_255_1_234
10
17.708013
20
-0.5444779
11
18.1128126
21
-0.0947005
0
LINE
8
DEFAULT_255_1_234
10
17.8341113
20
0.1735595
11
17.6855241
21
0.1735595
0
LINE
8
DEFAULT_255_1_234
10
18.2003585
20
-0.1902782
11
17.8871208
21
-0.5300208
0
LINE
8
DEFAULT_255_1_234
10
17.8871208
20
-0.5300208
11
18.4742408
21
-0.5300208
0
ARC
8
DEFAULT_255_1_234
10
16.7637959
20
1.0982527
40
1.8008286
50
318.5132453
51
320.7828378
0
ARC
8
DEFAULT_255_1_234
10
17.2924934
20
0.6679426
40
1.1191493
50
320.7372736
51
323.9737074
0
ARC
8
DEFAULT_255_1_234
10
17.684479
20
0.3839361
40
0.6350923
50
323.8961724
51
328.6421089
0
ARC
8
DEFAULT_255_1_234
10
17.8891386
20
0.2577031
40
0.3946393
50
328.8299013
51
331.789948
0
ARC
8
DEFAULT_255_1_234
10
17.9888564
20
0.2062509
40
0.2824501
50
331.4255242
51
352.9364833
0
ARC
8
DEFAULT_255_1_234
10
18.0025065
20
0.2031976
40
0.2685315
50
353.2248685
51
0.0169286
0
ARC
8
DEFAULT_255_1_234
10
18.0234941
20
0.205495
40
0.2475536
50
359.4866256
51
15.9339782
0
ARC
8
DEFAULT_255_1_234
10
18.0741927
20
0.2191286
40
0.1950618
50
16.1714718
51
43.5284424
0
ARC
8
DEFAULT_255_1_234
10
18.0819235
20
0.2268573
40
0.184134
50
43.4415429
51
83.1661404
0
ARC
8
DEFAULT_255_1_234
10
18.0685153
20
0.1531771
40
0.258926
50
82.160215
51
90.1505798
0
ARC
8
DEFAULT_255_1_234
10
18.0653581
20
0.0994865
40
0.3126255
50
89.5460705
51
102.5418777
0
ARC
8
DEFAULT_255_1_234
10
18.0410667
20
0.2025665
40
0.2067346
50
102.1739365
51
129.2061916
0
ARC
8
DEFAULT_255_1_234
10
18.0331739
20
0.2150094
40
0.1921118
50
129.7279328
51
135.7542026
0
ARC
8
DEFAULT_255_1_234
10
18.0453266
20
0.2053045
40
0.2075944
50
136.175737
51
166.3674722
0
ARC
8
DEFAULT_255_1_234
10
18.1460186
20
0.1783182
40
0.3118201
50
165.9092917
51
178.8683903
0
ARC
8
DEFAULT_255_1_234
10
18.2325047
20
0.1736179
40
0.3983935
50
178.438168
51
180.0083905
0
ARC
8
DEFAULT_255_1_234
10
18.0923649
20
0.1775231
40
0.4068601
50
163.2878735
51
180.5581814
0
ARC
8
DEFAULT_255_1_234
10
18.012191
20
0.199584
40
0.3237344
50
133.454115
51
162.9470031
0
ARC
8
DEFAULT_255_1_234
10
18.0300452
20
0.1806
40
0.349795
50
100.7869394
51
133.4384016
0
ARC
8
DEFAULT_255_1_234
10
18.0648223
20
0.0257319
40
0.5084616
50
89.6605301
51
101.3704185
0
ARC
8
DEFAULT_255_1_234
10
18.0714562
20
0.0318496
40
0.502348
50
78.2171172
51
90.4130393
0
ARC
8
DEFAULT_255_1_234
10
18.106964
20
0.1942637
40
0.3361092
50
55.9268222
51
78.4888551
0
ARC
8
DEFAULT_255_1_234
10
18.1266081
20
0.2281324
40
0.2970617
50
47.9292255
51
55.4054003
0
ARC
8
DEFAULT_255_1_234
10
18.1367641
20
0.2384502
40
0.2825983
50
4.3347696
51
48.0560701
0
ARC
8
DEFAULT_255_1_234
10
18.0272035
20
0.2214601
40
0.393225
50
359.925209
51
5.5967654
0
ARC
8
DEFAULT_255_1_234
10
18.0700927
20
0.2270816
40
0.3503892
50
337.8914096
51
358.9967724
0
ARC
8
DEFAULT_255_1_234
10
17.7987339
20
0.3317706
40
0.6412172
50
326.9135351
51
338.3505194
0
ARC
8
DEFAULT_255_1_234
10
17.4001642
20
0.5872284
40
1.1146189
50
319.6472867
51
327.095818
0
ARC
8
DEFAULT_255_1_234
10
17.0168646
20
0.9034
40
1.6114559
50
317.2586784
51
319.9046139
0
ARC
8
DEFAULT_255_2_778
10
21.9705968
20
104.9064327
40
0.3998203
50
186.2132484
51
214.6493538
0
ARC
8
DEFAULT_255_2_778
10
21.8841482
20
104.8667342
40
0.306577
50
217.73315
51
266.8103771
0
ARC
8
DEFAULT_255_2_778
10
21.9236889
20
105.077346
40
0.5198043
50
263.7489618
51
266.7837018
0
ARC
8
DEFAULT_255_2_778
10
21.9002315
20
104.8832587
40
0.2400661
50
195.3205632
51
268.6379359
0
ARC
8
DEFAULT_255_2_778
10
22.1727069
20
105.0090098
40
0.5383454
50
193.3112816
51
200.5737177
0
ARC
8
DEFAULT_255_2_778
10
21.9557782
20
104.8562585
40
0.3083015
50
141.9315536
51
174.6395313
0
ARC
8
DEFAULT_255_2_778
10
21.8946342
20
104.8821429
40
0.2448175
50
90.025547
51
137.8738944
0
ARC
8
DEFAULT_255_2_778
10
21.8900516
20
104.9002521
40
0.3116405
50
89.1775175
51
162.365692
0
ARC
8
DEFAULT_255_2_778
10
22.1498498
20
104.768457
40
0.6009893
50
157.8900335
51
162.6116752
0
LINE
8
DEFAULT_255_2_778
10
18.967225
20
104.9509604
11
18.967225
21
104.8631604
0
LINE
8
DEFAULT_255_2_778
10
18.967225
20
104.8631604
11
21.573125
21
104.8631604
0
LINE
8
DEFAULT_255_2_778
10
21.894525
20
104.5583604
11
21.894525
21
104.6432604
0
LINE
8
DEFAULT_255_2_778
10
21.894525
20
105.1269604
11
21.894525
21
105.2118604
0
LINE
8
DEFAULT_255_2_778
10
21.576325
20
104.9480604
11
18.973525
21
104.9480604
0
ARC
8
DEFAULT_255_2_778
10
19.6924911
20
106.2365064
40
0.0240119
50
28.9725327
51
103.4850922
0
ARC
8
DEFAULT_255_2_778
10
19.6675258
20
106.0213978
40
0.2392435
50
85.3570436
51
90.3180147
0
ARC
8
DEFAULT_255_2_778
10
19.6830481
20
105.6242259
40
0.7359887
50
91.4445043
51
94.5082143
0
ARC
8
DEFAULT_255_2_778
10
19.6762883
20
105.8495799
40
0.510537
50
90.0204411
51
91.3236595
0
ARC
8
DEFAULT_255_2_778
10
19.6819035
20
106.1251894
40
0.234999
50
77.9191012
51
91.4136047
0
ARC
8
DEFAULT_255_2_778
10
19.7290393
20
106.3214469
40
0.0335995
50
19.4828986
51
86.5059996
0
ARC
8
DEFAULT_255_2_778
10
19.7399806
20
106.329061
40
0.0210433
50
359.8753665
51
9.8287108
0
ARC
8
DEFAULT_255_2_778
10
19.7114031
20
106.3339275
40
0.0498633
50
318.6549341
51
354.3463421
0
ARC
8
DEFAULT_255_2_778
10
19.5933
20
106.4216044
40
0.1968255
50
312.3913188
51
322.2071703
0
ARC
8
DEFAULT_255_2_778
10
19.7074994
20
106.2333784
40
0.0466808
50
7.8211356
51
66.6544263
0
ARC
8
DEFAULT_255_2_778
10
19.5739503
20
106.2055306
40
0.1830194
50
4.3516874
51
10.7699648
0
ARC
8
DEFAULT_255_2_778
10
19.7790881
20
106.2156912
40
0.0229506
50
170.6553415
51
230.4661874
0
ARC
8
DEFAULT_255_2_778
10
19.7669101
20
106.2061667
40
0.0085297
50
253.4430888
51
270.5900942
0
ARC
8
DEFAULT_255_2_778
10
19.6866504
20
106.303095
40
0.0341371
50
13.1090465
51
106.1583193
0
ARC
8
DEFAULT_255_2_778
10
19.6697504
20
106.1580182
40
0.1780193
50
87.6176468
51
90.0490737
0
ARC
8
DEFAULT_255_2_778
10
19.6795828
20
106.3548746
40
0.0666888
50
261.3891358
51
304.5653386
0
ARC
8
DEFAULT_255_2_778
10
19.7083184
20
106.3075951
40
0.0118802
50
319.9940947
51
0.6866831
0
ARC
8
DEFAULT_255_2_778
10
19.6912745
20
106.2794613
40
0.1602765
50
89.8843696
51
180.00852
0
ARC
8
DEFAULT_255_2_778
10
19.6921123
20
106.2796526
40
0.1600857
50
359.923006
51
90.1841118
0
ARC
8
DEFAULT_255_2_778
10
19.6920276
20
106.2792075
40
0.1601705
50
269.8462838
51
0.0822692
0
ARC
8
DEFAULT_255_2_778
10
19.6911681
20
106.2792074
40
0.1601705
50
179.9177057
51
270.1537517
0
ARC
8
DEFAULT_255_2_778
10
19.6944702
20
106.2805588
40
0.1256773
50
179.9900739
51
180.5112141
0
ARC
8
DEFAULT_255_2_778
10
19.6932324
20
106.2806978
40
0.1244397
50
135.616881
51
180.0539568
0
ARC
8
DEFAULT_255_2_778
10
19.6929982
20
106.2809377
40
0.1241046
50
90.5079979
51
135.6204406
0
ARC
8
DEFAULT_255_2_778
10
19.6907186
20
106.2809908
40
0.1240523
50
44.368794
51
89.4552913
0
ARC
8
DEFAULT_255_2_778
10
19.6904635
20
106.2806978
40
0.1244397
50
359.9460432
51
44.383119
0
ARC
8
DEFAULT_255_2_778
10
19.6892256
20
106.2805588
40
0.1256775
50
359.4887859
51
0.0099261
0
ARC
8
DEFAULT_255_2_778
10
19.6892212
20
106.2783161
40
0.1256817
50
359.9900717
51
0.5112118
0
ARC
8
DEFAULT_255_2_778
10
19.6902314
20
106.2781718
40
0.1246718
50
315.6604182
51
0.0563277
0
ARC
8
DEFAULT_255_2_778
10
19.6905411
20
106.278201
40
0.1244709
50
270.6245561
51
315.5511616
0
ARC
8
DEFAULT_255_2_778
10
19.6931761
20
106.2782548
40
0.1245239
50
224.4596468
51
269.4118891
0
ARC
8
DEFAULT_255_2_778
10
19.6934644
20
106.2781718
40
0.1246718
50
179.9436723
51
224.3395818
0
ARC
8
DEFAULT_255_2_778
10
19.6944746
20
106.2783161
40
0.1256819
50
179.4887882
51
180.0099283
0
LINE
8
DEFAULT_255_2_778
10
19.7671979
20
106.1979375
11
19.7262979
21
106.1979375
0
LINE
8
DEFAULT_255_2_778
10
19.7262979
20
106.1979375
11
19.7134979
21
106.2481375
0
LINE
8
DEFAULT_255_2_778
10
19.6661979
20
106.2606375
11
19.6661979
21
106.1979375
0
LINE
8
DEFAULT_255_2_778
10
19.6661979
20
106.1979375
11
19.6283979
21
106.1979375
0
LINE
8
DEFAULT_255_2_778
10
19.6283979
20
106.1979375
11
19.6251979
21
106.3579375
0
LINE
8
DEFAULT_255_2_778
10
19.7669979
20
106.1976375
11
19.7671979
21
106.1979375
0
LINE
8
DEFAULT_255_2_778
10
19.6695979
20
106.3360375
11
19.6695979
21
106.2889375
0
LINE
8
DEFAULT_255_2_778
10
19.5309979
20
106.2794375
11
19.5309979
21
106.2794375
0
LINE
8
DEFAULT_255_2_778
10
19.5687979
20
106.2794375
11
19.5687979
21
106.2794375
0
ARC
8
DEFAULT_255_2_778
10
19.5739995
20
105.2132562
40
0.4679169
50
114.816099
51
123.1671443
0
ARC
8
DEFAULT_255_2_778
10
19.524052
20
105.3221633
40
0.3481031
50
104.1803266
51
114.8776204
0
ARC
8
DEFAULT_255_2_778
10
19.5023429
20
105.4094534
40
0.2581547
50
90.3368173
51
104.2549448
0
ARC
8
DEFAULT_255_2_778
10
19.5036163
20
105.4835304
40
0.1840945
50
63.1258397
51
90.8686801
0
ARC
8
DEFAULT_255_2_778
10
19.5291143
20
105.5307442
40
0.1304613
50
15.1320717
51
63.7415875
0
ARC
8
DEFAULT_255_2_778
10
19.5491883
20
105.5386768
40
0.1090393
50
0.0473462
51
13.8618027
0
ARC
8
DEFAULT_255_2_778
10
19.5515456
20
105.5387625
40
0.1066819
50
356.2550712
51
0.0023505
0
ARC
8
DEFAULT_255_2_778
10
19.5419228
20
105.5412506
40
0.1164614
50
310.1750055
51
355.3427743
0
ARC
8
DEFAULT_255_2_778
10
19.4908137
20
105.5985087
40
0.1931944
50
288.8572085
51
310.8015881
0
ARC
8
DEFAULT_255_2_778
10
19.4433414
20
105.730877
40
0.3338085
50
275.3110996
51
289.2247685
0
ARC
8
DEFAULT_255_2_778
10
19.4242391
20
105.89378
40
0.4977958
50
269.8679804
51
275.7647658
0
ARC
8
DEFAULT_255_2_778
10
19.4233676
20
106.003531
40
0.6075455
50
267.4793058
51
269.9740161
0
ARC
8
DEFAULT_255_2_778
10
19.4257943
20
106.0638112
40
0.6678741
50
266.4216467
51
267.4987577
0
ARC
8
DEFAULT_255_2_778
10
19.422452
20
104.7720134
40
0.5604389
50
91.0217468
51
93.9229074
0
ARC
8
DEFAULT_255_2_778
10
19.421632
20
104.806433
40
0.5260103
50
90.0043513
51
90.9992991
0
ARC
8
DEFAULT_255_2_778
10
19.4248572
20
104.9100358
40
0.4224201
50
76.9825049
51
90.4428784
0
ARC
8
DEFAULT_255_2_778
10
19.4590596
20
105.0533148
40
0.275121
50
58.6325554
51
77.2011897
0
ARC
8
DEFAULT_255_2_778
10
19.5161406
20
105.1439596
40
0.1680195
50
29.9877642
51
59.1630288
0
ARC
8
DEFAULT_255_2_778
10
19.5599511
20
105.1713921
40
0.1163776
50
9.0489212
51
29.0705153
0
ARC
8
DEFAULT_255_2_778
10
19.5730912
20
105.1740276
40
0.1029877
50
0.0324126
51
8.7506937
0
ARC
8
DEFAULT_255_2_778
10
19.5688012
20
105.1759846
40
0.1072945
50
305.5021173
51
358.9859994
0
ARC
8
DEFAULT_255_2_778
10
19.5189388
20
105.2396115
40
0.1880848
50
283.9052409
51
306.6117621
0
ARC
8
DEFAULT_255_2_778
10
19.4842897
20
105.3691786
40
0.3221912
50
270.2533372
51
284.3492228
0
ARC
8
DEFAULT_255_2_778
10
19.4797621
20
105.4647522
40
0.4178041
50
269.9968243
51
270.8162745
0
ARC
8
DEFAULT_255_2_778
10
19.4811269
20
105.5381966
40
0.4912505
50
263.1637922
51
269.8381166
0
ARC
8
DEFAULT_255_2_778
10
19.4991981
20
105.6917433
40
0.6458567
50
257.6179181
51
263.1934389
0
ARC
8
DEFAULT_255_2_778
10
19.5387802
20
105.8735151
40
0.831888
50
252.9189114
51
257.6396732
0
ARC
8
DEFAULT_255_2_778
10
19.5797461
20
106.011657
40
0.9759703
50
251.5522315
51
253.0020903
0
ARC
8
DEFAULT_255_2_778
10
19.5248934
20
105.5632091
40
0.6169724
50
245.6907954
51
253.3086054
0
ARC
8
DEFAULT_255_2_778
10
19.4937986
20
105.4589052
40
0.5081326
50
253.2890695
51
262.3539513
0
ARC
8
DEFAULT_255_2_778
10
19.4835519
20
105.3861064
40
0.4346178
50
262.4158537
51
269.9226498
0
ARC
8
DEFAULT_255_2_778
10
19.4858877
20
105.3088156
40
0.3573384
50
269.531384
51
291.1392741
0
ARC
8
DEFAULT_255_2_778
10
19.5139103
20
105.2385904
40
0.2817342
50
290.9743163
51
319.8315111
0
ARC
8
DEFAULT_255_2_778
10
19.5703324
20
105.1922128
40
0.208706
50
319.5693811
51
352.147275
0
ARC
8
DEFAULT_255_2_778
10
19.6080843
20
105.1841331
40
0.170228
50
353.1052432
51
359.9694768
0
ARC
8
DEFAULT_255_2_778
10
19.619217
20
105.1840923
40
0.1590954
50
359.9820323
51
48.1680262
0
ARC
8
DEFAULT_255_2_778
10
19.5685344
20
105.1291109
40
0.2338675
50
47.8999999
51
68.5994477
0
ARC
8
DEFAULT_255_2_778
10
19.515911
20
105.0003112
40
0.3729934
50
68.2925482
51
81.2254538
0
ARC
8
DEFAULT_255_2_778
10
19.5841972
20
105.5168084
40
0.148307
50
265.5964328
51
269.9780427
0
ARC
8
DEFAULT_255_2_778
10
19.5760096
20
105.5234336
40
0.1551453
50
273.004087
51
349.8612615
0
ARC
8
DEFAULT_255_2_778
10
19.5123628
20
105.5525954
40
0.2236176
50
345.3721348
51
359.9751256
0
ARC
8
DEFAULT_255_2_778
10
19.5339585
20
105.5524983
40
0.2020219
50
4e-7
51
0.2280423
0
ARC
8
DEFAULT_255_2_778
10
19.5597555
20
105.5596481
40
0.1763376
50
357.9376831
51
63.2925076
0
ARC
8
DEFAULT_255_2_778
10
19.5460136
20
105.5181165
40
0.2197074
50
64.9591354
51
87.7288567
0
ARC
8
DEFAULT_255_2_778
10
19.538318
20
105.4402926
40
0.2978108
50
86.8427678
51
90.0256913
0
ARC
8
DEFAULT_255_2_778
10
19.5400484
20
105.3650446
40
0.3730632
50
90.2862735
51
99.8078285
0
ARC
8
DEFAULT_255_2_778
10
19.5660703
20
105.2108047
40
0.5294817
50
99.7394106
51
106.9636812
0
ARC
8
DEFAULT_255_2_778
10
19.623885
20
105.0185819
40
0.7302097
50
106.9021021
51
112.2967575
0
ARC
8
DEFAULT_255_2_778
10
19.7194539
20
104.7847038
40
0.9828604
50
112.2786278
51
116.8488609
0
LINE
8
DEFAULT_255_2_778
10
19.2755562
20
105.6616129
11
19.27541
21
105.6615392
0
LINE
8
DEFAULT_255_2_778
10
19.38411
20
105.3972392
11
19.38411
21
105.3311392
0
LINE
8
DEFAULT_255_2_778
10
19.27091
20
105.0858392
11
19.27091
21
105.0009392
0
LINE
8
DEFAULT_255_2_778
10
19.27541
20
105.6615392
11
19.32251
21
105.6001392
0
ARC
8
DEFAULT_255_2_778
10
21.6488206
20
105.3479013
40
0.5330281
50
158.8297779
51
180.8126209
0
ARC
8
DEFAULT_255_2_778
10
21.343991
20
105.4740829
40
0.2033429
50
124.0119958
51
160.9659866
0
ARC
8
DEFAULT_255_2_778
10
21.2740044
20
105.567462
40
0.0869831
50
90.4994457
51
120.2017555
0
ARC
8
DEFAULT_255_2_778
10
21.259695
20
105.5290586
40
0.1261132
50
24.6798401
51
83.8315083
0
ARC
8
DEFAULT_255_2_778
10
21.0022098
20
105.373952
40
0.4261556
50
6.130385
51
29.1785479
0
ARC
8
DEFAULT_255_2_778
10
20.8145698
20
105.3409702
40
0.6163766
50
359.941576
51
7.3161118
0
ARC
8
DEFAULT_255_2_778
10
20.8987917
20
105.3327366
40
0.5322088
50
338.8055679
51
0.8187669
0
ARC
8
DEFAULT_255_2_778
10
21.2030615
20
105.2066684
40
0.203082
50
303.9150541
51
340.932466
0
ARC
8
DEFAULT_255_2_778
10
21.2725052
20
105.1137902
40
0.0874515
50
270.4854298
51
300.1080748
0
ARC
8
DEFAULT_255_2_778
10
21.2868786
20
105.1520041
40
0.1263997
50
204.3281643
51
263.8084993
0
ARC
8
DEFAULT_255_2_778
10
21.5494907
20
105.3080123
40
0.4313014
50
185.613152
51
208.8453558
0
ARC
8
DEFAULT_255_2_778
10
21.7379678
20
105.3397819
40
0.6221217
50
179.9484445
51
186.8272745
0
ARC
8
DEFAULT_255_2_778
10
21.5393129
20
105.3444048
40
0.5243157
50
152.5254433
51
180.7827883
0
ARC
8
DEFAULT_255_2_778
10
21.3135207
20
105.4718837
40
0.2653266
50
108.4095367
51
154.4544086
0
ARC
8
DEFAULT_255_2_778
10
21.2764902
20
105.5506783
40
0.1791635
50
90.0140927
51
105.1293658
0
ARC
8
DEFAULT_255_2_778
10
21.2620587
20
105.4989205
40
0.231369
50
28.2822033
51
86.4348199
0
ARC
8
DEFAULT_255_2_778
10
21.0415486
20
105.3517258
40
0.4959362
50
2.837394
51
31.1881489
0
ARC
8
DEFAULT_255_2_778
10
20.9400984
20
105.3373304
40
0.5980477
50
359.9914968
51
3.7337628
0
ARC
8
DEFAULT_255_2_778
10
21.0133925
20
105.3301164
40
0.524802
50
332.6504535
51
0.7779361
0
ARC
8
DEFAULT_255_2_778
10
21.2392804
20
105.2031026
40
0.265965
50
288.44039
51
334.5981325
0
ARC
8
DEFAULT_255_2_778
10
21.2764066
20
105.1243438
40
0.1798021
50
270.0125899
51
285.1541198
0
ARC
8
DEFAULT_255_2_778
10
21.29065
20
105.1751186
40
0.2310141
50
208.1688806
51
266.4749618
0
ARC
8
DEFAULT_255_2_778
10
21.5126878
20
105.3225235
40
0.4969751
50
182.8019459
51
211.0671432
0
ARC
8
DEFAULT_255_2_778
10
21.6166146
20
105.3371537
40
0.6015684
50
179.9916184
51
183.7098813
0
LINE
8
DEFAULT_255_2_778
10
21.1158462
20
105.3403417
11
21.1158462
21
105.3403417
0
LINE
8
DEFAULT_255_2_778
10
21.0150462
20
105.3372417
11
21.0150462
21
105.3372417
0
ARC
8
DEFAULT_255_2_778
10
21.0564338
20
105.3479013
40
0.5330281
50
158.8297779
51
180.8126209
0
ARC
8
DEFAULT_255_2_778
10
20.7516043
20
105.4740829
40
0.2033429
50
124.0119958
51
160.9659866
0
ARC
8
DEFAULT_255_2_778
10
20.6816176
20
105.567462
40
0.0869831
50
90.4994457
51
120.2017555
0
ARC
8
DEFAULT_255_2_778
10
20.6673082
20
105.5290586
40
0.1261132
50
24.6798401
51
83.8315083
0
ARC
8
DEFAULT_255_2_778
10
20.4098231
20
105.373952
40
0.4261556
50
6.130385
51
29.1785479
0
ARC
8
DEFAULT_255_2_778
10
20.2221831
20
105.3409702
40
0.6163766
50
359.941576
51
7.3161118
0
ARC
8
DEFAULT_255_2_778
10
20.3064049
20
105.3327366
40
0.5322088
50
338.8055679
51
0.8187669
0
ARC
8
DEFAULT_255_2_778
10
20.6106747
20
105.2066684
40
0.203082
50
303.9150541
51
340.932466
0
ARC
8
DEFAULT_255_2_778
10
20.6801185
20
105.1137902
40
0.0874515
50
270.4854298
51
300.1080748
0
ARC
8
DEFAULT_255_2_778
10
20.6944918
20
105.1520041
40
0.1263997
50
204.3281643
51
263.8084993
0
ARC
8
DEFAULT_255_2_778
10
20.9571039
20
105.3080123
40
0.4313014
50
185.613152
51
208.8453558
0
ARC
8
DEFAULT_255_2_778
10
21.145581
20
105.3397819
40
0.6221217
50
179.9484445
51
186.8272745
0
ARC
8
DEFAULT_255_2_778
10
20.9469261
20
105.3444048
40
0.5243157
50
152.5254433
51
180.7827883
0
ARC
8
DEFAULT_255_2_778
10
20.7211339
20
105.4718837
40
0.2653266
50
108.4095367
51
154.4544086
0
ARC
8
DEFAULT_255_2_778
10
20.6841034
20
105.5506783
40
0.1791635
50
90.0140927
51
105.1293658
0
ARC
8
DEFAULT_255_2_778
10
20.6696719
20
105.4989205
40
0.231369
50
28.2822033
51
86.4348199
0
ARC
8
DEFAULT_255_2_778
10
20.4491618
20
105.3517258
40
0.4959362
50
2.837394
51
31.1881489
0
ARC
8
DEFAULT_255_2_778
10
20.3477116
20
105.3373304
40
0.5980477
50
359.9914968
51
3.7337628
0
ARC
8
DEFAULT_255_2_778
10
20.4210058
20
105.3301164
40
0.524802
50
332.6504535
51
0.7779361
0
ARC
8
DEFAULT_255_2_778
10
20.6468936
20
105.2031026
40
0.265965
50
288.44039
51
334.5981325
0
ARC
8
DEFAULT_255_2_778
10
20.6840199
20
105.1243438
40
0.1798021
50
270.0125899
51
285.1541198
0
ARC
8
DEFAULT_255_2_778
10
20.6982632
20
105.1751186
40
0.2310141
50
208.1688806
51
266.4749618
0
ARC
8
DEFAULT_255_2_778
10
20.920301
20
105.3225235
40
0.4969751
50
182.8019459
51
211.0671432
0
ARC
8
DEFAULT_255_2_778
10
21.0242279
20
105.3371537
40
0.6015684
50
179.9916184
51
183.7098813
0
LINE
8
DEFAULT_255_2_778
10
20.5234594
20
105.3403417
11
20.5234594
21
105.3403417
0
LINE
8
DEFAULT_255_2_778
10
20.4226594
20
105.3372417
11
20.4226594
21
105.3372417
0
ARC
8
DEFAULT_255_2_778
10
20.4640338
20
105.3479013
40
0.5330281
50
158.8297779
51
180.8126209
0
ARC
8
DEFAULT_255_2_778
10
20.1592043
20
105.4740829
40
0.2033429
50
124.0119958
51
160.9659866
0
ARC
8
DEFAULT_255_2_778
10
20.0892176
20
105.567462
40
0.0869831
50
90.4994457
51
120.2017555
0
ARC
8
DEFAULT_255_2_778
10
20.0749082
20
105.5290586
40
0.1261132
50
24.6798401
51
83.8315083
0
ARC
8
DEFAULT_255_2_778
10
19.8174231
20
105.373952
40
0.4261556
50
6.130385
51
29.1785479
0
ARC
8
DEFAULT_255_2_778
10
19.6297831
20
105.3409702
40
0.6163766
50
359.941576
51
7.3161118
0
ARC
8
DEFAULT_255_2_778
10
19.7140049
20
105.3327366
40
0.5322088
50
338.8055679
51
0.8187669
0
ARC
8
DEFAULT_255_2_778
10
20.0182747
20
105.2066684
40
0.203082
50
303.9150541
51
340.932466
0
ARC
8
DEFAULT_255_2_778
10
20.0877185
20
105.1137902
40
0.0874515
50
270.4854298
51
300.1080748
0
ARC
8
DEFAULT_255_2_778
10
20.1020918
20
105.1520041
40
0.1263997
50
204.3281643
51
263.8084993
0
ARC
8
DEFAULT_255_2_778
10
20.3647039
20
105.3080123
40
0.4313014
50
185.613152
51
208.8453558
0
ARC
8
DEFAULT_255_2_778
10
20.553181
20
105.3397819
40
0.6221217
50
179.9484445
51
186.8272745
0
ARC
8
DEFAULT_255_2_778
10
20.3542427
20
105.3444257
40
0.5240325
50
152.511927
51
180.7855003
0
ARC
8
DEFAULT_255_2_778
10
20.1281483
20
105.4723056
40
0.264594
50
107.9689651
51
154.4798484
0
ARC
8
DEFAULT_255_2_778
10
20.0919909
20
105.5501433
40
0.1796984
50
90.01006
51
104.6572928
0
ARC
8
DEFAULT_255_2_778
10
20.0777541
20
105.4992502
40
0.2310286
50
28.1748595
51
86.4748124
0
ARC
8
DEFAULT_255_2_778
10
19.8559078
20
105.3519241
40
0.4967862
50
2.8051578
51
31.0734515
0
ARC
8
DEFAULT_255_2_778
10
19.7523096
20
105.3373293
40
0.6010497
50
359.9916466
51
3.711491
0
ARC
8
DEFAULT_255_2_778
10
19.8283191
20
105.3301382
40
0.5250883
50
332.6639313
51
0.7751279
0
ARC
8
DEFAULT_255_2_778
10
20.0541076
20
105.203345
40
0.2664398
50
288.748604
51
334.5889087
0
ARC
8
DEFAULT_255_2_778
10
20.091909
20
105.1237814
40
0.1792398
50
270.0161048
51
285.4790874
0
ARC
8
DEFAULT_255_2_778
10
20.1063274
20
105.1755162
40
0.231421
50
208.2265906
51
266.4404307
0
ARC
8
DEFAULT_255_2_778
10
20.327262
20
105.3227124
40
0.4963409
50
182.827365
51
211.1367331
0
ARC
8
DEFAULT_255_2_778
10
20.4293456
20
105.3371562
40
0.5990863
50
179.9918267
51
183.7255174
0
LINE
8
DEFAULT_255_2_778
10
19.9310594
20
105.3403417
11
19.9310594
21
105.3403417
0
LINE
8
DEFAULT_255_2_778
10
19.8302594
20
105.3372417
11
19.8302594
21
105.3372417
0
ARC
8
DEFAULT_255_2_778
10
22.0340737
20
104.8894444
40
0.1933064
50
91.2007449
51
181.3742454
0
ARC
8
DEFAULT_255_2_778
10
22.0259721
20
104.8894444
40
0.1933064
50
358.6257546
51
88.7992551
0
ARC
8
DEFAULT_255_2_778
10
22.0260368
20
104.8801105
40
0.1932432
50
271.1819413
51
1.3930197
0
ARC
8
DEFAULT_255_2_778
10
22.0340093
20
104.8801106
40
0.1932434
50
178.6070028
51
268.8179775
0
LINE
8
DEFAULT_255_2_778
10
21.8408229
20
104.8848083
11
21.8408229
21
104.8848083
0
ARC
8
DEFAULT_255_2_778
10
22.5002079
20
104.8895071
40
0.1932422
50
91.1816293
51
181.3933249
0
ARC
8
DEFAULT_255_2_778
10
22.4921721
20
104.8894444
40
0.1933064
50
358.6257546
51
88.7992551
0
ARC
8
DEFAULT_255_2_778
10
22.4922368
20
104.8801105
40
0.1932432
50
271.1819413
51
1.3930197
0
ARC
8
DEFAULT_255_2_778
10
22.5001435
20
104.8800476
40
0.193179
50
178.5878493
51
268.8370891
0
LINE
8
DEFAULT_255_2_778
10
22.3070229
20
104.8848083
11
22.3070229
21
104.8848083
0
ARC
8
DEFAULT_255_2_778
10
22.9667079
20
104.9022071
40
0.1932422
50
91.1816293
51
181.3933249
0
ARC
8
DEFAULT_255_2_778
10
22.9586721
20
104.9021444
40
0.1933064
50
358.6257546
51
88.7992551
0
ARC
8
DEFAULT_255_2_778
10
22.9587368
20
104.8928105
40
0.1932432
50
271.1819413
51
1.3930197
0
ARC
8
DEFAULT_255_2_778
10
22.9666435
20
104.8927476
40
0.193179
50
178.5878493
51
268.8370891
0
LINE
8
DEFAULT_255_2_778
10
22.7735229
20
104.8975083
11
22.7735229
21
104.8975083
0
LINE
8
DEFAULT_255_2_778
10
21.8953365
20
104.641124
11
21.8662365
21
104.645924
0
LINE
8
DEFAULT_255_2_778
10
21.8662365
20
104.645924
11
21.8056365
21
104.655724
0
LINE
8
DEFAULT_255_2_778
10
21.8056365
20
104.655724
11
21.7296365
21
104.713924
0
LINE
8
DEFAULT_255_2_778
10
21.7296365
20
104.713924
11
21.6725365
21
104.789624
0
LINE
8
DEFAULT_255_2_778
10
21.6725365
20
104.789624
11
21.6473365
21
104.883024
0
LINE
8
DEFAULT_255_2_778
10
21.6473365
20
104.883024
11
21.6725365
21
104.976624
0
LINE
8
DEFAULT_255_2_778
10
21.6725365
20
104.976624
11
21.7291365
21
105.053424
0
LINE
8
DEFAULT_255_2_778
10
21.7291365
20
105.053424
11
21.8050365
21
105.112924
0
LINE
8
DEFAULT_255_2_778
10
21.8050365
20
105.112924
11
21.8662365
21
105.122924
0
LINE
8
DEFAULT_255_2_778
10
21.8662365
20
105.122924
11
21.8955365
21
105.127724
0
LINE
8
DEFAULT_255_2_778
10
21.8955365
20
104.558124
11
21.8543365
21
104.563624
0
LINE
8
DEFAULT_255_2_778
10
21.8543365
20
104.563624
11
21.7704365
21
104.575024
0
LINE
8
DEFAULT_255_2_778
10
21.7704365
20
104.575024
11
21.6680365
21
104.649624
0
LINE
8
DEFAULT_255_2_778
10
21.6680365
20
104.649624
11
21.5947365
21
104.748324
0
LINE
8
DEFAULT_255_2_778
10
21.5947365
20
104.748324
11
21.5730365
21
104.863924
0
ARC
8
DEFAULT_255_2_778
10
8.4839378
20
105.8808433
40
0.4373747
50
56.3665942
51
72.7074496
0
ARC
8
DEFAULT_255_2_778
10
8.5212053
20
105.9944036
40
0.3178747
50
73.036784
51
89.7973226
0
ARC
8
DEFAULT_255_2_778
10
8.5285513
20
105.9720167
40
0.3403165
50
91.0475309
51
125.5485458
0
ARC
8
DEFAULT_255_2_778
10
8.6942904
20
105.7231582
40
0.6392287
50
124.6669492
51
139.114563
0
ARC
8
DEFAULT_255_2_778
10
8.9357319
20
105.4997476
40
0.9680575
50
138.4713305
51
142.1157612
0
ARC
8
DEFAULT_255_2_778
10
8.5582787
20
105.5304798
40
0.5212765
50
117.7453356
51
135.8758074
0
ARC
8
DEFAULT_255_2_778
10
8.4611378
20
105.7128273
40
0.3146729
50
90.4656379
51
117.5483702
0
ARC
8
DEFAULT_255_2_778
10
8.4550272
20
105.6975634
40
0.3299454
50
64.3679478
51
89.3829577
0
ARC
8
DEFAULT_255_2_778
10
8.4227062
20
105.6159901
40
0.4175182
50
64.8738747
51
65.2115951
0
LINE
8
DEFAULT_255_2_778
10
8.1716896
20
106.0942008
11
8.1716896
21
106.2702008
0
LINE
8
DEFAULT_255_2_778
10
8.1716896
20
106.2702008
11
7.8313896
21
106.2702008
0
LINE
8
DEFAULT_255_2_778
10
7.8313896
20
106.2702008
11
7.8313896
21
105.0515008
0
LINE
8
DEFAULT_255_2_778
10
7.8313896
20
105.0515008
11
8.1967896
21
105.0515008
0
LINE
8
DEFAULT_255_2_778
10
8.1967896
20
105.0515008
11
8.1840896
21
105.8934008
0
LINE
8
DEFAULT_255_2_778
10
8.5999896
20
105.9940008
11
8.7261896
21
106.2450008
0
ARC
8
DEFAULT_255_2_778
10
12.3459297
20
105.4389166
40
0.1058286
50
290.4109967
51
338.4144294
0
ARC
8
DEFAULT_255_2_778
10
12.161995
20
105.808021
40
0.5177505
50
282.5203845
51
295.2483499
0
ARC
8
DEFAULT_255_2_778
10
12.2164596
20
105.6746179
40
0.3756367
50
270.2518229
51
277.9224239
0
ARC
8
DEFAULT_255_2_778
10
12.2019255
20
105.4621058
40
0.163922
50
191.9135594
51
275.6664103
0
ARC
8
DEFAULT_255_2_778
10
12.266424
20
105.5896972
40
0.6680449
50
207.8643513
51
221.7718618
0
ARC
8
DEFAULT_255_2_778
10
12.0489477
20
105.3832613
40
0.3684417
50
220.3588923
51
270.0277924
0
ARC
8
DEFAULT_255_2_778
10
12.0434926
20
105.5153085
40
0.5005206
50
270.6449322
51
287.6494066
0
ARC
8
DEFAULT_255_2_778
10
11.9529907
20
105.8112608
40
0.8099892
50
287.4026496
51
297.6988649
0
ARC
8
DEFAULT_255_2_778
10
11.7449905
20
106.2144576
40
1.2636684
50
297.5514274
51
304.3018591
0
LINE
8
DEFAULT_255_2_778
10
12.0415344
20
105.4282664
11
12.0351344
21
106.2762664
0
LINE
8
DEFAULT_255_2_778
10
12.0351344
20
106.2762664
11
11.6758344
21
106.2762664
0
LINE
8
DEFAULT_255_2_778
10
11.6758344
20
106.2762664
11
11.6758344
21
105.2774664
0
LINE
8
DEFAULT_255_2_778
10
12.4571344
20
105.1705664
11
12.4698344
21
105.0575664
0
LINE
8
DEFAULT_255_2_778
10
12.4698344
20
105.0575664
11
12.8101344
21
105.0575664
0
LINE
8
DEFAULT_255_2_778
10
12.8101344
20
105.0575664
11
12.8101344
21
106.2889664
0
LINE
8
DEFAULT_255_2_778
10
12.8101344
20
106.2889664
11
12.4444344
21
106.2889664
0
LINE
8
DEFAULT_255_2_778
10
12.4444344
20
106.2889664
11
12.4444344
21
105.3967664
0
LINE
8
DEFAULT_255_2_778
10
15.1797344
20
105.0512664
11
15.1797344
21
106.2826664
0
LINE
8
DEFAULT_255_2_778
10
15.1797344
20
106.2826664
11
15.5453344
21
106.2826664
0
LINE
8
DEFAULT_255_2_778
10
15.5453344
20
106.2826664
11
15.5453344
21
105.0512664
0
LINE
8
DEFAULT_255_2_778
10
15.5453344
20
105.0512664
11
15.1797344
21
105.0512664
0
ARC
8
DEFAULT_255_2_778
10
15.3647435
20
106.675366
40
0.1978332
50
90.7257917
51
180.9507563
0
ARC
8
DEFAULT_255_2_778
10
15.3597161
20
106.6754493
40
0.1977501
50
359.0247012
51
89.2694187
0
ARC
8
DEFAULT_255_2_778
10
15.3597161
20
106.6687174
40
0.1977501
50
270.7305813
51
0.9752988
0
ARC
8
DEFAULT_255_2_778
10
15.3647435
20
106.6688007
40
0.1978332
50
179.0492437
51
269.2742083
0
LINE
8
DEFAULT_255_2_778
10
15.1669375
20
106.6720833
11
15.1669375
21
106.6720833
0
LINE
8
DEFAULT_255_2_778
10
16.8727729
20
105.0479854
11
16.8727729
21
106.2793854
0
LINE
8
DEFAULT_255_2_778
10
16.8727729
20
106.2793854
11
17.2384729
21
106.2793854
0
LINE
8
DEFAULT_255_2_778
10
17.2384729
20
106.2793854
11
17.2384729
21
105.0479854
0
LINE
8
DEFAULT_255_2_778
10
17.2384729
20
105.0479854
11
16.8727729
21
105.0479854
0
ARC
8
DEFAULT_255_2_778
10
17.0581435
20
106.672166
40
0.1978332
50
90.7257917
51
180.9507563
0
ARC
8
DEFAULT_255_2_778
10
17.0531161
20
106.6722493
40
0.1977501
50
359.0247012
51
89.2694187
0
ARC
8
DEFAULT_255_2_778
10
17.0531161
20
106.6655174
40
0.1977501
50
270.7305813
51
0.9752988
0
ARC
8
DEFAULT_255_2_778
10
17.0581435
20
106.6656007
40
0.1978332
50
179.0492437
51
269.2742083
0
LINE
8
DEFAULT_255_2_778
10
16.8603375
20
106.6688833
11
16.8603375
21
106.6688833
0
ARC
8
DEFAULT_255_2_778
10
13.7517901
20
105.4609013
40
0.434232
50
284.0737984
51
307.1283935
0
ARC
8
DEFAULT_255_2_778
10
13.660277
20
105.7974778
40
0.7829896
50
272.5675489
51
284.5802087
0
ARC
8
DEFAULT_255_2_778
10
13.6343582
20
106.1563726
40
1.1427274
50
269.9523961
51
273.0596894
0
ARC
8
DEFAULT_255_2_778
10
13.6382461
20
106.5380502
40
1.5244123
50
264.3721605
51
269.8181894
0
ARC
8
DEFAULT_255_2_778
10
13.7027307
20
107.2098242
40
2.1992727
50
260.3040359
51
264.4165702
0
ARC
8
DEFAULT_255_2_778
10
13.7920328
20
107.7622479
40
2.75885
50
259.2299789
51
260.4081406
0
ARC
8
DEFAULT_255_2_778
10
13.5129832
20
105.6118106
40
0.6077178
50
188.8927198
51
247.0988028
0
ARC
8
DEFAULT_255_2_778
10
13.8555322
20
105.702954
40
0.9609548
50
185.1081288
51
191.1050073
0
ARC
8
DEFAULT_255_2_778
10
13.7233219
20
105.6304493
40
0.8250312
50
161.5072483
51
180.9066349
0
ARC
8
DEFAULT_255_2_778
10
13.474388
20
105.709195
40
0.5639907
50
120.4701872
51
161.0725957
0
ARC
8
DEFAULT_255_2_778
10
13.5600359
20
105.6424593
40
0.6661417
50
90.0499347
51
123.9108507
0
ARC
8
DEFAULT_255_2_778
10
13.5729457
20
105.4859303
40
0.8227812
50
89.9974966
51
90.9394619
0
ARC
8
DEFAULT_255_2_778
10
13.5669956
20
105.3248917
40
0.9838382
50
77.8335832
51
89.6513936
0
ARC
8
DEFAULT_255_2_778
10
13.4795112
20
104.9069877
40
1.4107957
50
69.8093959
51
77.9373312
0
ARC
8
DEFAULT_255_2_778
10
13.3759492
20
104.6052231
40
1.7297745
50
69.0266426
51
70.0397415
0
ARC
8
DEFAULT_255_2_778
10
13.5343166
20
104.6271487
40
1.4359408
50
73.9178594
51
79.2452957
0
ARC
8
DEFAULT_255_2_778
10
13.6318162
20
105.1474429
40
0.9065925
50
79.1629935
51
86.6049203
0
ARC
8
DEFAULT_255_2_778
10
13.6498447
20
105.3987653
40
0.654651
50
86.8774046
51
89.9568351
0
ARC
8
DEFAULT_255_2_778
10
13.6423726
20
105.6360348
40
0.4174572
50
88.9067133
51
108.0688095
0
ARC
8
DEFAULT_255_2_778
10
13.5851449
20
105.8097782
40
0.2345328
50
107.942404
51
152.2459688
0
ARC
8
DEFAULT_255_2_778
10
14.2992743
20
105.4795195
40
1.0210941
50
154.5072776
51
162.5682748
0
ARC
8
DEFAULT_255_2_778
10
13.9273295
20
105.5942637
40
0.6318603
50
162.3915767
51
174.8213024
0
ARC
8
DEFAULT_255_2_778
10
13.7621865
20
105.6130744
40
0.4657093
50
175.2922289
51
179.9490984
0
ARC
8
DEFAULT_255_2_778
10
13.6350307
20
105.6056851
40
0.338643
50
178.6796766
51
234.9381893
0
ARC
8
DEFAULT_255_2_778
10
13.632674
20
105.61735
40
0.3469445
50
236.3635337
51
264.9414885
0
ARC
8
DEFAULT_255_2_778
10
13.6587382
20
105.7928364
40
0.5241505
50
263.7947872
51
270.1188666
0
ARC
8
DEFAULT_255_2_778
10
13.6534653
20
106.0302235
40
0.7615633
50
270.4785196
51
281.0719661
0
ARC
8
DEFAULT_255_2_778
10
13.5691544
20
106.4840841
40
1.2231753
50
280.8649891
51
287.2606546
0
ARC
8
DEFAULT_255_2_778
10
14.6238917
20
107.3170098
40
2.2970478
50
276.5245429
51
279.5045514
0
ARC
8
DEFAULT_255_2_778
10
14.6892816
20
106.7393746
40
1.7157236
50
272.7759418
51
276.5469051
0
ARC
8
DEFAULT_255_2_778
10
14.7090708
20
106.3591172
40
1.3349546
50
270.0439674
51
272.7180028
0
ARC
8
DEFAULT_255_2_778
10
14.7004544
20
105.8909578
40
0.8668484
50
258.6359382
51
270.6372354
0
ARC
8
DEFAULT_255_2_778
10
14.6077963
20
105.4550325
40
0.4212409
50
235.5405817
51
259.3086539
0
ARC
8
DEFAULT_255_2_778
10
14.5467089
20
105.3477012
40
0.2983588
50
181.5929591
51
233.550276
0
ARC
8
DEFAULT_255_2_778
10
14.744928
20
105.3776621
40
0.4979343
50
179.9387066
51
184.4062155
0
ARC
8
DEFAULT_255_2_778
10
14.8384963
20
105.4737319
40
0.2332136
50
194.3846046
51
259.805052
0
ARC
8
DEFAULT_255_2_778
10
14.9431283
20
105.8389805
40
0.6124159
50
256.2164989
51
270.9014371
0
ARC
8
DEFAULT_255_2_778
10
14.9522592
20
106.2059208
40
0.9792806
50
270.0294815
51
272.249316
0
LINE
8
DEFAULT_255_2_778
10
15.5955939
20
106.2761948
11
15.9421939
21
106.2761948
0
LINE
8
DEFAULT_255_2_778
10
15.9421939
20
106.2761948
11
16.2130939
21
105.5348948
0
LINE
8
DEFAULT_255_2_778
10
16.2130939
20
105.5348948
11
16.4839939
21
106.2825948
0
LINE
8
DEFAULT_255_2_778
10
16.4839939
20
106.2825948
11
16.7927939
21
106.2825948
0
LINE
8
DEFAULT_255_2_778
10
16.7927939
20
106.2825948
11
16.2884939
21
105.0323948
0
LINE
8
DEFAULT_255_2_778
10
16.2884939
20
105.0323948
11
16.0677939
21
105.0323948
0
LINE
8
DEFAULT_255_2_778
10
16.0677939
20
105.0323948
11
15.5955939
21
106.2761948
0
LINE
8
DEFAULT_255_2_778
10
6.2181939
20
106.9045948
11
6.3001939
21
106.9045948
0
LINE
8
DEFAULT_255_2_778
10
6.3001939
20
106.9045948
11
6.3001939
21
104.9476948
0
LINE
8
DEFAULT_255_2_778
10
6.3001939
20
104.9476948
11
18.5069939
21
104.9445948
0
LINE
8
DEFAULT_255_2_778
10
18.5069939
20
104.9445948
11
18.5101939
21
104.8627948
0
LINE
8
DEFAULT_255_2_778
10
18.5101939
20
104.8627948
11
6.2181939
21
104.8627948
0
LINE
8
DEFAULT_255_2_778
10
6.2181939
20
104.8627948
11
6.2181939
21
106.8982948
0
LINE
8
DEFAULT_255_2_778
10
13.9381939
20
105.3157948
11
14.0138939
21
105.1146948
0
LINE
8
DEFAULT_255_2_778
10
13.9950939
20
106.2203948
11
13.9320939
21
106.0068948
0
LINE
8
DEFAULT_255_2_778
10
14.2469939
20
105.3781948
11
14.2469939
21
106.0689948
0
LINE
8
DEFAULT_255_2_778
10
14.2469939
20
106.0689948
11
14.0577939
21
106.0689948
0
LINE
8
DEFAULT_255_2_778
10
14.0577939
20
106.0689948
11
14.0577939
21
106.2825948
0
LINE
8
DEFAULT_255_2_778
10
14.0577939
20
106.2825948
11
14.2469939
21
106.2825948
0
LINE
8
DEFAULT_255_2_778
10
14.2469939
20
106.2825948
11
14.3855939
21
106.7849948
0
LINE
8
DEFAULT_255_2_778
10
14.3855939
20
106.7849948
11
14.5998939
21
106.7849948
0
LINE
8
DEFAULT_255_2_778
10
14.5998939
20
106.7849948
11
14.6125939
21
106.2825948
0
LINE
8
DEFAULT_255_2_778
10
14.6125939
20
106.2825948
11
14.9528939
21
106.2825948
0
LINE
8
DEFAULT_255_2_778
10
14.9528939
20
106.2825948
11
14.9528939
21
106.0689948
0
LINE
8
DEFAULT_255_2_778
10
14.9528939
20
106.0689948
11
14.6125939
21
106.0689948
0
LINE
8
DEFAULT_255_2_778
10
14.6125939
20
106.0689948
11
14.6125939
21
105.4157948
0
LINE
8
DEFAULT_255_2_778
10
14.9906939
20
105.2273948
11
15.0031939
21
105.0514948
0
ARC
8
DEFAULT_255_2_778
10
18.2773623
20
104.9107188
40
0.588729
50
314.1492215
51
331.9331811
0
ARC
8
DEFAULT_255_2_778
10
18.4149706
20
104.7704819
40
0.3922582
50
269.0327782
51
313.9945782
0
ARC
8
DEFAULT_255_2_778
10
18.4132762
20
104.9627141
40
0.5844552
50
255.6362987
51
269.5169802
0
ARC
8
DEFAULT_255_2_778
10
18.4884838
20
105.2661704
40
0.8970861
50
246.6814554
51
255.7910989
0
ARC
8
DEFAULT_255_2_778
10
18.6133117
20
105.5692814
40
1.2248623
50
243.4464445
51
246.9318311
0
ARC
8
DEFAULT_255_2_778
10
18.337299
20
104.9984468
40
0.3644339
50
238.6793577
51
269.7549067
0
ARC
8
DEFAULT_255_2_778
10
18.3337129
20
105.0328517
40
0.3988407
50
270.291204
51
286.0311052
0
ARC
8
DEFAULT_255_2_778
10
18.3184816
20
104.8551248
40
0.2408146
50
301.3744029
51
328.6018723
0
ARC
8
DEFAULT_255_2_778
10
17.8323748
20
105.1819545
40
0.8264122
50
326.8184964
51
337.3943856
0
ARC
8
DEFAULT_255_2_778
10
16.7747134
20
105.6400751
40
1.978979
50
336.9203071
51
342.1242923
0
ARC
8
DEFAULT_255_2_778
10
18.1004201
20
105.4440584
40
0.1954042
50
190.120766
51
263.958695
0
ARC
8
DEFAULT_255_2_778
10
18.1765701
20
105.7466775
40
0.5062622
50
258.9866291
51
270.5697296
0
ARC
8
DEFAULT_255_2_778
10
18.1794576
20
106.0641093
40
0.8236717
50
270.1493118
51
275.0745303
0
ARC
8
DEFAULT_255_2_778
10
18.1624298
20
106.2812074
40
1.0414275
50
274.9512067
51
276.4741818
0
ARC
8
DEFAULT_255_2_778
10
17.886645
20
107.5368897
40
2.5191229
50
276.512331
51
279.4178265
0
ARC
8
DEFAULT_255_2_778
10
17.9624852
20
106.8667793
40
1.844735
50
272.9000807
51
276.5325546
0
ARC
8
DEFAULT_255_2_778
10
17.9861545
20
106.424706
40
1.4020311
50
270.0526278
51
272.8480745
0
ARC
8
DEFAULT_255_2_778
10
17.9781162
20
105.9159763
40
0.8933496
50
259.5051122
51
270.5981508
0
ARC
8
DEFAULT_255_2_778
10
17.8879991
20
105.4550767
40
0.4237712
50
238.7045764
51
260.1348639
0
ARC
8
DEFAULT_255_2_778
10
17.8042044
20
105.3087066
40
0.2552092
50
181.2540346
51
237.7100784
0
LINE
8
DEFAULT_255_2_778
10
11.0900564
20
106.0068213
11
11.0900564
21
105.3785213
0
ARC
8
DEFAULT_255_2_778
10
10.4261476
20
106.5707238
40
1.3645958
50
292.82637
51
299.1123799
0
ARC
8
DEFAULT_255_2_778
10
10.6927129
20
105.9288896
40
0.6696238
50
282.4400197
51
293.1090634
0
ARC
8
DEFAULT_255_2_778
10
10.7657535
20
105.6040188
40
0.3366487
50
270.5781586
51
282.2114611
0
ARC
8
DEFAULT_255_2_778
10
10.7638219
20
105.4380025
40
0.1706983
50
241.3905381
51
271.7888651
0
ARC
8
DEFAULT_255_2_778
10
10.747728
20
105.4012111
40
0.1307392
50
222.8359183
51
239.8616768
0
ARC
8
DEFAULT_255_2_778
10
10.8384234
20
105.5255377
40
0.2833169
50
195.5790395
51
228.8136819
0
ARC
8
DEFAULT_255_2_778
10
11.2237911
20
105.6493199
40
0.6879504
50
182.8967157
51
196.8898295
0
ARC
8
DEFAULT_255_2_778
10
11.7306858
20
105.6914695
40
1.1964408
50
179.9092738
51
183.6859184
0
ARC
8
DEFAULT_255_2_778
10
12.0984338
20
105.6918685
40
1.564188
50
177.2644099
51
179.9452207
0
ARC
8
DEFAULT_255_2_778
10
10.9853029
20
105.7456643
40
0.4497586
50
177.2655023
51
177.3418803
0
ARC
8
DEFAULT_255_2_778
10
11.0005314
20
105.7023533
40
0.4689689
50
149.0265023
51
172.0616653
0
ARC
8
DEFAULT_255_2_778
10
10.8347129
20
105.792706
40
0.2804063
50
88.5402025
51
147.4185874
0
ARC
8
DEFAULT_255_2_778
10
10.765833
20
105.2427465
40
0.833748
50
72.0191589
51
84.7683475
0
ARC
8
DEFAULT_255_2_778
10
10.8835174
20
105.6216106
40
0.4370876
50
61.8010517
51
71.3613167
0
ARC
8
DEFAULT_255_2_778
10
10.4736514
20
106.2910849
40
1.2921636
50
287.0718407
51
298.4918193
0
ARC
8
DEFAULT_255_2_778
10
10.6329455
20
105.7675683
40
0.744952
50
270.6824619
51
287.1805816
0
ARC
8
DEFAULT_255_2_778
10
10.6417292
20
105.6013517
40
0.5786826
50
267.7347632
51
270.0088495
0
ARC
8
DEFAULT_255_2_778
10
10.6222828
20
105.4423284
40
0.4192211
50
203.9093897
51
269.5317059
0
ARC
8
DEFAULT_255_2_778
10
11.0897602
20
105.7016638
40
0.9528801
50
192.6009015
51
206.7737237
0
ARC
8
DEFAULT_255_2_778
10
11.4915698
20
105.8099942
40
1.3687639
50
192.6165694
51
193.3570279
0
ARC
8
DEFAULT_255_2_778
10
11.1913353
20
105.7043735
40
1.0533763
50
182.6397763
51
190.5768818
0
ARC
8
DEFAULT_255_2_778
10
11.0376686
20
105.6947963
40
0.899435
50
180.0132575
51
182.4811747
0
ARC
8
DEFAULT_255_2_778
10
10.8120158
20
105.7106787
40
0.6739744
50
136.7445348
51
181.3680168
0
ARC
8
DEFAULT_255_2_778
10
10.662935
20
105.7991022
40
0.5062158
50
89.2409074
51
132.4668673
0
ARC
8
DEFAULT_255_2_778
10
10.6695554
20
105.6891706
40
0.6161029
50
87.804633
51
89.9919934
0
ARC
8
DEFAULT_255_2_778
10
10.680803
20
105.1474251
40
1.1574622
50
70.3133819
51
89.3884771
0
ARC
8
DEFAULT_255_2_778
10
10.5904169
20
104.843122
40
1.4745303
50
70.1933816
51
70.9898699
0
ARC
8
DEFAULT_255_2_778
10
9.3624696
20
105.6732942
40
0.1950108
50
91.6788031
51
181.813939
0
ARC
8
DEFAULT_255_2_778
10
9.3510433
20
105.6732942
40
0.1950108
50
358.186061
51
88.3211969
0
ARC
8
DEFAULT_255_2_778
10
9.3510433
20
105.6609484
40
0.1950108
50
271.6788031
51
1.813939
0
ARC
8
DEFAULT_255_2_778
10
9.3624696
20
105.6609484
40
0.1950108
50
178.186061
51
268.3211969
0
ARC
8
DEFAULT_255_2_778
10
9.5083893
20
105.6738546
40
0.4667814
50
145.0334623
51
180.8265163
0
ARC
8
DEFAULT_255_2_778
10
9.3653444
20
105.7815342
40
0.2879151
50
91.7092739
51
146.2799614
0
ARC
8
DEFAULT_255_2_778
10
9.3415333
20
105.7646136
40
0.3050877
50
23.4934874
51
87.1398977
0
ARC
8
DEFAULT_255_2_778
10
9.1870608
20
105.6707144
40
0.484809
50
359.5753549
51
26.3944218
0
ARC
8
DEFAULT_255_2_778
10
9.2053251
20
105.6603715
40
0.4665802
50
325.0256173
51
0.8288991
0
ARC
8
DEFAULT_255_2_778
10
9.3481982
20
105.5528215
40
0.2879274
50
271.7032906
51
326.2656695
0
ARC
8
DEFAULT_255_2_778
10
9.3719326
20
105.5697077
40
0.3050641
50
203.5053918
51
267.1485008
0
ARC
8
DEFAULT_255_2_778
10
9.5262703
20
105.6635158
40
0.4846274
50
179.5737352
51
206.399488
0
ARC
8
DEFAULT_255_2_778
10
9.3457714
20
105.6482876
40
0.6699322
50
95.9543621
51
178.9279918
0
ARC
8
DEFAULT_255_2_778
10
9.3689297
20
105.5794797
40
0.7409416
50
89.9824665
51
97.1836307
0
ARC
8
DEFAULT_255_2_778
10
9.3734037
20
105.609749
40
0.710685
50
48.754652
51
90.3424168
0
ARC
8
DEFAULT_255_2_778
10
9.4191906
20
105.6592682
40
0.6432677
50
0.1383337
51
48.9131618
0
ARC
8
DEFAULT_255_2_778
10
9.3926363
20
105.673368
40
0.6699376
50
275.9481082
51
358.9268911
0
ARC
8
DEFAULT_255_2_778
10
9.3693839
20
105.7425136
40
0.7412923
50
269.9824166
51
277.18192
0
ARC
8
DEFAULT_255_2_778
10
9.3648797
20
105.7115078
40
0.7102994
50
228.4135848
51
270.3449845
0
ARC
8
DEFAULT_255_2_778
10
9.3190178
20
105.6623099
40
0.6430631
50
180.1326312
51
228.5603801
0
ARC
8
DEFAULT_255_2_778
10
6.8108339
20
106.3578423
40
0.4410946
50
358.399361
51
20.0218069
0
ARC
8
DEFAULT_255_2_778
10
7.0253177
20
106.4339374
40
0.2135292
50
20.5419455
51
86.7410997
0
ARC
8
DEFAULT_255_2_778
10
6.9405407
20
106.3940724
40
0.314934
50
287.9227005
51
351.1869993
0
ARC
8
DEFAULT_255_2_778
10
7.0384907
20
106.3426459
40
0.6187549
50
4.9300483
51
29.901288
0
ARC
8
DEFAULT_255_2_778
10
7.1431875
20
106.3837073
40
0.5077965
50
31.774244
51
73.6174038
0
ARC
8
DEFAULT_255_2_778
10
7.0079481
20
106.0024064
40
0.9120309
50
72.2224415
51
84.9672302
0
ARC
8
DEFAULT_255_2_778
10
6.9734901
20
106.7659382
40
0.9424937
50
276.9758239
51
292.3160184
0
ARC
8
DEFAULT_255_2_778
10
7.1528558
20
106.3583093
40
0.4974119
50
291.0316637
51
353.5367683
0
ARC
8
DEFAULT_255_2_778
10
6.8831249
20
106.4135383
40
0.7720348
50
351.7170585
51
358.6850323
0
LINE
8
DEFAULT_255_2_778
10
18.0657564
20
104.4736213
11
18.1478564
21
104.6871213
0
LINE
8
DEFAULT_255_2_778
10
18.6581564
20
105.0326213
11
18.2295564
21
106.0629213
0
LINE
8
DEFAULT_255_2_778
10
18.2295564
20
106.0629213
11
17.9080564
21
106.0629213
0
LINE
8
DEFAULT_255_2_778
10
17.9080564
20
106.0629213
11
17.9080564
21
105.4097213
0
LINE
8
DEFAULT_255_2_778
10
18.2798564
20
105.2464213
11
18.2988564
21
105.0517213
0
LINE
8
DEFAULT_255_2_778
10
17.5490564
20
105.3031213
11
17.5363564
21
106.0695213
0
LINE
8
DEFAULT_255_2_778
10
17.5363564
20
106.0695213
11
17.3471564
21
106.0695213
0
LINE
8
DEFAULT_255_2_778
10
17.3471564
20
106.0695213
11
17.3471564
21
106.2831213
0
LINE
8
DEFAULT_255_2_778
10
17.3471564
20
106.2831213
11
17.5487564
21
106.2831213
0
LINE
8
DEFAULT_255_2_778
10
17.5487564
20
106.2831213
11
17.6747564
21
106.7855213
0
LINE
8
DEFAULT_255_2_778
10
17.6747564
20
106.7855213
11
17.8890564
21
106.7855213
0
LINE
8
DEFAULT_255_2_778
10
17.8890564
20
106.7855213
11
17.9017564
21
106.2831213
0
LINE
8
DEFAULT_255_2_778
10
17.9017564
20
106.2831213
11
18.5319564
21
106.2831213
0
LINE
8
DEFAULT_255_2_778
10
18.5319564
20
106.2831213
11
18.8343564
21
105.4539213
0
LINE
8
DEFAULT_255_2_778
10
18.8343564
20
105.4539213
11
19.1368564
21
106.2831213
0
LINE
8
DEFAULT_255_2_778
10
19.1368564
20
106.2831213
11
19.4519564
21
106.2831213
0
LINE
8
DEFAULT_255_2_778
10
19.4519564
20
106.2831213
11
18.7965564
21
104.6371213
0
LINE
8
DEFAULT_255_2_778
10
11.0900564
20
106.0068213
11
11.0900564
21
106.0068213
0
LINE
8
DEFAULT_255_2_778
10
11.0900564
20
106.2302213
11
11.0900564
21
106.9826213
0
LINE
8
DEFAULT_255_2_778
10
11.0900564
20
106.9826213
11
11.4538564
21
107.0239213
0
LINE
8
DEFAULT_255_2_778
10
11.4538564
20
107.0239213
11
11.4538564
21
105.0562213
0
LINE
8
DEFAULT_255_2_778
10
11.4538564
20
105.0562213
11
11.0982564
21
105.0562213
0
LINE
8
DEFAULT_255_2_778
10
11.0982564
20
105.0562213
11
11.0900564
21
105.1554213
0
LINE
8
DEFAULT_255_2_778
10
11.0900564
20
106.2304213
11
11.0900564
21
106.2302213
0
LINE
8
DEFAULT_255_2_778
10
9.1675564
20
105.6671213
11
9.1675564
21
105.6671213
0
LINE
8
DEFAULT_255_2_778
10
9.0416564
20
105.6671213
11
9.0416564
21
105.6671213
0
LINE
8
DEFAULT_255_2_778
10
8.6759564
20
105.6608213
11
8.6759564
21
105.6608213
0
LINE
8
DEFAULT_255_2_778
10
7.0374564
20
106.6471213
11
6.7728564
21
106.6471213
0
LINE
8
DEFAULT_255_2_778
10
6.7728564
20
106.6471213
11
6.7728564
21
106.0944213
0
LINE
8
DEFAULT_255_2_778
10
6.7728564
20
106.0944213
11
7.0374564
21
106.0944213
0
LINE
8
DEFAULT_255_2_778
10
7.2517564
20
106.3458213
11
7.2517564
21
106.3455213
0
LINE
8
DEFAULT_255_2_778
10
7.0879564
20
106.9109213
11
6.3820564
21
106.9109213
0
LINE
8
DEFAULT_255_2_778
10
6.3820564
20
106.9109213
11
6.3820564
21
105.0514213
0
LINE
8
DEFAULT_255_2_778
10
6.3820564
20
105.0514213
11
6.7728564
21
105.0514213
0
LINE
8
DEFAULT_255_2_778
10
6.7728564
20
105.0514213
11
6.7728564
21
105.8304213
0
LINE
8
DEFAULT_255_2_778
10
6.7728564
20
105.8304213
11
7.0879564
21
105.8304213
0
LINE
8
DEFAULT_255_2_778
10
7.6549564
20
106.3958213
11
7.6549564
21
106.3958213
0
LINE
8
DEFAULT_255_1_234
10
8.5489344
20
102.3325091
11
8.2734458
21
102.3325091
0
LINE
8
DEFAULT_255_1_234
10
8.2734458
20
102.3325091
11
8.2734458
21
101.8747
0
LINE
8
DEFAULT_255_1_234
10
8.2734458
20
101.8747
11
8.1192364
21
101.8747
0
LINE
8
DEFAULT_255_1_234
10
8.1192364
20
101.8747
11
8.1192364
21
103.0441211
0
LINE
8
DEFAULT_255_1_234
10
8.1192364
20
103.0441211
11
8.5505407
21
103.0441211
0
LINE
8
DEFAULT_255_1_234
10
8.2734458
20
102.9172196
11
8.2734458
21
102.4586074
0
LINE
8
DEFAULT_255_1_234
10
8.2734458
20
102.4586074
11
8.5505407
21
102.4586074
0
LINE
8
DEFAULT_255_1_234
10
8.5593756
20
102.9172196
11
8.2734458
21
102.9172196
0
ARC
8
DEFAULT_255_1_234
10
8.5547534
20
102.4382195
40
0.6059162
50
78.8378113
51
90.3983573
0
ARC
8
DEFAULT_255_1_234
10
8.5963548
20
102.6402879
40
0.3996205
50
58.9632738
51
79.0810598
0
ARC
8
DEFAULT_255_1_234
10
8.626509
20
102.6962721
40
0.3361177
50
48.0197965
51
58.447194
0
ARC
8
DEFAULT_255_1_234
10
8.6353951
20
102.7048225
40
0.3238191
50
3.3375044
51
48.1766626
0
ARC
8
DEFAULT_255_1_234
10
8.512379
20
102.6871171
40
0.4477806
50
359.9477528
51
4.6829065
0
ARC
8
DEFAULT_255_1_234
10
8.5247107
20
102.6828628
40
0.4354656
50
346.1877825
51
0.5060252
0
ARC
8
DEFAULT_255_1_234
10
8.6605975
20
102.6475731
40
0.295089
50
310.8831995
51
346.5426355
0
ARC
8
DEFAULT_255_1_234
10
8.6297395
20
102.6892695
40
0.3468331
50
286.6925341
51
310.2288297
0
ARC
8
DEFAULT_255_1_234
10
8.5728226
20
102.8682882
40
0.5346654
50
274.6850312
51
287.0245141
0
ARC
8
DEFAULT_255_1_234
10
8.5502949
20
103.0891932
40
0.7566852
50
269.8969846
51
275.018904
0
ARC
8
DEFAULT_255_1_234
10
8.553054
20
102.8812707
40
0.4226708
50
269.6593078
51
279.4153575
0
ARC
8
DEFAULT_255_1_234
10
8.5787815
20
102.7322133
40
0.2714146
50
279.2049762
51
294.9900808
0
ARC
8
DEFAULT_255_1_234
10
8.6078141
20
102.6674508
40
0.2004525
50
295.2888114
51
311.2911209
0
ARC
8
DEFAULT_255_1_234
10
8.6149035
20
102.656922
40
0.1878703
50
311.7854996
51
347.2861051
0
ARC
8
DEFAULT_255_1_234
10
8.5165194
20
102.6822092
40
0.2894234
50
346.6893224
51
0.1059443
0
ARC
8
DEFAULT_255_1_234
10
8.4410089
20
102.6850685
40
0.3649409
50
359.6350983
51
0.0053152
0
ARC
8
DEFAULT_255_1_234
10
8.5380417
20
102.6875937
40
0.2679199
50
359.4672059
51
15.5933957
0
ARC
8
DEFAULT_255_1_234
10
8.6005306
20
102.7044779
40
0.2031932
50
15.7442113
51
46.6203375
0
ARC
8
DEFAULT_255_1_234
10
8.5857527
20
102.6874484
40
0.2257226
50
46.8628658
51
75.6676503
0
ARC
8
DEFAULT_255_1_234
10
8.5563347
20
102.5815718
40
0.3355939
50
75.276167
51
88.2915297
0
ARC
8
DEFAULT_255_1_234
10
8.5505054
20
102.4937524
40
0.4235602
50
87.8575022
51
88.8000139
0
LINE
8
DEFAULT_255_1_234
10
9.5537048
20
102.7485531
11
9.5537048
21
102.6104072
0
LINE
8
DEFAULT_255_1_234
10
9.2822321
20
102.4915375
11
9.2822321
21
101.8747
0
LINE
8
DEFAULT_255_1_234
10
9.2822321
20
101.8747
11
9.1336449
21
101.8747
0
LINE
8
DEFAULT_255_1_234
10
9.1336449
20
101.8747
11
9.1336449
21
102.7437341
0
LINE
8
DEFAULT_255_1_234
10
9.1336449
20
102.7437341
11
9.2782162
21
102.7437341
0
LINE
8
DEFAULT_255_1_234
10
9.2782162
20
102.7437341
11
9.2806257
21
102.6433374
0
ARC
8
DEFAULT_255_1_234
10
9.4870454
20
102.2044342
40
0.4114092
50
80.6754243
51
86.8932892
0
ARC
8
DEFAULT_255_1_234
10
9.4809988
20
102.10767
40
0.5083596
50
86.8038578
51
90.0431435
0
ARC
8
DEFAULT_255_1_234
10
9.4772969
20
102.3533866
40
0.2626638
50
89.2759698
51
106.6213787
0
ARC
8
DEFAULT_255_1_234
10
9.4568533
20
102.427683
40
0.1856317
50
107.1346045
51
157.6458115
0
ARC
8
DEFAULT_255_1_234
10
9.5260134
20
102.3893311
40
0.2643398
50
155.6586782
51
157.2539184
0
ARC
8
DEFAULT_255_1_234
10
9.5055337
20
102.5062157
40
0.2634121
50
127.8165941
51
148.6302098
0
ARC
8
DEFAULT_255_1_234
10
9.4801806
20
102.5322218
40
0.2273596
50
91.3329982
51
126.7875809
0
ARC
8
DEFAULT_255_1_234
10
9.4877746
20
102.4607195
40
0.299078
50
89.986594
51
92.4688449
0
ARC
8
DEFAULT_255_1_234
10
9.4886141
20
102.4882078
40
0.2715908
50
85.3589899
51
90.1623399
0
ARC
8
DEFAULT_255_1_234
10
9.4970657
20
102.5886164
40
0.1708278
50
78.401942
51
85.4594656
0
ARC
8
DEFAULT_255_1_234
10
9.5115541
20
102.6577236
40
0.1002194
50
67.7858312
51
78.5728455
0
ARC
8
DEFAULT_255_1_234
10
9.5223393
20
102.6856887
40
0.0702548
50
63.4835954
51
67.3062642
0
LINE
8
DEFAULT_255_1_234
10
9.6348254
20
102.3068075
11
9.6348254
21
102.3172488
0
LINE
8
DEFAULT_255_1_234
10
10.4259516
20
102.3100202
11
10.4259516
21
102.299579
0
ARC
8
DEFAULT_255_1_234
10
10.1934433
20
102.3204837
40
0.5586273
50
166.3003825
51
180.3317926
0
ARC
8
DEFAULT_255_1_234
10
10.1071593
20
102.3397964
40
0.4702272
50
153.8608245
51
166.0967125
0
ARC
8
DEFAULT_255_1_234
10
10.0405995
20
102.375475
40
0.3947658
50
135.1316692
51
154.253643
0
ARC
8
DEFAULT_255_1_234
10
10.0127555
20
102.4000666
40
0.3576898
50
121.7044358
51
134.776924
0
ARC
8
DEFAULT_255_1_234
10
10.0194548
20
102.3871867
40
0.3721701
50
93.4002104
51
121.5398234
0
ARC
8
DEFAULT_255_1_234
10
10.0289504
20
102.3046228
40
0.4551749
50
89.9706281
51
93.9769836
0
ARC
8
DEFAULT_255_1_234
10
10.0336596
20
102.3436362
40
0.4161854
50
71.3323442
51
90.6161982
0
ARC
8
DEFAULT_255_1_234
10
10.0499293
20
102.4038578
40
0.3539455
50
41.1815071
51
70.707185
0
ARC
8
DEFAULT_255_1_234
10
10.0021693
20
102.3604919
40
0.4184468
50
12.1971897
51
41.3445735
0
ARC
8
DEFAULT_255_1_234
10
9.80957
20
102.3146425
40
0.616399
50
359.5703439
51
12.5804035
0
ARC
8
DEFAULT_255_1_234
10
9.8568775
20
102.2964116
40
0.5690829
50
347.0197749
51
0.3188898
0
ARC
8
DEFAULT_255_1_234
10
9.9527277
20
102.2757808
40
0.4710501
50
334.3504053
51
346.846361
0
ARC
8
DEFAULT_255_1_234
10
10.0372701
20
102.2318805
40
0.3758475
50
310.422922
51
334.8045033
0
ARC
8
DEFAULT_255_1_234
10
10.0454526
20
102.2254782
40
0.3656736
50
301.8486886
51
310.097356
0
ARC
8
DEFAULT_255_1_234
10
10.0422252
20
102.2330638
40
0.3738224
50
274.307774
51
301.655379
0
ARC
8
DEFAULT_255_1_234
10
10.031156
20
102.3208361
40
0.4621997
50
269.9546461
51
274.8588071
0
ARC
8
DEFAULT_255_1_234
10
10.0262493
20
102.2707249
40
0.4121134
50
250.888809
51
270.631312
0
ARC
8
DEFAULT_255_1_234
10
10.0112413
20
102.2148277
40
0.3544073
50
221.1701932
51
250.2227191
0
ARC
8
DEFAULT_255_1_234
10
10.0596568
20
102.2589439
40
0.4198961
50
191.6263638
51
221.3526367
0
ARC
8
DEFAULT_255_1_234
10
10.2484563
20
102.3026329
40
0.6136451
50
179.610213
51
192.0693181
0
ARC
8
DEFAULT_255_1_234
10
10.2907791
20
102.2963633
40
0.5065736
50
179.636298
51
190.6162791
0
ARC
8
DEFAULT_255_1_234
10
10.1265459
20
102.264359
40
0.3392576
50
190.4136628
51
208.7170242
0
ARC
8
DEFAULT_255_1_234
10
10.0755084
20
102.2390366
40
0.2823401
50
209.1867941
51
217.4225593
0
ARC
8
DEFAULT_255_1_234
10
10.0225918
20
102.1924558
40
0.2120636
50
216.1156896
51
265.2575835
0
ARC
8
DEFAULT_255_1_234
10
10.0305066
20
102.2498109
40
0.2698952
50
264.5897417
51
270.0601757
0
ARC
8
DEFAULT_255_1_234
10
10.0338127
20
102.2118185
40
0.2319225
50
269.2532621
51
291.8792492
0
ARC
8
DEFAULT_255_1_234
10
10.0367348
20
102.1940238
40
0.2143562
50
292.9269754
51
323.1776747
0
ARC
8
DEFAULT_255_1_234
10
9.997417
20
102.2288452
40
0.2667346
50
322.2518483
51
323.0930371
0
ARC
8
DEFAULT_255_1_234
10
9.9679829
20
102.246999
40
0.3011886
50
323.6941278
51
343.8493282
0
ARC
8
DEFAULT_255_1_234
10
9.8101372
20
102.295035
40
0.4661719
50
343.5748474
51
355.0079071
0
ARC
8
DEFAULT_255_1_234
10
9.6093618
20
102.3158424
40
0.6680042
50
354.7285225
51
0.1206288
0
ARC
8
DEFAULT_255_1_234
10
9.7862084
20
102.3204751
40
0.4911667
50
359.623636
51
11.2015604
0
ARC
8
DEFAULT_255_1_234
10
9.9396311
20
102.352064
40
0.3345323
50
10.9989411
51
30.8319188
0
ARC
8
DEFAULT_255_1_234
10
9.9792184
20
102.3729297
40
0.2898553
50
31.3008956
51
37.3959224
0
ARC
8
DEFAULT_255_1_234
10
10.0288762
20
102.4148653
40
0.2249582
50
36.5915954
51
62.2442953
0
ARC
8
DEFAULT_255_1_234
10
10.0335216
20
102.4145602
40
0.2231053
50
63.3365542
51
89.7195421
0
ARC
8
DEFAULT_255_1_234
10
10.0292069
20
102.3576884
40
0.2800267
50
88.8936788
51
90.0047485
0
ARC
8
DEFAULT_255_1_234
10
10.0260429
20
102.4149787
40
0.2227586
50
89.1921125
51
114.7099455
0
ARC
8
DEFAULT_255_1_234
10
10.0289193
20
102.4187628
40
0.2205633
50
115.7997161
51
142.2900762
0
ARC
8
DEFAULT_255_1_234
10
10.0727925
20
102.3797658
40
0.2791541
50
141.4658779
51
142.3795754
0
ARC
8
DEFAULT_255_1_234
10
10.083683
20
102.3754557
40
0.2904292
50
143.0175714
51
163.234115
0
ARC
8
DEFAULT_255_1_234
10
10.2415002
20
102.3255054
40
0.4559523
50
162.9447461
51
174.3732162
0
ARC
8
DEFAULT_255_1_234
10
10.4560816
20
102.3014143
40
0.6718682
50
174.1228657
51
180.1565175
0
LINE
8
DEFAULT_255_1_234
10
10.5761451
20
102.3052012
11
10.5761451
21
102.3164456
0
LINE
8
DEFAULT_255_1_234
10
11.1608557
20
102.655385
11
11.1608557
21
103.108375
0
LINE
8
DEFAULT_255_1_234
10
11.1608557
20
103.108375
11
11.3094428
21
103.108375
0
LINE
8
DEFAULT_255_1_234
10
11.3094428
20
103.108375
11
11.3094428
21
101.8747
0
LINE
8
DEFAULT_255_1_234
10
11.3094428
20
101.8747
11
11.1729033
21
101.8747
0
LINE
8
DEFAULT_255_1_234
10
11.1729033
20
101.8747
11
11.1656747
21
101.9678682
0
LINE
8
DEFAULT_255_1_234
10
11.1608557
20
102.1116363
11
11.1608557
21
102.5108137
0
ARC
8
DEFAULT_255_1_234
10
11.2636605
20
102.3208457
40
0.6875294
50
169.1661407
51
180.3666851
0
ARC
8
DEFAULT_255_1_234
10
11.044025
20
102.3646387
40
0.4635805
50
150.2838427
51
169.3798909
0
ARC
8
DEFAULT_255_1_234
10
10.9806867
20
102.3970238
40
0.392532
50
142.1062393
51
149.806405
0
ARC
8
DEFAULT_255_1_234
10
10.9234599
20
102.4468749
40
0.3167807
50
118.4283255
51
142.8643566
0
ARC
8
DEFAULT_255_1_234
10
10.9135944
20
102.4531137
40
0.3066506
50
89.9199246
51
117.3621547
0
ARC
8
DEFAULT_255_1_234
10
10.9190923
20
102.3773731
40
0.3824245
50
89.9987914
51
90.7595231
0
ARC
8
DEFAULT_255_1_234
10
10.9228314
20
102.4008667
40
0.3589502
50
72.8978905
51
90.5955712
0
ARC
8
DEFAULT_255_1_234
10
10.9426262
20
102.4723123
40
0.2848505
50
39.9932841
51
72.477307
0
ARC
8
DEFAULT_255_1_234
10
10.939701
20
102.1510579
40
0.2908996
50
275.084999
51
320.969419
0
ARC
8
DEFAULT_255_1_234
10
10.918273
20
102.2777893
40
0.4191533
50
269.8935077
51
276.4672393
0
ARC
8
DEFAULT_255_1_234
10
10.9114745
20
102.1510703
40
0.2924958
50
222.0839186
51
271.1792213
0
ARC
8
DEFAULT_255_1_234
10
10.9725255
20
102.2135816
40
0.3797413
50
217.5160585
51
222.9101888
0
ARC
8
DEFAULT_255_1_234
10
11.0219094
20
102.2475781
40
0.4396261
50
193.0962774
51
217.1109254
0
ARC
8
DEFAULT_255_1_234
10
11.2176193
20
102.2964128
40
0.6413192
50
181.1070734
51
193.3838631
0
ARC
8
DEFAULT_255_1_234
10
11.3842252
20
102.3050869
40
0.8080801
50
179.9919009
51
181.4937549
0
ARC
8
DEFAULT_255_1_234
10
11.3025854
20
102.296472
40
0.5778615
50
179.6919417
51
188.6549204
0
ARC
8
DEFAULT_255_1_234
10
11.100627
20
102.2646672
40
0.3734182
50
188.4936033
51
202.2187731
0
ARC
8
DEFAULT_255_1_234
10
11.0038978
20
102.2263391
40
0.2693801
50
202.4517848
51
215.9307642
0
ARC
8
DEFAULT_255_1_234
10
10.9446424
20
102.1791191
40
0.1937215
50
214.9062306
51
264.2077075
0
ARC
8
DEFAULT_255_1_234
10
10.9540252
20
102.238915
40
0.2541804
50
263.4637896
51
270.0934907
0
ARC
8
DEFAULT_255_1_234
10
10.9580169
20
102.2297045
40
0.2449958
50
269.1634649
51
291.0931088
0
ARC
8
DEFAULT_255_1_234
10
10.9661874
20
102.1964994
40
0.2111194
50
292.2674853
51
328.1937478
0
ARC
8
DEFAULT_255_1_234
10
10.8970292
20
102.2464026
40
0.2962539
50
327.0410354
51
332.9414029
0
ARC
8
DEFAULT_255_1_234
10
10.938349
20
102.3940886
40
0.2512647
50
27.6811062
51
48.7893196
0
ARC
8
DEFAULT_255_1_234
10
10.9666771
20
102.4201916
40
0.2130039
50
49.8959006
51
87.010286
0
ARC
8
DEFAULT_255_1_234
10
10.9562629
20
102.3414504
40
0.292249
50
85.7764096
51
90.0424572
0
ARC
8
DEFAULT_255_1_234
10
10.9533345
20
102.4074006
40
0.2263149
50
89.313423
51
109.4265906
0
ARC
8
DEFAULT_255_1_234
10
10.9459056
20
102.4378962
40
0.1951098
50
110.3478057
51
145.1577858
0
ARC
8
DEFAULT_255_1_234
10
11.0112849
20
102.390275
40
0.2759807
50
144.7982748
51
162.8715388
0
ARC
8
DEFAULT_255_1_234
10
11.1807499
20
102.3357842
40
0.453983
50
162.5984223
51
173.3418672
0
ARC
8
DEFAULT_255_1_234
10
11.4475277
20
102.3026851
40
0.7228019
50
173.1877442
51
180.2462216
0
LINE
8
DEFAULT_255_1_234
10
12.0796865
20
101.8747
11
12.0764738
21
101.9606396
0
LINE
8
DEFAULT_255_1_234
10
11.536741
20
102.1782997
11
11.536741
21
102.7437341
0
LINE
8
DEFAULT_255_1_234
10
11.536741
20
102.7437341
11
11.6853282
21
102.7437341
0
LINE
8
DEFAULT_255_1_234
10
11.6853282
20
102.7437341
11
11.6853282
21
102.1823156
0
LINE
8
DEFAULT_255_1_234
10
12.072458
20
102.1116363
11
12.072458
21
102.7437341
0
LINE
8
DEFAULT_255_1_234
10
12.072458
20
102.7437341
11
12.2210451
21
102.7437341
0
LINE
8
DEFAULT_255_1_234
10
12.2210451
20
102.7437341
11
12.2210451
21
101.8747
0
LINE
8
DEFAULT_255_1_234
10
12.2210451
20
101.8747
11
12.0796865
21
101.8747
0
ARC
8
DEFAULT_255_1_234
10
11.8649203
20
102.142406
40
0.2789157
50
282.5436552
51
319.3308843
0
ARC
8
DEFAULT_255_1_234
10
11.8262036
20
102.2930137
40
0.4343667
50
269.8917857
51
283.214153
0
ARC
8
DEFAULT_255_1_234
10
11.8218721
20
102.4090183
40
0.5503818
50
269.9995424
51
270.3655186
0
ARC
8
DEFAULT_255_1_234
10
11.8188197
20
102.239953
40
0.3813286
50
257.7355913
51
270.4579866
0
ARC
8
DEFAULT_255_1_234
10
11.7890896
20
102.1100503
40
0.2480795
50
233.3384413
51
258.0721298
0
ARC
8
DEFAULT_255_1_234
10
11.7756503
20
102.0881041
40
0.2224626
50
221.9626381
51
232.7401232
0
ARC
8
DEFAULT_255_1_234
10
11.8036552
20
102.109633
40
0.2576959
50
197.9450831
51
221.3585622
0
ARC
8
DEFAULT_255_1_234
10
11.9431747
20
102.1572997
40
0.4051213
50
185.8088195
51
198.2790125
0
ARC
8
DEFAULT_255_1_234
10
12.132355
20
102.1797963
40
0.5956158
50
180.1439627
51
186.1199408
0
ARC
8
DEFAULT_255_1_234
10
12.0422418
20
102.178756
40
0.3569313
50
179.4285986
51
191.0735588
0
ARC
8
DEFAULT_255_1_234
10
11.8738846
20
102.1440017
40
0.1850421
50
190.5251661
51
212.6990766
0
ARC
8
DEFAULT_255_1_234
10
11.8274639
20
102.118383
40
0.1321852
50
214.2246197
51
264.4398755
0
ARC
8
DEFAULT_255_1_234
10
11.8451975
20
102.2093426
40
0.224609
50
262.1850223
51
270.1952455
0
ARC
8
DEFAULT_255_1_234
10
11.8493865
20
102.3369524
40
0.3522342
50
269.4431043
51
282.9585023
0
ARC
8
DEFAULT_255_1_234
10
11.8830555
20
102.1999561
40
0.2111871
50
282.391263
51
311.9722193
0
ARC
8
DEFAULT_255_1_234
10
11.8838152
20
102.1926809
40
0.2053153
50
313.1724425
51
336.7506893
0
LINE
8
DEFAULT_255_1_234
10
13.0001237
20
102.1485823
11
13.1406792
21
102.1485823
0
LINE
8
DEFAULT_255_1_234
10
12.4081846
20
102.3011853
11
12.4081846
21
102.3260837
0
LINE
8
DEFAULT_255_1_234
10
13.1406792
20
102.4449534
11
13.0001237
21
102.4449534
0
LINE
8
DEFAULT_255_1_234
10
12.5567718
20
102.3204615
11
12.5567718
21
102.2923504
0
ARC
8
DEFAULT_255_1_234
10
12.7989273
20
102.1939121
40
0.2140268
50
269.0327816
51
309.2224514
0
ARC
8
DEFAULT_255_1_234
10
12.8199027
20
102.1724108
40
0.1841255
50
308.396669
51
329.6984113
0
ARC
8
DEFAULT_255_1_234
10
12.8336882
20
102.161982
40
0.166974
50
330.401383
51
355.3970571
0
ARC
8
DEFAULT_255_1_234
10
12.8793748
20
102.1637082
40
0.2617417
50
329.2357853
51
356.6870514
0
ARC
8
DEFAULT_255_1_234
10
12.824377
20
102.1927971
40
0.3238945
50
324.8706984
51
329.7905871
0
ARC
8
DEFAULT_255_1_234
10
12.8165489
20
102.1995106
40
0.3341614
50
298.8769168
51
324.7016144
0
ARC
8
DEFAULT_255_1_234
10
12.783368
20
102.2523917
40
0.3965068
50
296.9023738
51
299.385174
0
ARC
8
DEFAULT_255_1_234
10
12.7963294
20
102.2236422
40
0.365007
50
269.8406811
51
297.1299281
0
ARC
8
DEFAULT_255_1_234
10
12.790995
20
102.2874407
40
0.4288259
50
253.315473
51
270.5771285
0
ARC
8
DEFAULT_255_1_234
10
12.7662985
20
102.1980739
40
0.3361372
50
221.1002312
51
252.9744583
0
ARC
8
DEFAULT_255_1_234
10
12.8122983
20
102.237559
40
0.3967576
50
194.5394537
51
221.0302238
0
ARC
8
DEFAULT_255_1_234
10
12.9971804
20
102.2890952
40
0.5886672
50
182.0499201
51
194.8773585
0
ARC
8
DEFAULT_255_1_234
10
13.1742002
20
102.300906
40
0.7660157
50
179.9791086
51
182.4591564
0
ARC
8
DEFAULT_255_1_234
10
13.0004046
20
102.3290498
40
0.5922274
50
168.614861
51
180.2869651
0
ARC
8
DEFAULT_255_1_234
10
12.8802191
20
102.3526269
40
0.4697532
50
154.9162259
51
168.5402336
0
ARC
8
DEFAULT_255_1_234
10
12.7880699
20
102.398163
40
0.3669966
50
133.5746694
51
155.2558665
0
ARC
8
DEFAULT_255_1_234
10
12.7717857
20
102.4120467
40
0.3457206
50
122.0165146
51
133.2055214
0
ARC
8
DEFAULT_255_1_234
10
12.7753696
20
102.4032361
40
0.355095
50
97.8731644
51
121.7531281
0
ARC
8
DEFAULT_255_1_234
10
12.7932779
20
102.2975159
40
0.4622833
50
89.8471353
51
98.2769494
0
ARC
8
DEFAULT_255_1_234
10
12.7981531
20
102.3585091
40
0.401305
50
73.3760412
51
90.5199766
0
ARC
8
DEFAULT_255_1_234
10
12.8177895
20
102.4307516
40
0.3264695
50
47.7085968
51
73.0509704
0
ARC
8
DEFAULT_255_1_234
10
12.8307765
20
102.4420128
40
0.309407
50
3.7443473
51
48.0843753
0
ARC
8
DEFAULT_255_1_234
10
12.7320714
20
102.4262614
40
0.4090351
50
2.6192045
51
5.0432185
0
ARC
8
DEFAULT_255_1_234
10
12.7777568
20
102.4302592
40
0.2228519
50
3.780656
51
23.9356886
0
ARC
8
DEFAULT_255_1_234
10
12.8006184
20
102.4383155
40
0.198697
50
24.4869552
51
46.9440088
0
ARC
8
DEFAULT_255_1_234
10
12.8007034
20
102.4406484
40
0.1969404
50
46.498716
51
89.3298174
0
ARC
8
DEFAULT_255_1_234
10
12.7945388
20
102.3811723
40
0.2565428
50
88.1083975
51
90.0061569
0
ARC
8
DEFAULT_255_1_234
10
12.7917818
20
102.3865759
40
0.251154
50
89.3773333
51
107.2071161
0
ARC
8
DEFAULT_255_1_234
10
12.7774941
20
102.438319
40
0.1975072
50
107.6883219
51
143.3583002
0
ARC
8
DEFAULT_255_1_234
10
12.8342325
20
102.3956873
40
0.2684762
50
143.2846717
51
162.935323
0
ARC
8
DEFAULT_255_1_234
10
12.9847926
20
102.3473652
40
0.4265927
50
162.6650068
51
174.0805419
0
ARC
8
DEFAULT_255_1_234
10
13.1990766
20
102.3224636
40
0.6423078
50
173.8423985
51
180.1785963
0
ARC
8
DEFAULT_255_1_234
10
13.1442866
20
102.2893039
40
0.5875227
50
179.7028978
51
188.2277152
0
ARC
8
DEFAULT_255_1_234
10
12.9341167
20
102.2578247
40
0.3750127
50
188.0629871
51
201.1160002
0
ARC
8
DEFAULT_255_1_234
10
12.8243366
20
102.2159238
40
0.2575093
50
201.2187293
51
216.9761968
0
ARC
8
DEFAULT_255_1_234
10
12.7791929
20
102.1820993
40
0.2010998
50
217.0135981
51
265.2056839
0
ARC
8
DEFAULT_255_1_234
10
12.7947788
20
102.2742695
40
0.2943543
50
263.681807
51
270.104251
0
LINE
8
DEFAULT_255_1_234
10
13.3607488
20
102.9541656
11
13.5093359
21
102.9541656
0
LINE
8
DEFAULT_255_1_234
10
13.5093359
20
102.9541656
11
13.5093359
21
102.7437341
0
LINE
8
DEFAULT_255_1_234
10
13.5093359
20
102.7437341
11
13.6715771
21
102.7437341
0
LINE
8
DEFAULT_255_1_234
10
13.6715771
20
102.7437341
11
13.6715771
21
102.6288802
0
LINE
8
DEFAULT_255_1_234
10
13.6715771
20
102.6288802
11
13.5093359
21
102.6288802
0
LINE
8
DEFAULT_255_1_234
10
13.5093359
20
102.6288802
11
13.5093359
21
102.0899506
0
LINE
8
DEFAULT_255_1_234
10
13.6755929
20
101.9951761
11
13.6755929
21
101.8747
0
LINE
8
DEFAULT_255_1_234
10
13.3607488
20
102.0899506
11
13.3607488
21
102.6288802
0
LINE
8
DEFAULT_255_1_234
10
13.3607488
20
102.6288802
11
13.2025235
21
102.6288802
0
LINE
8
DEFAULT_255_1_234
10
13.2025235
20
102.6288802
11
13.2025235
21
102.7437341
0
LINE
8
DEFAULT_255_1_234
10
13.2025235
20
102.7437341
11
13.3607488
21
102.7437341
0
LINE
8
DEFAULT_255_1_234
10
13.3607488
20
102.7437341
11
13.3607488
21
102.9541656
0
ARC
8
DEFAULT_255_1_234
10
13.7100862
20
102.0889084
40
0.200753
50
179.7025659
51
187.917967
0
ARC
8
DEFAULT_255_1_234
10
13.6354888
20
102.0781724
40
0.1253883
50
187.7545981
51
200.2447476
0
ARC
8
DEFAULT_255_1_234
10
13.5934209
20
102.0624859
40
0.0804913
50
200.130383
51
219.174133
0
ARC
8
DEFAULT_255_1_234
10
13.5798386
20
102.0532515
40
0.0641445
50
220.4434483
51
249.6172
0
ARC
8
DEFAULT_255_1_234
10
13.5953236
20
102.0921968
40
0.1060489
50
249.1032952
51
262.775154
0
ARC
8
DEFAULT_255_1_234
10
13.6041408
20
102.1550715
40
0.1695354
50
262.4913187
51
270.2611758
0
ARC
8
DEFAULT_255_1_234
10
13.6038825
20
102.1766103
40
0.191075
50
270.3091804
51
275.6625139
0
ARC
8
DEFAULT_255_1_234
10
13.589605
20
102.3267435
40
0.3418851
50
275.5610264
51
279.0879356
0
ARC
8
DEFAULT_255_1_234
10
13.5565927
20
102.5362699
40
0.5539959
50
279.0365489
51
281.5011378
0
ARC
8
DEFAULT_255_1_234
10
13.5209004
20
102.7166423
40
0.7378639
50
281.4243939
51
282.1017894
0
ARC
8
DEFAULT_255_1_234
10
13.5552251
20
102.3084858
40
0.4501761
50
275.2597045
51
285.5083879
0
ARC
8
DEFAULT_255_1_234
10
13.5613576
20
102.2528606
40
0.3942242
50
270.0268409
51
275.1132796
0
ARC
8
DEFAULT_255_1_234
10
13.5593541
20
102.1201614
40
0.261534
50
257.3573315
51
270.479383
0
ARC
8
DEFAULT_255_1_234
10
13.5380431
20
102.0303406
40
0.1692304
50
230.8037497
51
257.741658
0
ARC
8
DEFAULT_255_1_234
10
13.5312335
20
102.0193777
40
0.1564393
50
219.974146
51
230.1990686
0
ARC
8
DEFAULT_255_1_234
10
13.5644281
20
102.0447579
40
0.1981916
50
196.5084186
51
219.4318458
0
ARC
8
DEFAULT_255_1_234
10
13.6659727
20
102.0766194
40
0.3046086
50
184.6404872
51
196.8269686
0
ARC
8
DEFAULT_255_1_234
10
13.7904791
20
102.0891908
40
0.4297309
50
179.8986958
51
184.9681077
0
LINE
8
DEFAULT_255_1_234
10
14.0065005
20
102.7437341
11
14.0065005
21
101.8747
0
LINE
8
DEFAULT_255_1_234
10
14.0065005
20
101.8747
11
13.8579134
21
101.8747
0
LINE
8
DEFAULT_255_1_234
10
13.8579134
20
101.8747
11
13.8579134
21
102.7437341
0
LINE
8
DEFAULT_255_1_234
10
13.8579134
20
102.7437341
11
14.0065005
21
102.7437341
0
ARC
8
DEFAULT_255_1_234
10
13.9437282
20
102.9751889
40
0.097867
50
161.415052
51
180.5526306
0
ARC
8
DEFAULT_255_1_234
10
13.9313061
20
102.9786077
40
0.0850062
50
138.1827368
51
160.9307106
0
ARC
8
DEFAULT_255_1_234
10
13.9203006
20
102.9881588
40
0.0704362
50
104.6368899
51
138.0039868
0
ARC
8
DEFAULT_255_1_234
10
13.9310161
20
102.9514963
40
0.1086221
50
92.0600725
51
105.2189128
0
ARC
8
DEFAULT_255_1_234
10
13.9333509
20
102.9172117
40
0.1429728
50
89.9756393
51
92.5012496
0
ARC
8
DEFAULT_255_1_234
10
13.9343529
20
102.9397731
40
0.1204151
50
78.0235316
51
90.4478182
0
ARC
8
DEFAULT_255_1_234
10
13.9435621
20
102.9811295
40
0.0780493
50
55.051506
51
78.3369085
0
ARC
8
DEFAULT_255_1_234
10
13.9485895
20
102.9895711
40
0.0682538
50
42.0501187
51
54.4513741
0
ARC
8
DEFAULT_255_1_234
10
13.9350762
20
102.9771798
40
0.0865878
50
1.7497075
51
42.1496013
0
ARC
8
DEFAULT_255_1_234
10
13.9096095
20
102.9742738
40
0.1121515
50
359.9852656
51
2.8364544
0
ARC
8
DEFAULT_255_1_234
10
13.9262087
20
102.9733229
40
0.0955566
50
342.1070653
51
0.552888
0
ARC
8
DEFAULT_255_1_234
10
13.9404784
20
102.9693904
40
0.0807713
50
316.7107116
51
341.6516965
0
ARC
8
DEFAULT_255_1_234
10
13.9471822
20
102.9633823
40
0.0717724
50
285.4397031
51
316.5324284
0
ARC
8
DEFAULT_255_1_234
10
13.9361739
20
102.9999554
40
0.1099597
50
272.3547054
51
285.8953117
0
ARC
8
DEFAULT_255_1_234
10
13.9334897
20
103.0365048
40
0.1465932
50
269.9695369
51
272.8160237
0
ARC
8
DEFAULT_255_1_234
10
13.9325078
20
103.0145863
40
0.1246779
50
258.8431134
51
270.4153935
0
ARC
8
DEFAULT_255_1_234
10
13.923512
20
102.9710414
40
0.0802162
50
238.5431189
51
259.1288175
0
ARC
8
DEFAULT_255_1_234
10
13.9167005
20
102.9586856
40
0.0661247
50
222.5062634
51
237.9906969
0
ARC
8
DEFAULT_255_1_234
10
13.9294593
20
102.9702889
40
0.0833707
50
184.1069131
51
222.460413
0
ARC
8
DEFAULT_255_1_234
10
13.9563833
20
102.9741349
40
0.1105176
50
179.9429482
51
185.0960898
0
LINE
8
DEFAULT_255_1_234
10
14.3101002
20
102.7437341
11
14.530973
21
102.0762966
0
LINE
8
DEFAULT_255_1_234
10
14.530973
20
102.0762966
11
14.7462236
21
102.7437341
0
LINE
8
DEFAULT_255_1_234
10
14.7462236
20
102.7437341
11
14.8980235
21
102.7437341
0
LINE
8
DEFAULT_255_1_234
10
14.8980235
20
102.7437341
11
14.586392
21
101.8747
0
LINE
8
DEFAULT_255_1_234
10
14.586392
20
101.8747
11
14.4731445
21
101.8747
0
LINE
8
DEFAULT_255_1_234
10
14.4731445
20
101.8747
11
14.1583004
21
102.7437341
0
LINE
8
DEFAULT_255_1_234
10
14.1583004
20
102.7437341
11
14.3101002
21
102.7437341
0
LINE
8
DEFAULT_255_1_234
10
15.2024264
20
102.7437341
11
15.2024264
21
101.8747
0
LINE
8
DEFAULT_255_1_234
10
15.2024264
20
101.8747
11
15.0538392
21
101.8747
0
LINE
8
DEFAULT_255_1_234
10
15.0538392
20
101.8747
11
15.0538392
21
102.7437341
0
LINE
8
DEFAULT_255_1_234
10
15.0538392
20
102.7437341
11
15.2024264
21
102.7437341
0
ARC
8
DEFAULT_255_1_234
10
15.1396541
20
102.9751889
40
0.097867
50
161.415052
51
180.5526306
0
ARC
8
DEFAULT_255_1_234
10
15.1272319
20
102.9786077
40
0.0850062
50
138.1827368
51
160.9307106
0
ARC
8
DEFAULT_255_1_234
10
15.1162265
20
102.9881588
40
0.0704362
50
104.6368899
51
138.0039868
0
ARC
8
DEFAULT_255_1_234
10
15.1269419
20
102.9514963
40
0.1086221
50
92.0600725
51
105.2189128
0
ARC
8
DEFAULT_255_1_234
10
15.1292768
20
102.9172117
40
0.1429728
50
89.9756393
51
92.5012496
0
ARC
8
DEFAULT_255_1_234
10
15.1302787
20
102.9397731
40
0.1204151
50
78.0235316
51
90.4478182
0
ARC
8
DEFAULT_255_1_234
10
15.1394879
20
102.9811295
40
0.0780493
50
55.051506
51
78.3369085
0
ARC
8
DEFAULT_255_1_234
10
15.1445153
20
102.9895711
40
0.0682538
50
42.0501187
51
54.4513741
0
ARC
8
DEFAULT_255_1_234
10
15.131002
20
102.9771798
40
0.0865878
50
1.7497075
51
42.1496013
0
ARC
8
DEFAULT_255_1_234
10
15.1055353
20
102.9742738
40
0.1121515
50
359.9852656
51
2.8364544
0
ARC
8
DEFAULT_255_1_234
10
15.1221345
20
102.9733229
40
0.0955566
50
342.1070653
51
0.552888
0
ARC
8
DEFAULT_255_1_234
10
15.1364043
20
102.9693904
40
0.0807713
50
316.7107116
51
341.6516965
0
ARC
8
DEFAULT_255_1_234
10
15.143108
20
102.9633823
40
0.0717724
50
285.4397031
51
316.5324284
0
ARC
8
DEFAULT_255_1_234
10
15.1320997
20
102.9999554
40
0.1099597
50
272.3547054
51
285.8953117
0
ARC
8
DEFAULT_255_1_234
10
15.1294155
20
103.0365048
40
0.1465932
50
269.9695369
51
272.8160237
0
ARC
8
DEFAULT_255_1_234
10
15.1284336
20
103.0145863
40
0.1246779
50
258.8431134
51
270.4153935
0
ARC
8
DEFAULT_255_1_234
10
15.1194379
20
102.9710414
40
0.0802162
50
238.5431189
51
259.1288175
0
ARC
8
DEFAULT_255_1_234
10
15.1126264
20
102.9586856
40
0.0661247
50
222.5062634
51
237.9906969
0
ARC
8
DEFAULT_255_1_234
10
15.1253851
20
102.9702889
40
0.0833707
50
184.1069131
51
222.460413
0
ARC
8
DEFAULT_255_1_234
10
15.1523092
20
102.9741349
40
0.1105176
50
179.9429482
51
185.0960898
0
LINE
8
DEFAULT_255_1_234
10
15.4931753
20
102.9541656
11
15.6417625
21
102.9541656
0
LINE
8
DEFAULT_255_1_234
10
15.6417625
20
102.9541656
11
15.6417625
21
102.7437341
0
LINE
8
DEFAULT_255_1_234
10
15.6417625
20
102.7437341
11
15.8040036
21
102.7437341
0
LINE
8
DEFAULT_255_1_234
10
15.8040036
20
102.7437341
11
15.8040036
21
102.6288802
0
LINE
8
DEFAULT_255_1_234
10
15.8040036
20
102.6288802
11
15.6417625
21
102.6288802
0
LINE
8
DEFAULT_255_1_234
10
15.6417625
20
102.6288802
11
15.6417625
21
102.0899506
0
LINE
8
DEFAULT_255_1_234
10
15.8080194
20
101.9951761
11
15.8080194
21
101.8747
0
LINE
8
DEFAULT_255_1_234
10
15.4931753
20
102.0899506
11
15.4931753
21
102.6288802
0
LINE
8
DEFAULT_255_1_234
10
15.4931753
20
102.6288802
11
15.33495
21
102.6288802
0
LINE
8
DEFAULT_255_1_234
10
15.33495
20
102.6288802
11
15.33495
21
102.7437341
0
LINE
8
DEFAULT_255_1_234
10
15.33495
20
102.7437341
11
15.4931753
21
102.7437341
0
LINE
8
DEFAULT_255_1_234
10
15.4931753
20
102.7437341
11
15.4931753
21
102.9541656
0
ARC
8
DEFAULT_255_1_234
10
15.8425127
20
102.0889084
40
0.200753
50
179.7025659
51
187.917967
0
ARC
8
DEFAULT_255_1_234
10
15.7679153
20
102.0781724
40
0.1253883
50
187.7545981
51
200.2447476
0
ARC
8
DEFAULT_255_1_234
10
15.7258474
20
102.0624859
40
0.0804913
50
200.130383
51
219.174133
0
ARC
8
DEFAULT_255_1_234
10
15.7122651
20
102.0532515
40
0.0641445
50
220.4434483
51
249.6172
0
ARC
8
DEFAULT_255_1_234
10
15.7277501
20
102.0921968
40
0.1060489
50
249.1032952
51
262.775154
0
ARC
8
DEFAULT_255_1_234
10
15.7365673
20
102.1550715
40
0.1695354
50
262.4913187
51
270.2611758
0
ARC
8
DEFAULT_255_1_234
10
15.7363091
20
102.1766103
40
0.191075
50
270.3091804
51
275.6625139
0
ARC
8
DEFAULT_255_1_234
10
15.7220315
20
102.3267435
40
0.3418851
50
275.5610264
51
279.0879356
0
ARC
8
DEFAULT_255_1_234
10
15.6890192
20
102.5362699
40
0.5539959
50
279.0365489
51
281.5011378
0
ARC
8
DEFAULT_255_1_234
10
15.6533269
20
102.7166423
40
0.7378639
50
281.4243939
51
282.1017894
0
ARC
8
DEFAULT_255_1_234
10
15.6876516
20
102.3084858
40
0.4501761
50
275.2597045
51
285.5083879
0
ARC
8
DEFAULT_255_1_234
10
15.6937841
20
102.2528606
40
0.3942242
50
270.0268409
51
275.1132796
0
ARC
8
DEFAULT_255_1_234
10
15.6917806
20
102.1201614
40
0.261534
50
257.3573315
51
270.479383
0
ARC
8
DEFAULT_255_1_234
10
15.6704697
20
102.0303406
40
0.1692304
50
230.8037497
51
257.741658
0
ARC
8
DEFAULT_255_1_234
10
15.66366
20
102.0193777
40
0.1564393
50
219.974146
51
230.1990686
0
ARC
8
DEFAULT_255_1_234
10
15.6968546
20
102.0447579
40
0.1981916
50
196.5084186
51
219.4318458
0
ARC
8
DEFAULT_255_1_234
10
15.7983992
20
102.0766194
40
0.3046086
50
184.6404872
51
196.8269686
0
ARC
8
DEFAULT_255_1_234
10
15.9229056
20
102.0891908
40
0.4297309
50
179.8986958
51
184.9681077
0
LINE
8
DEFAULT_255_1_234
10
16.0449557
20
102.7437341
11
16.2618126
21
102.0923601
0
LINE
8
DEFAULT_255_1_234
10
16.2618126
20
102.0923601
11
16.4642125
21
102.7437341
0
LINE
8
DEFAULT_255_1_234
10
16.4642125
20
102.7437341
11
16.6232409
21
102.7437341
0
LINE
8
DEFAULT_255_1_234
10
16.6232409
20
102.7437341
11
16.2738603
21
101.74057
0
LINE
8
DEFAULT_255_1_234
10
16.0160415
20
101.523713
11
15.9879304
21
101.5261226
0
LINE
8
DEFAULT_255_1_234
10
15.9879304
20
101.5261226
11
15.9325114
21
101.5365638
0
LINE
8
DEFAULT_255_1_234
10
15.9325114
20
101.5365638
11
15.9325114
21
101.6570399
0
LINE
8
DEFAULT_255_1_234
10
15.9325114
20
101.6570399
11
15.9726701
21
101.6538272
0
LINE
8
DEFAULT_255_1_234
10
16.1598096
20
101.795989
11
16.1927397
21
101.8843381
0
LINE
8
DEFAULT_255_1_234
10
16.1927397
20
101.8843381
11
15.8827146
21
102.7437341
0
LINE
8
DEFAULT_255_1_234
10
15.8827146
20
102.7437341
11
16.0449557
21
102.7437341
0
ARC
8
DEFAULT_255_1_234
10
15.8103945
20
101.9090403
40
0.4931356
50
327.7224013
51
340.0237316
0
ARC
8
DEFAULT_255_1_234
10
15.9856161
20
101.795872
40
0.2845645
50
305.2163759
51
328.1469174
0
ARC
8
DEFAULT_255_1_234
10
16.0201212
20
101.7549893
40
0.2313123
50
268.9893887
51
304.0733175
0
ARC
8
DEFAULT_255_1_234
10
15.9741414
20
101.9573864
40
0.3035628
50
269.7222887
51
278.0404605
0
ARC
8
DEFAULT_255_1_234
10
15.9897237
20
101.8513823
40
0.1964222
50
277.8648378
51
290.8634365
0
ARC
8
DEFAULT_255_1_234
10
16.0105226
20
101.7958422
40
0.1371168
50
291.0076295
51
305.5967213
0
ARC
8
DEFAULT_255_1_234
10
16.0086417
20
101.7942702
40
0.1369553
50
306.6194038
51
324.1023288
0
ARC
8
DEFAULT_255_1_234
10
15.9339231
20
101.84972
40
0.2299972
50
323.8264381
51
334.2987676
0
ARC
8
DEFAULT_255_1_234
10
15.809534
20
101.9108087
40
0.3685747
50
334.1277399
51
340.8153554
0
ARC
8
DEFAULT_255_1_234
10
15.7119275
20
101.9467465
40
0.4725741
50
340.5889714
51
341.3967148
0
LINE
8
DEFAULT_255_1_234
10
16.956558
20
102.4104169
11
16.956558
21
102.5316962
0
LINE
8
DEFAULT_255_1_234
10
16.956558
20
102.5316962
11
17.0681992
21
102.5316962
0
LINE
8
DEFAULT_255_1_234
10
16.877847
20
102.7373087
11
16.7292598
21
102.7373087
0
LINE
8
DEFAULT_255_1_234
10
16.7188186
20
102.1831188
11
16.8682089
21
102.1831188
0
LINE
8
DEFAULT_255_1_234
10
17.0681992
20
102.4104169
11
16.956558
21
102.4104169
0
ARC
8
DEFAULT_255_1_234
10
17.0652858
20
102.8709713
40
0.3392876
50
270.4919872
51
281.8951556
0
ARC
8
DEFAULT_255_1_234
10
17.089412
20
102.7607702
40
0.2264817
50
281.6691735
51
301.2943132
0
ARC
8
DEFAULT_255_1_234
10
17.106433
20
102.7296304
40
0.1910381
50
301.7833094
51
311.7545298
0
ARC
8
DEFAULT_255_1_234
10
17.1155906
20
102.7194748
40
0.1773635
50
311.7323931
51
354.2802411
0
ARC
8
DEFAULT_255_1_234
10
17.0429531
20
102.7319722
40
0.2509385
50
353.0937916
51
0.1181479
0
ARC
8
DEFAULT_255_1_234
10
16.9968316
20
102.7367386
40
0.2970898
50
359.1805295
51
15.0453146
0
ARC
8
DEFAULT_255_1_234
10
17.1314153
20
102.7759992
40
0.1569564
50
13.9577229
51
77.6713066
0
ARC
8
DEFAULT_255_1_234
10
17.0927682
20
102.6374949
40
0.3006298
50
76.1116566
51
90.7026153
0
ARC
8
DEFAULT_255_1_234
10
17.086852
20
102.6648545
40
0.2732568
50
89.5324876
51
103.531937
0
ARC
8
DEFAULT_255_1_234
10
17.0667965
20
102.7447884
40
0.1908508
50
103.2931773
51
133.5619022
0
ARC
8
DEFAULT_255_1_234
10
17.0623453
20
102.7507375
40
0.1834746
50
133.8349307
51
173.5344437
0
ARC
8
DEFAULT_255_1_234
10
17.1346496
20
102.7379213
40
0.2568033
50
172.5096846
51
180.1366907
0
ARC
8
DEFAULT_255_1_234
10
17.039539
20
102.7413622
40
0.3103056
50
155.3484492
51
180.7484736
0
ARC
8
DEFAULT_255_1_234
10
17.0346479
20
102.7384846
40
0.3070957
50
131.5744599
51
154.4798489
0
ARC
8
DEFAULT_255_1_234
10
17.0659626
20
102.706831
40
0.3515643
50
96.9875458
51
131.9690667
0
ARC
8
DEFAULT_255_1_234
10
17.0879106
20
102.5822636
40
0.4779224
50
89.8596053
51
97.7825159
0
ARC
8
DEFAULT_255_1_234
10
17.0927169
20
102.5560616
40
0.5041361
50
78.3655447
51
90.4131539
0
ARC
8
DEFAULT_255_1_234
10
17.1285087
20
102.7219887
40
0.3344039
50
56.6229102
51
78.638727
0
ARC
8
DEFAULT_255_1_234
10
17.1500031
20
102.7595805
40
0.2912001
50
47.0253525
51
56.0854072
0
ARC
8
DEFAULT_255_1_234
10
17.1519811
20
102.7635223
40
0.2869704
50
10.9208013
51
46.7778124
0
ARC
8
DEFAULT_255_1_234
10
17.0155878
20
102.7319857
40
0.426899
50
359.6364486
51
11.6087304
0
ARC
8
DEFAULT_255_1_234
10
17.1990722
20
102.7304752
40
0.243409
50
332.3549906
51
359.7179418
0
ARC
8
DEFAULT_255_1_234
10
17.1340323
20
102.7613142
40
0.3153459
50
325.2333722
51
332.8745602
0
ARC
8
DEFAULT_255_1_234
10
17.1492947
20
102.7506828
40
0.2967456
50
292.9802137
51
325.2392345
0
ARC
8
DEFAULT_255_1_234
10
17.1218321
20
102.8040863
40
0.3566604
50
292.5402179
51
293.6924929
0
ARC
8
DEFAULT_255_1_234
10
17.1610917
20
102.1586091
40
0.3307468
50
57.6435486
51
72.8625112
0
ARC
8
DEFAULT_255_1_234
10
17.1965416
20
102.2160549
40
0.2632492
50
36.7248896
51
57.4697979
0
ARC
8
DEFAULT_255_1_234
10
17.1954049
20
102.217322
40
0.2634081
50
8.0545065
51
36.356114
0
ARC
8
DEFAULT_255_1_234
10
17.1091234
20
102.2018174
40
0.3510261
50
359.8320645
51
8.5869982
0
ARC
8
DEFAULT_255_1_234
10
17.071601
20
102.1970101
40
0.3885653
50
343.9829931
51
0.5571613
0
ARC
8
DEFAULT_255_1_234
10
17.1602208
20
102.1727438
40
0.2966924
50
311.6359546
51
343.7651759
0
ARC
8
DEFAULT_255_1_234
10
17.1223777
20
102.2154102
40
0.3537231
50
279.7829875
51
311.6255694
0
ARC
8
DEFAULT_255_1_234
10
17.0922553
20
102.359128
40
0.5004971
50
269.7286406
51
280.3856417
0
ARC
8
DEFAULT_255_1_234
10
17.0860626
20
102.3549996
40
0.4963778
50
256.6828919
51
270.4412052
0
ARC
8
DEFAULT_255_1_234
10
17.0521921
20
102.2165394
40
0.3538406
50
229.4223008
51
256.8556159
0
ARC
8
DEFAULT_255_1_234
10
17.0107314
20
102.1698736
40
0.2914296
50
181.818294
51
229.6455059
0
ARC
8
DEFAULT_255_1_234
10
17.114727
20
102.1829496
40
0.3959084
50
179.9755256
51
183.2323064
0
ARC
8
DEFAULT_255_1_234
10
17.0975016
20
102.1809037
40
0.2293034
50
179.4465117
51
196.2869258
0
ARC
8
DEFAULT_255_1_234
10
17.0487424
20
102.1675651
40
0.1787621
50
196.5661473
51
227.705904
0
ARC
8
DEFAULT_255_1_234
10
17.0651519
20
102.1859155
40
0.2033784
50
227.7652068
51
257.8762805
0
ARC
8
DEFAULT_255_1_234
10
17.0876489
20
102.2802156
40
0.3003081
50
257.4584385
51
270.426602
0
ARC
8
DEFAULT_255_1_234
10
17.0922055
20
102.3091996
40
0.329292
50
269.5962073
51
280.8789248
0
ARC
8
DEFAULT_255_1_234
10
17.1151584
20
102.1945685
40
0.2123908
50
280.6346389
51
299.8595945
0
ARC
8
DEFAULT_255_1_234
10
17.1342491
20
102.1583212
40
0.171457
50
300.3576302
51
314.5517981
0
ARC
8
DEFAULT_255_1_234
10
17.1259551
20
102.1643919
40
0.1816095
50
315.0728369
51
345.0431014
0
ARC
8
DEFAULT_255_1_234
10
17.0336365
20
102.1912841
40
0.2777492
50
344.5986631
51
357.9269593
0
ARC
8
DEFAULT_255_1_234
10
16.9440692
20
102.1974276
40
0.3674917
50
357.4748886
51
0.0231117
0
ARC
8
DEFAULT_255_1_234
10
17.0463801
20
102.1998679
40
0.2651907
50
359.5047933
51
13.4239635
0
ARC
8
DEFAULT_255_1_234
10
17.1330445
20
102.2220478
40
0.1757509
50
12.9498199
51
48.7551375
0
ARC
8
DEFAULT_255_1_234
10
17.1148179
20
102.19714
40
0.2065134
50
49.5088623
51
72.1836453
0
ARC
8
DEFAULT_255_1_234
10
17.0790331
20
102.0909291
40
0.3185836
50
71.9010081
51
84.3554254
0
ARC
8
DEFAULT_255_1_234
10
17.0628963
20
101.9548326
40
0.4556151
50
84.0193428
51
89.333121
0
LINE
8
DEFAULT_255_1_234
10
18.3974519
20
102.5662327
11
18.3974519
21
102.3734709
0
LINE
8
DEFAULT_255_1_234
10
17.6593351
20
102.3533916
11
17.6593351
21
102.5517755
0
LINE
8
DEFAULT_255_1_234
10
18.2488647
20
102.3333123
11
18.2488647
21
102.5766739
0
LINE
8
DEFAULT_255_1_234
10
17.8079223
20
102.5879184
11
17.8079223
21
102.3501789
0
ARC
8
DEFAULT_255_1_234
10
17.1727408
20
102.3685805
40
1.2247208
50
353.8441951
51
0.2287902
0
ARC
8
DEFAULT_255_1_234
10
17.6366912
20
102.3167806
40
0.7578929
50
344.4934747
51
353.9765454
0
ARC
8
DEFAULT_255_1_234
10
17.9359502
20
102.2316981
40
0.4467846
50
329.2803592
51
344.7472793
0
ARC
8
DEFAULT_255_1_234
10
18.0352327
20
102.1772018
40
0.3336173
50
324.9352394
51
328.6160465
0
ARC
8
DEFAULT_255_1_234
10
18.0729436
20
102.1508427
40
0.2876076
50
280.580143
51
324.9173126
0
ARC
8
DEFAULT_255_1_234
10
18.0328228
20
102.3179099
40
0.4592847
50
269.5977311
51
281.6734359
0
ARC
8
DEFAULT_255_1_234
10
18.0256134
20
102.3059173
40
0.4472986
50
256.6228859
51
270.51044
0
ARC
8
DEFAULT_255_1_234
10
17.9854112
20
102.1510877
40
0.2873874
50
215.8618325
51
257.2788573
0
ARC
8
DEFAULT_255_1_234
10
18.0875143
20
102.2195977
40
0.4102928
50
197.9693508
51
215.2623606
0
ARC
8
DEFAULT_255_1_234
10
18.3360259
20
102.3034709
40
0.6725652
50
187.8816417
51
198.2346507
0
ARC
8
DEFAULT_255_1_234
10
18.7318467
20
102.3606079
40
1.0724845
50
180.8976217
51
188.0055519
0
ARC
8
DEFAULT_255_1_234
10
19.0118655
20
102.3709777
40
1.3526448
50
180.7449369
51
181.1510016
0
ARC
8
DEFAULT_255_1_234
10
18.8541384
20
102.5566042
40
1.1948131
50
173.7675579
51
180.231553
0
ARC
8
DEFAULT_255_1_234
10
18.4023531
20
102.6076666
40
0.7401564
50
164.3058563
51
173.9002247
0
ARC
8
DEFAULT_255_1_234
10
18.11116
20
102.6915656
40
0.4371288
50
148.7922025
51
164.568378
0
ARC
8
DEFAULT_255_1_234
10
18.0160052
20
102.7446929
40
0.3282386
50
144.5883898
51
148.1176286
0
ARC
8
DEFAULT_255_1_234
10
17.981695
20
102.7686315
40
0.2864044
50
101.6440918
51
144.514236
0
ARC
8
DEFAULT_255_1_234
10
18.0242017
20
102.5997069
40
0.4604934
50
89.5284041
51
102.5819763
0
ARC
8
DEFAULT_255_1_234
10
18.0321104
20
102.5958018
40
0.464401
50
77.0437873
51
90.5081339
0
ARC
8
DEFAULT_255_1_234
10
18.0723106
20
102.7600615
40
0.2953195
50
48.2778575
51
77.4994676
0
ARC
8
DEFAULT_255_1_234
10
18.0795737
20
102.7729746
40
0.2808655
50
36.3142134
51
47.6305865
0
ARC
8
DEFAULT_255_1_234
10
17.9927044
20
102.7144515
40
0.3855453
50
18.2931786
51
35.6769206
0
ARC
8
DEFAULT_255_1_234
10
17.7383803
20
102.6271593
40
0.654423
50
8.024666
51
18.5605216
0
ARC
8
DEFAULT_255_1_234
10
17.3220723
20
102.5656792
40
1.0752407
50
1.1274072
51
8.1718305
0
ARC
8
DEFAULT_255_1_234
10
16.9984914
20
102.5529885
40
1.3990231
50
0.5424119
51
1.3863029
0
ARC
8
DEFAULT_255_1_234
10
17.1806292
20
102.5802342
40
1.0682415
50
359.8090433
51
4.9407866
0
ARC
8
DEFAULT_255_1_234
10
17.6016306
20
102.6178113
40
0.6455691
50
4.8362157
51
12.2904523
0
ARC
8
DEFAULT_255_1_234
10
17.877142
20
102.6791965
40
0.3633074
50
12.0805627
51
23.8173984
0
ARC
8
DEFAULT_255_1_234
10
17.9945126
20
102.7288919
40
0.2358723
50
24.2871213
51
31.3935614
0
ARC
8
DEFAULT_255_1_234
10
18.0469823
20
102.7632233
40
0.1732111
50
30.7407893
51
82.4657128
0
ARC
8
DEFAULT_255_1_234
10
18.0289957
20
102.6748691
40
0.263235
50
81.1060089
51
90.2184952
0
ARC
8
DEFAULT_255_1_234
10
18.0254256
20
102.7006924
40
0.2374236
50
89.3806855
51
105.6762551
0
ARC
8
DEFAULT_255_1_234
10
18.0070887
20
102.7673567
40
0.1682847
50
105.7981136
51
149.7388061
0
ARC
8
DEFAULT_255_1_234
10
18.1134965
20
102.703395
40
0.2924306
50
149.4208916
51
163.6286378
0
ARC
8
DEFAULT_255_1_234
10
18.3225853
20
102.639625
40
0.5110213
50
163.3763315
51
172.1410975
0
ARC
8
DEFAULT_255_1_234
10
18.6526572
20
102.5923518
40
0.8444586
50
172.0259487
51
178.0703232
0
ARC
8
DEFAULT_255_1_234
10
18.9556662
20
102.5779906
40
1.1477868
50
177.8631668
51
179.5044149
0
ARC
8
DEFAULT_255_1_234
10
18.8484066
20
102.3465389
40
1.0404907
50
179.7995573
51
185.2460446
0
ARC
8
DEFAULT_255_1_234
10
18.4441105
20
102.3082513
40
0.6343885
50
185.1411642
51
193.0079639
0
ARC
8
DEFAULT_255_1_234
10
18.1797578
20
102.2457641
40
0.3627568
50
192.7897626
51
205.2507664
0
ARC
8
DEFAULT_255_1_234
10
18.0751125
20
102.1990415
40
0.2481908
50
205.8005384
51
211.2537509
0
ARC
8
DEFAULT_255_1_234
10
18.0227565
20
102.163958
40
0.1852521
50
210.3789793
51
238.4008143
0
ARC
8
DEFAULT_255_1_234
10
18.0208087
20
102.1686376
40
0.1882621
50
239.6520629
51
265.9793761
0
ARC
8
DEFAULT_255_1_234
10
18.0293288
20
102.2358427
40
0.2559272
50
265.1315437
51
270.060332
0
ARC
8
DEFAULT_255_1_234
10
18.0322066
20
102.2034534
40
0.2235528
50
269.3314664
51
287.2178029
0
ARC
8
DEFAULT_255_1_234
10
18.0459918
20
102.1531279
40
0.1714108
50
287.7958004
51
329.080874
0
ARC
8
DEFAULT_255_1_234
10
17.9502375
20
102.212893
40
0.2842745
50
328.6634704
51
343.3325132
0
ARC
8
DEFAULT_255_1_234
10
17.7329395
20
102.2805863
40
0.5118644
50
343.0499468
51
351.9393422
0
ARC
8
DEFAULT_255_1_234
10
17.3862695
20
102.3316949
40
0.8622784
50
351.8069023
51
357.7959224
0
ARC
8
DEFAULT_255_1_234
10
17.0627251
20
102.3484721
40
1.1862365
50
357.5871873
51
359.2677531
0
LINE
8
DEFAULT_255_1_234
10
19.3211018
20
102.5662327
11
19.3211018
21
102.3734709
0
LINE
8
DEFAULT_255_1_234
10
18.582985
20
102.3533916
11
18.582985
21
102.5517755
0
LINE
8
DEFAULT_255_1_234
10
19.1725146
20
102.3333123
11
19.1725146
21
102.5766739
0
LINE
8
DEFAULT_255_1_234
10
18.7315722
20
102.5879184
11
18.7315722
21
102.3501789
0
ARC
8
DEFAULT_255_1_234
10
18.0963907
20
102.3685805
40
1.2247208
50
353.8441951
51
0.2287902
0
ARC
8
DEFAULT_255_1_234
10
18.5603411
20
102.3167806
40
0.7578929
50
344.4934747
51
353.9765454
0
ARC
8
DEFAULT_255_1_234
10
18.8596001
20
102.2316981
40
0.4467846
50
329.2803592
51
344.7472793
0
ARC
8
DEFAULT_255_1_234
10
18.9588826
20
102.1772018
40
0.3336173
50
324.9352394
51
328.6160465
0
ARC
8
DEFAULT_255_1_234
10
18.9965935
20
102.1508427
40
0.2876076
50
280.580143
51
324.9173126
0
ARC
8
DEFAULT_255_1_234
10
18.9564727
20
102.3179099
40
0.4592847
50
269.5977311
51
281.6734359
0
ARC
8
DEFAULT_255_1_234
10
18.9492633
20
102.3059173
40
0.4472986
50
256.6228859
51
270.51044
0
ARC
8
DEFAULT_255_1_234
10
18.9090611
20
102.1510877
40
0.2873874
50
215.8618325
51
257.2788573
0
ARC
8
DEFAULT_255_1_234
10
19.0111642
20
102.2195977
40
0.4102928
50
197.9693508
51
215.2623606
0
ARC
8
DEFAULT_255_1_234
10
19.2596758
20
102.3034709
40
0.6725652
50
187.8816417
51
198.2346507
0
ARC
8
DEFAULT_255_1_234
10
19.6554966
20
102.3606079
40
1.0724845
50
180.8976217
51
188.0055519
0
ARC
8
DEFAULT_255_1_234
10
19.9355154
20
102.3709777
40
1.3526448
50
180.7449369
51
181.1510016
0
ARC
8
DEFAULT_255_1_234
10
19.7777883
20
102.5566042
40
1.1948131
50
173.7675579
51
180.231553
0
ARC
8
DEFAULT_255_1_234
10
19.326003
20
102.6076666
40
0.7401564
50
164.3058563
51
173.9002247
0
ARC
8
DEFAULT_255_1_234
10
19.0348099
20
102.6915656
40
0.4371288
50
148.7922025
51
164.568378
0
ARC
8
DEFAULT_255_1_234
10
18.9396551
20
102.7446929
40
0.3282386
50
144.5883898
51
148.1176286
0
ARC
8
DEFAULT_255_1_234
10
18.9053449
20
102.7686315
40
0.2864044
50
101.6440918
51
144.514236
0
ARC
8
DEFAULT_255_1_234
10
18.9478516
20
102.5997069
40
0.4604934
50
89.5284041
51
102.5819763
0
ARC
8
DEFAULT_255_1_234
10
18.9557603
20
102.5958018
40
0.464401
50
77.0437873
51
90.5081339
0
ARC
8
DEFAULT_255_1_234
10
18.9959605
20
102.7600615
40
0.2953195
50
48.2778575
51
77.4994676
0
ARC
8
DEFAULT_255_1_234
10
19.0032236
20
102.7729746
40
0.2808655
50
36.3142134
51
47.6305865
0
ARC
8
DEFAULT_255_1_234
10
18.9163543
20
102.7144515
40
0.3855453
50
18.2931786
51
35.6769206
0
ARC
8
DEFAULT_255_1_234
10
18.6620302
20
102.6271593
40
0.654423
50
8.024666
51
18.5605216
0
ARC
8
DEFAULT_255_1_234
10
18.2457222
20
102.5656792
40
1.0752407
50
1.1274072
51
8.1718305
0
ARC
8
DEFAULT_255_1_234
10
17.9221413
20
102.5529885
40
1.3990231
50
0.5424119
51
1.3863029
0
ARC
8
DEFAULT_255_1_234
10
18.1042791
20
102.5802342
40
1.0682415
50
359.8090433
51
4.9407866
0
ARC
8
DEFAULT_255_1_234
10
18.5252805
20
102.6178113
40
0.6455691
50
4.8362157
51
12.2904523
0
ARC
8
DEFAULT_255_1_234
10
18.800792
20
102.6791965
40
0.3633074
50
12.0805627
51
23.8173984
0
ARC
8
DEFAULT_255_1_234
10
18.9181625
20
102.7288919
40
0.2358723
50
24.2871213
51
31.3935614
0
ARC
8
DEFAULT_255_1_234
10
18.9706322
20
102.7632233
40
0.1732111
50
30.7407893
51
82.4657128
0
ARC
8
DEFAULT_255_1_234
10
18.9526456
20
102.6748691
40
0.263235
50
81.1060089
51
90.2184952
0
ARC
8
DEFAULT_255_1_234
10
18.9490755
20
102.7006924
40
0.2374236
50
89.3806855
51
105.6762551
0
ARC
8
DEFAULT_255_1_234
10
18.9307386
20
102.7673567
40
0.1682847
50
105.7981136
51
149.7388061
0
ARC
8
DEFAULT_255_1_234
10
19.0371464
20
102.703395
40
0.2924306
50
149.4208916
51
163.6286378
0
ARC
8
DEFAULT_255_1_234
10
19.2462352
20
102.639625
40
0.5110213
50
163.3763315
51
172.1410975
0
ARC
8
DEFAULT_255_1_234
10
19.5763071
20
102.5923518
40
0.8444586
50
172.0259487
51
178.0703232
0
ARC
8
DEFAULT_255_1_234
10
19.8793161
20
102.5779906
40
1.1477868
50
177.8631668
51
179.5044149
0
ARC
8
DEFAULT_255_1_234
10
19.7720565
20
102.3465389
40
1.0404907
50
179.7995573
51
185.2460446
0
ARC
8
DEFAULT_255_1_234
10
19.3677604
20
102.3082513
40
0.6343885
50
185.1411642
51
193.0079639
0
ARC
8
DEFAULT_255_1_234
10
19.1034077
20
102.2457641
40
0.3627568
50
192.7897626
51
205.2507664
0
ARC
8
DEFAULT_255_1_234
10
18.9987624
20
102.1990415
40
0.2481908
50
205.8005384
51
211.2537509
0
ARC
8
DEFAULT_255_1_234
10
18.9464064
20
102.163958
40
0.1852521
50
210.3789793
51
238.4008143
0
ARC
8
DEFAULT_255_1_234
10
18.9444586
20
102.1686376
40
0.1882621
50
239.6520629
51
265.9793761
0
ARC
8
DEFAULT_255_1_234
10
18.9529787
20
102.2358427
40
0.2559272
50
265.1315437
51
270.060332
0
ARC
8
DEFAULT_255_1_234
10
18.9558565
20
102.2034534
40
0.2235528
50
269.3314664
51
287.2178029
0
ARC
8
DEFAULT_255_1_234
10
18.9696417
20
102.1531279
40
0.1714108
50
287.7958004
51
329.080874
0
ARC
8
DEFAULT_255_1_234
10
18.8738874
20
102.212893
40
0.2842745
50
328.6634704
51
343.3325132
0
ARC
8
DEFAULT_255_1_234
10
18.6565894
20
102.2805863
40
0.5118644
50
343.0499468
51
351.9393422
0
ARC
8
DEFAULT_255_1_234
10
18.3099194
20
102.3316949
40
0.8622784
50
351.8069023
51
357.7959224
0
ARC
8
DEFAULT_255_1_234
10
17.986375
20
102.3484721
40
1.1862365
50
357.5871873
51
359.2677531
0
LINE
8
DEFAULT_255_1_234
10
20.2447517
20
102.5662327
11
20.2447517
21
102.3734709
0
LINE
8
DEFAULT_255_1_234
10
19.5066349
20
102.3533916
11
19.5066349
21
102.5517755
0
LINE
8
DEFAULT_255_1_234
10
20.0961645
20
102.3333123
11
20.0961645
21
102.5766739
0
LINE
8
DEFAULT_255_1_234
10
19.6552221
20
102.5879184
11
19.6552221
21
102.3501789
0
ARC
8
DEFAULT_255_1_234
10
19.0200406
20
102.3685805
40
1.2247208
50
353.8441951
51
0.2287902
0
ARC
8
DEFAULT_255_1_234
10
19.483991
20
102.3167806
40
0.7578929
50
344.4934747
51
353.9765454
0
ARC
8
DEFAULT_255_1_234
10
19.78325
20
102.2316981
40
0.4467846
50
329.2803592
51
344.7472793
0
ARC
8
DEFAULT_255_1_234
10
19.8825325
20
102.1772018
40
0.3336173
50
324.9352394
51
328.6160465
0
ARC
8
DEFAULT_255_1_234
10
19.9202434
20
102.1508427
40
0.2876076
50
280.580143
51
324.9173126
0
ARC
8
DEFAULT_255_1_234
10
19.8801226
20
102.3179099
40
0.4592847
50
269.5977311
51
281.6734359
0
ARC
8
DEFAULT_255_1_234
10
19.8729132
20
102.3059173
40
0.4472986
50
256.6228859
51
270.51044
0
ARC
8
DEFAULT_255_1_234
10
19.832711
20
102.1510877
40
0.2873874
50
215.8618325
51
257.2788573
0
ARC
8
DEFAULT_255_1_234
10
19.9348141
20
102.2195977
40
0.4102928
50
197.9693508
51
215.2623606
0
ARC
8
DEFAULT_255_1_234
10
20.1833257
20
102.3034709
40
0.6725652
50
187.8816417
51
198.2346507
0
ARC
8
DEFAULT_255_1_234
10
20.5791465
20
102.3606079
40
1.0724845
50
180.8976217
51
188.0055519
0
ARC
8
DEFAULT_255_1_234
10
20.8591653
20
102.3709777
40
1.3526448
50
180.7449369
51
181.1510016
0
ARC
8
DEFAULT_255_1_234
10
20.7014382
20
102.5566042
40
1.1948131
50
173.7675579
51
180.231553
0
ARC
8
DEFAULT_255_1_234
10
20.2496529
20
102.6076666
40
0.7401564
50
164.3058563
51
173.9002247
0
ARC
8
DEFAULT_255_1_234
10
19.9584598
20
102.6915656
40
0.4371288
50
148.7922025
51
164.568378
0
ARC
8
DEFAULT_255_1_234
10
19.863305
20
102.7446929
40
0.3282386
50
144.5883898
51
148.1176286
0
ARC
8
DEFAULT_255_1_234
10
19.8289948
20
102.7686315
40
0.2864044
50
101.6440918
51
144.514236
0
ARC
8
DEFAULT_255_1_234
10
19.8715015
20
102.5997069
40
0.4604934
50
89.5284041
51
102.5819763
0
ARC
8
DEFAULT_255_1_234
10
19.8794102
20
102.5958018
40
0.464401
50
77.0437873
51
90.5081339
0
ARC
8
DEFAULT_255_1_234
10
19.9196104
20
102.7600615
40
0.2953195
50
48.2778575
51
77.4994676
0
ARC
8
DEFAULT_255_1_234
10
19.9268735
20
102.7729746
40
0.2808655
50
36.3142134
51
47.6305865
0
ARC
8
DEFAULT_255_1_234
10
19.8400042
20
102.7144515
40
0.3855453
50
18.2931786
51
35.6769206
0
ARC
8
DEFAULT_255_1_234
10
19.5856801
20
102.6271593
40
0.654423
50
8.024666
51
18.5605216
0
ARC
8
DEFAULT_255_1_234
10
19.1693721
20
102.5656792
40
1.0752407
50
1.1274072
51
8.1718305
0
ARC
8
DEFAULT_255_1_234
10
18.8457912
20
102.5529885
40
1.3990231
50
0.5424119
51
1.3863029
0
ARC
8
DEFAULT_255_1_234
10
19.027929
20
102.5802342
40
1.0682415
50
359.8090433
51
4.9407866
0
ARC
8
DEFAULT_255_1_234
10
19.4489304
20
102.6178113
40
0.6455691
50
4.8362157
51
12.2904523
0
ARC
8
DEFAULT_255_1_234
10
19.7244419
20
102.6791965
40
0.3633074
50
12.0805627
51
23.8173984
0
ARC
8
DEFAULT_255_1_234
10
19.8418124
20
102.7288919
40
0.2358723
50
24.2871213
51
31.3935614
0
ARC
8
DEFAULT_255_1_234
10
19.8942821
20
102.7632233
40
0.1732111
50
30.7407893
51
82.4657128
0
ARC
8
DEFAULT_255_1_234
10
19.8762955
20
102.6748691
40
0.263235
50
81.1060089
51
90.2184952
0
ARC
8
DEFAULT_255_1_234
10
19.8727254
20
102.7006924
40
0.2374236
50
89.3806855
51
105.6762551
0
ARC
8
DEFAULT_255_1_234
10
19.8543885
20
102.7673567
40
0.1682847
50
105.7981136
51
149.7388061
0
ARC
8
DEFAULT_255_1_234
10
19.9607963
20
102.703395
40
0.2924306
50
149.4208916
51
163.6286378
0
ARC
8
DEFAULT_255_1_234
10
20.1698851
20
102.639625
40
0.5110213
50
163.3763315
51
172.1410975
0
ARC
8
DEFAULT_255_1_234
10
20.499957
20
102.5923518
40
0.8444586
50
172.0259487
51
178.0703232
0
ARC
8
DEFAULT_255_1_234
10
20.802966
20
102.5779906
40
1.1477868
50
177.8631668
51
179.5044149
0
ARC
8
DEFAULT_255_1_234
10
20.6957064
20
102.3465389
40
1.0404907
50
179.7995573
51
185.2460446
0
ARC
8
DEFAULT_255_1_234
10
20.2914104
20
102.3082513
40
0.6343885
50
185.1411642
51
193.0079639
0
ARC
8
DEFAULT_255_1_234
10
20.0270576
20
102.2457641
40
0.3627568
50
192.7897626
51
205.2507664
0
ARC
8
DEFAULT_255_1_234
10
19.9224123
20
102.1990415
40
0.2481908
50
205.8005384
51
211.2537509
0
ARC
8
DEFAULT_255_1_234
10
19.8700564
20
102.163958
40
0.1852521
50
210.3789793
51
238.4008143
0
ARC
8
DEFAULT_255_1_234
10
19.8681085
20
102.1686376
40
0.1882621
50
239.6520629
51
265.9793761
0
ARC
8
DEFAULT_255_1_234
10
19.8766286
20
102.2358427
40
0.2559272
50
265.1315437
51
270.060332
0
ARC
8
DEFAULT_255_1_234
10
19.8795064
20
102.2034534
40
0.2235528
50
269.3314664
51
287.2178029
0
ARC
8
DEFAULT_255_1_234
10
19.8932916
20
102.1531279
40
0.1714108
50
287.7958004
51
329.080874
0
ARC
8
DEFAULT_255_1_234
10
19.7975373
20
102.212893
40
0.2842745
50
328.6634704
51
343.3325132
0
ARC
8
DEFAULT_255_1_234
10
19.5802393
20
102.2805863
40
0.5118644
50
343.0499468
51
351.9393422
0
ARC
8
DEFAULT_255_1_234
10
19.2335693
20
102.3316949
40
0.8622784
50
351.8069023
51
357.7959224
0
ARC
8
DEFAULT_255_1_234
10
18.9100249
20
102.3484721
40
1.1862365
50
357.5871873
51
359.2677531
0
LINE
8
DEFAULT_255_2_778
10
19.9765417
20
92.4719078
11
18.6536417
21
92.4719078
0
LINE
8
DEFAULT_255_2_778
10
18.6536417
20
92.4719078
11
18.6536417
21
51.4615078
0
LINE
8
DEFAULT_255_2_778
10
17.3307834
20
51.4614333
11
19.9765834
21
51.4614333
0
LINE
8
DEFAULT_255_2_778
10
19.9765834
20
51.4614333
11
19.9765834
21
46.1697333
0
LINE
8
DEFAULT_255_2_778
10
19.9765834
20
46.1697333
11
17.3307834
21
46.1697333
0
LINE
8
DEFAULT_255_2_778
10
17.3307834
20
46.1697333
11
17.3307834
21
51.4614333
0
ARC
8
DEFAULT_255_2_778_1
10
21.1303591
20
46.272177
40
4.816461
50
120.9442904
51
122.351755
0
ARC
8
DEFAULT_255_2_778_1
10
20.6837523
20
46.9758039
40
3.9830657
50
122.3407904
51
124.1946752
0
ARC
8
DEFAULT_255_2_778_1
10
20.2438464
20
47.6223306
40
3.2010724
50
124.1855758
51
126.4338849
0
ARC
8
DEFAULT_255_2_778_1
10
19.8579129
20
48.1450611
40
2.5513094
50
126.4326926
51
128.8877368
0
ARC
8
DEFAULT_255_2_778_1
10
19.5230968
20
48.5594658
40
2.0185498
50
128.8749205
51
131.8726567
0
ARC
8
DEFAULT_255_2_778_1
10
19.2259677
20
48.8904854
40
1.5737356
50
131.8616166
51
135.4168838
0
ARC
8
DEFAULT_255_2_778_1
10
18.963168
20
49.1486765
40
1.2053256
50
135.3893975
51
139.9687014
0
ARC
8
DEFAULT_255_2_778_1
10
18.7302889
20
49.3435102
40
0.9016937
50
139.9301659
51
145.9260426
0
ARC
8
DEFAULT_255_2_778_1
10
18.534154
20
49.4755104
40
0.6652776
50
145.8787362
51
153.8146208
0
ARC
8
DEFAULT_255_2_778_1
10
18.3820553
20
49.5498797
40
0.4959714
50
153.770634
51
164.3484794
0
ARC
8
DEFAULT_255_2_778_1
10
18.2807387
20
49.5780786
40
0.3908039
50
164.3220276
51
179.8083066
0
ARC
8
DEFAULT_255_2_778_1
10
18.3017789
20
49.586215
40
0.4118985
50
180.9499449
51
213.8111542
0
ARC
8
DEFAULT_255_2_778_1
10
18.5776828
20
49.7557896
40
0.73561
50
212.8271214
51
224.258472
0
ARC
8
DEFAULT_255_2_778_1
10
18.9605335
20
50.1251236
40
1.267567
50
224.1376218
51
231.4508261
0
ARC
8
DEFAULT_255_2_778_1
10
19.6032195
20
50.9281168
40
2.2960809
50
231.3955893
51
236.1256478
0
ARC
8
DEFAULT_255_2_778_1
10
21.4355223
20
53.6746293
40
5.5976905
50
236.2233172
51
239.1314682
0
ARC
8
DEFAULT_255_2_778_1
10
33.385427
20
73.4023568
40
28.6623793
50
238.8606853
51
239.0711101
0
ARC
8
DEFAULT_255_2_778_1
10
14.2132281
20
41.3052653
40
8.7248518
50
57.2420924
51
59.4062964
0
ARC
8
DEFAULT_255_2_778_1
10
17.4409241
20
46.3362102
40
2.747542
50
52.8289294
51
57.079028
0
ARC
8
DEFAULT_255_2_778_1
10
18.2155783
20
47.3565488
40
1.466457
50
46.3041868
51
52.8596521
0
ARC
8
DEFAULT_255_2_778_1
10
18.6478073
20
47.8066842
40
0.8424061
50
36.2174211
51
46.4090895
0
ARC
8
DEFAULT_255_2_778_1
10
18.9323088
20
48.0115128
40
0.4918609
50
17.400375
51
36.5489745
0
ARC
8
DEFAULT_255_2_778_1
10
19.0463994
20
48.0513754
40
0.3710912
50
0.0676858
51
16.7951297
0
ARC
8
DEFAULT_255_2_778_1
10
19.0253613
20
48.0532428
40
0.3921317
50
343.8035191
51
359.7912046
0
ARC
8
DEFAULT_255_2_778_1
10
18.9190912
20
48.0837167
40
0.5026844
50
333.2506233
51
343.8465691
0
ARC
8
DEFAULT_255_2_778_1
10
18.7652757
20
48.1604313
40
0.6745679
50
325.6600948
51
333.3122657
0
ARC
8
DEFAULT_255_2_778_1
10
18.5698344
20
48.2932296
40
0.9108568
50
319.7560915
51
325.6976089
0
ARC
8
DEFAULT_255_2_778_1
10
18.341699
20
48.4850002
40
1.2088854
50
315.4577584
51
319.8037947
0
ARC
8
DEFAULT_255_2_778_1
10
18.0783127
20
48.7438507
40
1.5781764
50
311.7298824
51
315.4670864
0
ARC
8
DEFAULT_255_2_778_1
10
17.7692879
20
49.0894074
40
2.0417554
50
308.723055
51
311.7470879
0
ARC
8
DEFAULT_255_2_778_1
10
17.415089
20
49.5306492
40
2.6075745
50
306.1165163
51
308.7300151
0
ARC
8
DEFAULT_255_2_778_1
10
17.0121091
20
50.0819523
40
3.2904564
50
303.9559446
51
306.1266333
0
ARC
8
DEFAULT_255_2_778_1
10
16.6005432
20
50.691215
40
4.0257023
50
302.3733397
51
303.9712246
0
ARC
8
DEFAULT_255_2_778_1
10
16.1809347
20
51.3527058
40
4.8090549
50
300.9434827
51
302.3758078
0
LINE
8
DEFAULT_255_2_778
10
18.6536417
20
46.1698078
11
18.6536417
21
5.1594078
0
LINE
8
DEFAULT_255_2_778
10
18.6536417
20
5.1594078
11
19.9765417
21
5.1594078
0
LINE
8
DEFAULT_255_1_234
10
4.9456119
20
100.0116792
11
4.9456119
21
99.8904
0
LINE
8
DEFAULT_255_1_234
10
4.9456119
20
99.8904
11
4.179384
21
99.8904
0
LINE
8
DEFAULT_255_1_234
10
4.179384
20
99.8904
11
4.179384
21
99.9972221
0
LINE
8
DEFAULT_255_1_234
10
4.179384
20
99.9972221
11
4.5841836
21
100.4469995
0
LINE
8
DEFAULT_255_1_234
10
4.3054823
20
100.7152595
11
4.1568952
21
100.7152595
0
LINE
8
DEFAULT_255_1_234
10
4.6717296
20
100.3514218
11
4.3584918
21
100.0116792
0
LINE
8
DEFAULT_255_1_234
10
4.3584918
20
100.0116792
11
4.9456119
21
100.0116792
0
ARC
8
DEFAULT_255_1_234
10
3.235167
20
101.6399527
40
1.8008286
50
318.5132453
51
320.7828378
0
ARC
8
DEFAULT_255_1_234
10
3.7638644
20
101.2096426
40
1.1191493
50
320.7372736
51
323.9737074
0
ARC
8
DEFAULT_255_1_234
10
4.1558501
20
100.9256361
40
0.6350923
50
323.8961724
51
328.6421089
0
ARC
8
DEFAULT_255_1_234
10
4.3605096
20
100.7994031
40
0.3946393
50
328.8299013
51
331.789948
0
ARC
8
DEFAULT_255_1_234
10
4.4602274
20
100.7479509
40
0.2824501
50
331.4255242
51
352.9364833
0
ARC
8
DEFAULT_255_1_234
10
4.4738775
20
100.7448976
40
0.2685315
50
353.2248685
51
0.0169286
0
ARC
8
DEFAULT_255_1_234
10
4.4948652
20
100.747195
40
0.2475536
50
359.4866256
51
15.9339782
0
ARC
8
DEFAULT_255_1_234
10
4.5455637
20
100.7608286
40
0.1950618
50
16.1714718
51
43.5284424
0
ARC
8
DEFAULT_255_1_234
10
4.5532946
20
100.7685573
40
0.184134
50
43.4415429
51
83.1661404
0
ARC
8
DEFAULT_255_1_234
10
4.5398864
20
100.6948771
40
0.258926
50
82.160215
51
90.1505798
0
ARC
8
DEFAULT_255_1_234
10
4.5367291
20
100.6411865
40
0.3126255
50
89.5460705
51
102.5418777
0
ARC
8
DEFAULT_255_1_234
10
4.5124377
20
100.7442665
40
0.2067346
50
102.1739365
51
129.2061916
0
ARC
8
DEFAULT_255_1_234
10
4.5045449
20
100.7567094
40
0.1921118
50
129.7279328
51
135.7542026
0
ARC
8
DEFAULT_255_1_234
10
4.5166977
20
100.7470045
40
0.2075944
50
136.175737
51
166.3674722
0
ARC
8
DEFAULT_255_1_234
10
4.6173896
20
100.7200182
40
0.3118201
50
165.9092917
51
178.8683903
0
ARC
8
DEFAULT_255_1_234
10
4.7038757
20
100.7153179
40
0.3983935
50
178.438168
51
180.0083905
0
ARC
8
DEFAULT_255_1_234
10
4.5637359
20
100.7192231
40
0.4068601
50
163.2878735
51
180.5581814
0
ARC
8
DEFAULT_255_1_234
10
4.4835621
20
100.741284
40
0.3237344
50
133.454115
51
162.9470031
0
ARC
8
DEFAULT_255_1_234
10
4.5014162
20
100.7223
40
0.349795
50
100.7869394
51
133.4384016
0
ARC
8
DEFAULT_255_1_234
10
4.5361934
20
100.5674319
40
0.5084616
50
89.6605301
51
101.3704185
0
ARC
8
DEFAULT_255_1_234
10
4.5428273
20
100.5735496
40
0.502348
50
78.2171172
51
90.4130393
0
ARC
8
DEFAULT_255_1_234
10
4.5783351
20
100.7359637
40
0.3361092
50
55.9268222
51
78.4888551
0
ARC
8
DEFAULT_255_1_234
10
4.5979791
20
100.7698324
40
0.2970617
50
47.9292255
51
55.4054003
0
ARC
8
DEFAULT_255_1_234
10
4.6081352
20
100.7801502
40
0.2825983
50
4.3347696
51
48.0560701
0
ARC
8
DEFAULT_255_1_234
10
4.4985745
20
100.7631601
40
0.393225
50
359.925209
51
5.5967654
0
ARC
8
DEFAULT_255_1_234
10
4.5414637
20
100.7687816
40
0.3503892
50
337.8914096
51
358.9967724
0
ARC
8
DEFAULT_255_1_234
10
4.2701049
20
100.8734706
40
0.6412172
50
326.9135351
51
338.3505194
0
ARC
8
DEFAULT_255_1_234
10
3.8715353
20
101.1289284
40
1.1146189
50
319.6472867
51
327.095818
0
ARC
8
DEFAULT_255_1_234
10
3.4882356
20
101.4451
40
1.6114559
50
317.2586784
51
319.9046139
0
LINE
8
DEFAULT_255_1_234
10
5.7303127
20
101.0598211
11
5.7303127
21
100.283152
0
LINE
8
DEFAULT_255_1_234
10
5.7303127
20
100.283152
11
5.8925538
21
100.283152
0
LINE
8
DEFAULT_255_1_234
10
5.8925538
20
100.283152
11
5.8925538
21
100.1618728
0
LINE
8
DEFAULT_255_1_234
10
5.8925538
20
100.1618728
11
5.7303127
21
100.1618728
0
LINE
8
DEFAULT_255_1_234
10
5.7303127
20
100.1618728
11
5.7303127
21
99.8904
0
LINE
8
DEFAULT_255_1_234
10
5.7303127
20
99.8904
11
5.5809224
21
99.8904
0
LINE
8
DEFAULT_255_1_234
10
5.5809224
20
99.8904
11
5.5809224
21
100.1618728
0
LINE
8
DEFAULT_255_1_234
10
5.5809224
20
100.1618728
11
5.0484181
21
100.1618728
0
LINE
8
DEFAULT_255_1_234
10
5.0484181
20
100.1618728
11
5.0484181
21
100.2494187
0
LINE
8
DEFAULT_255_1_234
10
5.0484181
20
100.2494187
11
5.5720875
21
101.0598211
0
LINE
8
DEFAULT_255_1_234
10
5.5720875
20
101.0598211
11
5.7303127
21
101.0598211
0
LINE
8
DEFAULT_255_1_234
10
5.5632525
20
100.8244912
11
5.2170846
21
100.283152
0
LINE
8
DEFAULT_255_1_234
10
5.2170846
20
100.283152
11
5.5809224
21
100.283152
0
LINE
8
DEFAULT_255_1_234
10
5.5809224
20
100.283152
11
5.5809224
21
100.8566181
0
LINE
8
DEFAULT_255_1_234
10
5.5809224
20
100.8566181
11
5.5632525
21
100.8244912
0
LINE
8
DEFAULT_255_1_234
10
6.119852
20
101.0598211
11
6.452366
21
100.0952093
0
LINE
8
DEFAULT_255_1_234
10
6.452366
20
100.0952093
11
6.7864863
21
101.0598211
0
LINE
8
DEFAULT_255_1_234
10
6.7864863
20
101.0598211
11
6.9551528
21
101.0598211
0
LINE
8
DEFAULT_255_1_234
10
6.9551528
20
101.0598211
11
6.5214389
21
99.8904
0
LINE
8
DEFAULT_255_1_234
10
6.5214389
20
99.8904
11
6.3848994
21
99.8904
0
LINE
8
DEFAULT_255_1_234
10
6.3848994
20
99.8904
11
5.9519887
21
101.0598211
0
LINE
8
DEFAULT_255_1_234
10
5.9519887
20
101.0598211
11
6.119852
21
101.0598211
0
LINE
8
DEFAULT_255_1_234
10
7.5141618
20
100.8590276
11
7.5141618
21
100.5176788
0
LINE
8
DEFAULT_255_1_234
10
7.5141618
20
100.5176788
11
7.8402503
21
100.5176788
0
LINE
8
DEFAULT_255_1_234
10
7.8402503
20
100.5176788
11
7.8402503
21
100.3771233
0
LINE
8
DEFAULT_255_1_234
10
7.8402503
20
100.3771233
11
7.5141618
21
100.3771233
0
LINE
8
DEFAULT_255_1_234
10
7.5141618
20
100.3771233
11
7.5141618
21
100.0076634
0
LINE
8
DEFAULT_255_1_234
10
7.5141618
20
100.0076634
11
7.3647714
21
100.0076634
0
LINE
8
DEFAULT_255_1_234
10
7.3647714
20
100.0076634
11
7.3647714
21
100.3771233
0
LINE
8
DEFAULT_255_1_234
10
7.3647714
20
100.3771233
11
7.0386829
21
100.3771233
0
LINE
8
DEFAULT_255_1_234
10
7.0386829
20
100.3771233
11
7.0386829
21
100.5176788
0
LINE
8
DEFAULT_255_1_234
10
7.0386829
20
100.5176788
11
7.3647714
21
100.5176788
0
LINE
8
DEFAULT_255_1_234
10
7.3647714
20
100.5176788
11
7.3647714
21
100.8590276
0
LINE
8
DEFAULT_255_1_234
10
7.3647714
20
100.8590276
11
7.5141618
21
100.8590276
0
LINE
8
DEFAULT_255_1_234
10
21.7512119
20
100.0116792
11
21.7512119
21
99.8904
0
LINE
8
DEFAULT_255_1_234
10
21.7512119
20
99.8904
11
20.984984
21
99.8904
0
LINE
8
DEFAULT_255_1_234
10
20.984984
20
99.8904
11
20.984984
21
99.9972221
0
LINE
8
DEFAULT_255_1_234
10
20.984984
20
99.9972221
11
21.3897836
21
100.4469995
0
LINE
8
DEFAULT_255_1_234
10
21.1110823
20
100.7152595
11
20.9624952
21
100.7152595
0
LINE
8
DEFAULT_255_1_234
10
21.4773296
20
100.3514218
11
21.1640918
21
100.0116792
0
LINE
8
DEFAULT_255_1_234
10
21.1640918
20
100.0116792
11
21.7512119
21
100.0116792
0
ARC
8
DEFAULT_255_1_234
10
20.040767
20
101.6399527
40
1.8008286
50
318.5132453
51
320.7828378
0
ARC
8
DEFAULT_255_1_234
10
20.5694644
20
101.2096426
40
1.1191493
50
320.7372736
51
323.9737074
0
ARC
8
DEFAULT_255_1_234
10
20.9614501
20
100.9256361
40
0.6350923
50
323.8961724
51
328.6421089
0
ARC
8
DEFAULT_255_1_234
10
21.1661096
20
100.7994031
40
0.3946393
50
328.8299013
51
331.789948
0
ARC
8
DEFAULT_255_1_234
10
21.2658274
20
100.7479509
40
0.2824501
50
331.4255242
51
352.9364833
0
ARC
8
DEFAULT_255_1_234
10
21.2794775
20
100.7448976
40
0.2685315
50
353.2248685
51
0.0169286
0
ARC
8
DEFAULT_255_1_234
10
21.3004652
20
100.747195
40
0.2475536
50
359.4866256
51
15.9339782
0
ARC
8
DEFAULT_255_1_234
10
21.3511637
20
100.7608286
40
0.1950618
50
16.1714718
51
43.5284424
0
ARC
8
DEFAULT_255_1_234
10
21.3588946
20
100.7685573
40
0.184134
50
43.4415429
51
83.1661404
0
ARC
8
DEFAULT_255_1_234
10
21.3454864
20
100.6948771
40
0.258926
50
82.160215
51
90.1505798
0
ARC
8
DEFAULT_255_1_234
10
21.3423291
20
100.6411865
40
0.3126255
50
89.5460705
51
102.5418777
0
ARC
8
DEFAULT_255_1_234
10
21.3180377
20
100.7442665
40
0.2067346
50
102.1739365
51
129.2061916
0
ARC
8
DEFAULT_255_1_234
10
21.3101449
20
100.7567094
40
0.1921118
50
129.7279328
51
135.7542026
0
ARC
8
DEFAULT_255_1_234
10
21.3222977
20
100.7470045
40
0.2075944
50
136.175737
51
166.3674722
0
ARC
8
DEFAULT_255_1_234
10
21.4229896
20
100.7200182
40
0.3118201
50
165.9092917
51
178.8683903
0
ARC
8
DEFAULT_255_1_234
10
21.5094757
20
100.7153179
40
0.3983935
50
178.438168
51
180.0083905
0
ARC
8
DEFAULT_255_1_234
10
21.3693359
20
100.7192231
40
0.4068601
50
163.2878735
51
180.5581814
0
ARC
8
DEFAULT_255_1_234
10
21.2891621
20
100.741284
40
0.3237344
50
133.454115
51
162.9470031
0
ARC
8
DEFAULT_255_1_234
10
21.3070162
20
100.7223
40
0.349795
50
100.7869394
51
133.4384016
0
ARC
8
DEFAULT_255_1_234
10
21.3417934
20
100.5674319
40
0.5084616
50
89.6605301
51
101.3704185
0
ARC
8
DEFAULT_255_1_234
10
21.3484273
20
100.5735496
40
0.502348
50
78.2171172
51
90.4130393
0
ARC
8
DEFAULT_255_1_234
10
21.3839351
20
100.7359637
40
0.3361092
50
55.9268222
51
78.4888551
0
ARC
8
DEFAULT_255_1_234
10
21.4035791
20
100.7698324
40
0.2970617
50
47.9292255
51
55.4054003
0
ARC
8
DEFAULT_255_1_234
10
21.4137352
20
100.7801502
40
0.2825983
50
4.3347696
51
48.0560701
0
ARC
8
DEFAULT_255_1_234
10
21.3041745
20
100.7631601
40
0.393225
50
359.925209
51
5.5967654
0
ARC
8
DEFAULT_255_1_234
10
21.3470637
20
100.7687816
40
0.3503892
50
337.8914096
51
358.9967724
0
ARC
8
DEFAULT_255_1_234
10
21.0757049
20
100.8734706
40
0.6412172
50
326.9135351
51
338.3505194
0
ARC
8
DEFAULT_255_1_234
10
20.6771353
20
101.1289284
40
1.1146189
50
319.6472867
51
327.095818
0
ARC
8
DEFAULT_255_1_234
10
20.2938356
20
101.4451
40
1.6114559
50
317.2586784
51
319.9046139
0
LINE
8
DEFAULT_255_1_234
10
22.5359127
20
101.0598211
11
22.5359127
21
100.283152
0
LINE
8
DEFAULT_255_1_234
10
22.5359127
20
100.283152
11
22.6981538
21
100.283152
0
LINE
8
DEFAULT_255_1_234
10
22.6981538
20
100.283152
11
22.6981538
21
100.1618728
0
LINE
8
DEFAULT_255_1_234
10
22.6981538
20
100.1618728
11
22.5359127
21
100.1618728
0
LINE
8
DEFAULT_255_1_234
10
22.5359127
20
100.1618728
11
22.5359127
21
99.8904
0
LINE
8
DEFAULT_255_1_234
10
22.5359127
20
99.8904
11
22.3865224
21
99.8904
0
LINE
8
DEFAULT_255_1_234
10
22.3865224
20
99.8904
11
22.3865224
21
100.1618728
0
LINE
8
DEFAULT_255_1_234
10
22.3865224
20
100.1618728
11
21.8540181
21
100.1618728
0
LINE
8
DEFAULT_255_1_234
10
21.8540181
20
100.1618728
11
21.8540181
21
100.2494187
0
LINE
8
DEFAULT_255_1_234
10
21.8540181
20
100.2494187
11
22.3776875
21
101.0598211
0
LINE
8
DEFAULT_255_1_234
10
22.3776875
20
101.0598211
11
22.5359127
21
101.0598211
0
LINE
8
DEFAULT_255_1_234
10
22.3688525
20
100.8244912
11
22.0226846
21
100.283152
0
LINE
8
DEFAULT_255_1_234
10
22.0226846
20
100.283152
11
22.3865224
21
100.283152
0
LINE
8
DEFAULT_255_1_234
10
22.3865224
20
100.283152
11
22.3865224
21
100.8566181
0
LINE
8
DEFAULT_255_1_234
10
22.3865224
20
100.8566181
11
22.3688525
21
100.8244912
0
LINE
8
DEFAULT_255_1_234
10
22.925452
20
101.0598211
11
23.257966
21
100.0952093
0
LINE
8
DEFAULT_255_1_234
10
23.257966
20
100.0952093
11
23.5920863
21
101.0598211
0
LINE
8
DEFAULT_255_1_234
10
23.5920863
20
101.0598211
11
23.7607528
21
101.0598211
0
LINE
8
DEFAULT_255_1_234
10
23.7607528
20
101.0598211
11
23.3270389
21
99.8904
0
LINE
8
DEFAULT_255_1_234
10
23.3270389
20
99.8904
11
23.1904994
21
99.8904
0
LINE
8
DEFAULT_255_1_234
10
23.1904994
20
99.8904
11
22.7575887
21
101.0598211
0
LINE
8
DEFAULT_255_1_234
10
22.7575887
20
101.0598211
11
22.925452
21
101.0598211
0
LINE
8
DEFAULT_255_1_234
10
24.1735841
20
100.4478026
11
24.1735841
21
100.3265234
0
LINE
8
DEFAULT_255_1_234
10
24.1735841
20
100.3265234
11
23.7816353
21
100.3265234
0
LINE
8
DEFAULT_255_1_234
10
23.7816353
20
100.3265234
11
23.7816353
21
100.4478026
0
LINE
8
DEFAULT_255_1_234
10
23.7816353
20
100.4478026
11
24.1735841
21
100.4478026
0
LINE
8
DEFAULT_255_1_234
10
21.9220522
20
5.8098211
11
22.2545662
21
4.8452093
0
LINE
8
DEFAULT_255_1_234
10
22.2545662
20
4.8452093
11
22.5886865
21
5.8098211
0
LINE
8
DEFAULT_255_1_234
10
22.5886865
20
5.8098211
11
22.757353
21
5.8098211
0
LINE
8
DEFAULT_255_1_234
10
22.757353
20
5.8098211
11
22.3236391
21
4.6404
0
LINE
8
DEFAULT_255_1_234
10
22.3236391
20
4.6404
11
22.1870996
21
4.6404
0
LINE
8
DEFAULT_255_1_234
10
22.1870996
20
4.6404
11
21.7541889
21
5.8098211
0
LINE
8
DEFAULT_255_1_234
10
21.7541889
20
5.8098211
11
21.9220522
21
5.8098211
0
LINE
8
DEFAULT_255_1_234
10
23.432019
20
5.8106243
11
23.4585237
21
5.8106243
0
LINE
8
DEFAULT_255_1_234
10
23.4585237
20
5.8106243
11
23.4585237
21
5.684526
0
LINE
8
DEFAULT_255_1_234
10
23.4585237
20
5.684526
11
23.4312158
21
5.684526
0
LINE
8
DEFAULT_255_1_234
10
22.8842544
20
5.0853583
11
22.8842544
21
5.1423836
0
LINE
8
DEFAULT_255_1_234
10
23.0336448
20
5.1231075
11
23.0336448
21
5.0684917
0
ARC
8
DEFAULT_255_1_234
10
23.4364506
20
5.1847455
40
0.4998079
50
90.6001036
51
104.514704
0
ARC
8
DEFAULT_255_1_234
10
23.3976022
20
5.3292131
40
0.3502176
50
104.2855254
51
133.862935
0
ARC
8
DEFAULT_255_1_234
10
23.4139779
20
5.318383
40
0.3693984
50
134.5302688
51
161.6210873
0
ARC
8
DEFAULT_255_1_234
10
23.5792968
20
5.2600895
40
0.5446739
50
161.2849839
51
174.2076652
0
ARC
8
DEFAULT_255_1_234
10
23.7199905
20
5.2406787
40
0.6866274
50
173.7810589
51
174.9254635
0
ARC
8
DEFAULT_255_1_234
10
23.2649737
20
5.1023839
40
0.3033419
50
95.8330959
51
138.9954921
0
ARC
8
DEFAULT_255_1_234
10
23.2873093
20
4.9745375
40
0.4328947
50
89.8753725
51
97.0544009
0
ARC
8
DEFAULT_255_1_234
10
23.2920559
20
5.0580748
40
0.3493769
50
71.6407809
51
90.6240094
0
ARC
8
DEFAULT_255_1_234
10
23.3071132
20
5.1135082
40
0.2920396
50
39.6367836
51
71.019018
0
ARC
8
DEFAULT_255_1_234
10
23.2434605
20
5.0584998
40
0.3761538
50
10.658731
51
39.9043955
0
ARC
8
DEFAULT_255_1_234
10
23.0886688
20
5.0248686
40
0.5345136
50
359.682601
51
11.132623
0
ARC
8
DEFAULT_255_1_234
10
23.0846819
20
5.017801
40
0.5385081
50
347.2486944
51
0.4369317
0
ARC
8
DEFAULT_255_1_234
10
23.2514296
20
4.9776807
40
0.3670249
50
318.1409698
51
347.6118597
0
ARC
8
DEFAULT_255_1_234
10
23.2839289
20
4.9509702
40
0.3250007
50
275.6342139
51
317.8248465
0
ARC
8
DEFAULT_255_1_234
10
23.26184
20
5.0809219
40
0.4565864
50
269.8874292
51
276.7917694
0
ARC
8
DEFAULT_255_1_234
10
23.2563471
20
4.9783743
40
0.3540676
50
246.9140195
51
270.7437342
0
ARC
8
DEFAULT_255_1_234
10
23.2569861
20
4.9641384
40
0.3412781
50
218.1665114
51
245.878116
0
ARC
8
DEFAULT_255_1_234
10
23.3449322
20
5.0377279
40
0.455911
50
191.4115814
51
218.6077802
0
ARC
8
DEFAULT_255_1_234
10
23.5387411
20
5.0811833
40
0.6545001
50
179.6345085
51
191.7836486
0
ARC
8
DEFAULT_255_1_234
10
24.0969748
20
5.1490697
40
1.2127388
50
171.4525249
51
180.3158839
0
ARC
8
DEFAULT_255_1_234
10
23.6574624
20
5.2174608
40
0.7679464
50
157.9802646
51
171.6246686
0
ARC
8
DEFAULT_255_1_234
10
23.4360645
20
5.3057421
40
0.5296008
50
141.4298019
51
157.854097
0
ARC
8
DEFAULT_255_1_234
10
23.3718965
20
5.3511381
40
0.4511509
50
102.8715806
51
140.8564722
0
ARC
8
DEFAULT_255_1_234
10
23.4366581
20
5.1071552
40
0.7034845
50
90.3778349
51
103.5869322
0
ARC
8
DEFAULT_255_1_234
10
23.2628357
20
5.046673
40
0.2370698
50
89.8751008
51
126.2071704
0
ARC
8
DEFAULT_255_1_234
10
23.2674147
20
5.0312303
40
0.2522934
50
124.9745049
51
144.895901
0
ARC
8
DEFAULT_255_1_234
10
23.2498337
20
5.045556
40
0.2296779
50
145.2974905
51
160.2660252
0
ARC
8
DEFAULT_255_1_234
10
23.5570876
20
5.0653071
40
0.5234525
50
179.6514266
51
190.2855912
0
ARC
8
DEFAULT_255_1_234
10
23.3877013
20
5.0333786
40
0.3510893
50
190.0945431
51
207.5098196
0
ARC
8
DEFAULT_255_1_234
10
23.3311283
20
5.0064623
40
0.288489
50
207.9583163
51
216.3251085
0
ARC
8
DEFAULT_255_1_234
10
23.2971391
20
4.9785105
40
0.2445587
50
215.7661442
51
232.5456785
0
ARC
8
DEFAULT_255_1_234
10
23.2588374
20
4.9298482
40
0.1826382
50
232.8005391
51
270.6605633
0
ARC
8
DEFAULT_255_1_234
10
23.2634075
20
4.9662612
40
0.2190529
50
269.35537
51
288.4744281
0
ARC
8
DEFAULT_255_1_234
10
23.2726972
20
4.9313118
40
0.1829749
50
289.1833337
51
322.9683818
0
ARC
8
DEFAULT_255_1_234
10
23.2115494
20
4.9795391
40
0.2608399
50
322.6007884
51
346.5182367
0
ARC
8
DEFAULT_255_1_234
10
23.095809
20
5.0090616
40
0.3802777
50
346.2582162
51
358.7741648
0
ARC
8
DEFAULT_255_1_234
10
22.9939759
20
5.0145965
40
0.4822176
50
358.3755224
51
0.0098023
0
ARC
8
DEFAULT_255_1_234
10
23.0695946
20
5.0173657
40
0.4066078
50
359.6214041
51
11.2839074
0
ARC
8
DEFAULT_255_1_234
10
23.1973093
20
5.0440066
40
0.2761514
50
11.0482309
51
31.8146458
0
ARC
8
DEFAULT_255_1_234
10
23.2282136
20
5.0607584
40
0.2410679
50
32.3035391
51
38.082671
0
ARC
8
DEFAULT_255_1_234
10
23.2702796
20
5.0988662
40
0.1844966
50
36.825067
51
85.7415724
0
ARC
8
DEFAULT_255_1_234
10
23.2635629
20
5.0488301
40
0.2349122
50
85.0140713
51
90.0513278
0
LINE
8
DEFAULT_255_1_234
10
24.1235517
20
5.1978026
11
24.1235517
21
5.0765234
0
LINE
8
DEFAULT_255_1_234
10
24.1235517
20
5.0765234
11
23.7316028
21
5.0765234
0
LINE
8
DEFAULT_255_1_234
10
23.7316028
20
5.0765234
11
23.7316028
21
5.1978026
0
LINE
8
DEFAULT_255_1_234
10
23.7316028
20
5.1978026
11
24.1235517
21
5.1978026
0
LINE
8
DEFAULT_255_1_234
10
21.9220522
20
13.7473211
11
22.2545662
21
12.7827093
0
LINE
8
DEFAULT_255_1_234
10
22.2545662
20
12.7827093
11
22.5886865
21
13.7473211
0
LINE
8
DEFAULT_255_1_234
10
22.5886865
20
13.7473211
11
22.757353
21
13.7473211
0
LINE
8
DEFAULT_255_1_234
10
22.757353
20
13.7473211
11
22.3236391
21
12.5779
0
LINE
8
DEFAULT_255_1_234
10
22.3236391
20
12.5779
11
22.1870996
21
12.5779
0
LINE
8
DEFAULT_255_1_234
10
22.1870996
20
12.5779
11
21.7541889
21
13.7473211
0
LINE
8
DEFAULT_255_1_234
10
21.7541889
20
13.7473211
11
21.9220522
21
13.7473211
0
LINE
8
DEFAULT_255_1_234
10
23.062559
20
13.1336963
11
22.9436893
21
13.1642169
0
LINE
8
DEFAULT_255_1_234
10
22.9436893
20
13.1642169
11
23.0031242
21
13.7473211
0
LINE
8
DEFAULT_255_1_234
10
23.0031242
20
13.7473211
11
23.6022918
21
13.7473211
0
LINE
8
DEFAULT_255_1_234
10
23.6022918
20
13.7473211
11
23.6022918
21
13.6099784
0
LINE
8
DEFAULT_255_1_234
10
23.6022918
20
13.6099784
11
23.1292225
21
13.6099784
0
LINE
8
DEFAULT_255_1_234
10
23.1292225
20
13.6099784
11
23.0938828
21
13.2911184
0
LINE
8
DEFAULT_255_1_234
10
22.9019243
20
12.8855156
11
23.0424797
21
12.8855156
0
LINE
8
DEFAULT_255_1_234
10
23.1019146
20
13.1658232
11
23.062559
21
13.1336963
0
ARC
8
DEFAULT_255_1_234
10
23.2793612
20
12.973123
40
0.3681349
50
93.7182161
51
120.2538958
0
ARC
8
DEFAULT_255_1_234
10
23.2887875
20
12.8923394
40
0.449379
50
89.9660152
51
94.2496022
0
ARC
8
DEFAULT_255_1_234
10
23.2928609
20
12.9512549
40
0.390482
50
73.8043271
51
90.5585896
0
ARC
8
DEFAULT_255_1_234
10
23.3163506
20
13.0370602
40
0.3015334
50
41.3071453
51
73.5430202
0
ARC
8
DEFAULT_255_1_234
10
23.2747333
20
13.0012324
40
0.3564457
50
13.5075983
51
41.2174222
0
ARC
8
DEFAULT_255_1_234
10
23.1105537
20
12.9582486
40
0.5261351
50
1.1331335
51
13.8829381
0
ARC
8
DEFAULT_255_1_234
10
22.9693906
20
12.9506665
40
0.6674378
50
359.9919444
51
1.544251
0
ARC
8
DEFAULT_255_1_234
10
23.0970732
20
12.946528
40
0.5397702
50
347.8572367
51
0.4293338
0
ARC
8
DEFAULT_255_1_234
10
23.272105
20
12.9068736
40
0.3603188
50
323.673004
51
348.1672506
0
ARC
8
DEFAULT_255_1_234
10
23.3015558
20
12.8889168
40
0.3259678
50
316.8171152
51
323.1492751
0
ARC
8
DEFAULT_255_1_234
10
23.3076747
20
12.885246
40
0.3189975
50
281.8396411
51
316.5457803
0
ARC
8
DEFAULT_255_1_234
10
23.2701011
20
13.0407762
40
0.4789527
50
269.5770101
51
282.4214771
0
ARC
8
DEFAULT_255_1_234
10
23.2629822
20
13.0194125
40
0.45759
50
256.2427136
51
270.4486331
0
ARC
8
DEFAULT_255_1_234
10
23.2330724
20
12.8994229
40
0.3339303
50
228.9023911
51
256.3314342
0
ARC
8
DEFAULT_255_1_234
10
23.2256957
20
12.8877746
40
0.32031
50
193.753695
51
228.5271154
0
ARC
8
DEFAULT_255_1_234
10
23.3494911
20
12.92408
40
0.4492253
50
184.924711
51
194.497588
0
ARC
8
DEFAULT_255_1_234
10
23.3687478
20
12.9276591
40
0.3289787
50
187.3600538
51
198.6732863
0
ARC
8
DEFAULT_255_1_234
10
23.2637772
20
12.8912674
40
0.217884
50
198.4451669
51
217.794479
0
ARC
8
DEFAULT_255_1_234
10
23.2341947
20
12.8703085
40
0.1816698
50
218.2887171
51
228.5612368
0
ARC
8
DEFAULT_255_1_234
10
23.2439734
20
12.8834963
40
0.1980329
50
228.9654866
51
258.1234728
0
ARC
8
DEFAULT_255_1_234
10
23.2645444
20
12.9715833
40
0.2884748
50
257.7258293
51
270.401361
0
ARC
8
DEFAULT_255_1_234
10
23.269033
20
12.9270821
40
0.2439788
50
269.4204404
51
286.4209037
0
ARC
8
DEFAULT_255_1_234
10
23.2838818
20
12.8731657
40
0.1880666
50
286.7251356
51
320.600362
0
ARC
8
DEFAULT_255_1_234
10
23.2455643
20
12.9042595
40
0.2374121
50
320.6712579
51
344.5441685
0
ARC
8
DEFAULT_255_1_234
10
23.1298969
20
12.9382045
40
0.3579479
50
344.2412205
51
356.7357071
0
ARC
8
DEFAULT_255_1_234
10
23.0050118
20
12.9485444
40
0.4832297
50
356.3548756
51
0.0500261
0
ARC
8
DEFAULT_255_1_234
10
23.1386627
20
12.951665
40
0.3495889
50
359.5576869
51
12.953486
0
ARC
8
DEFAULT_255_1_234
10
23.2441524
20
12.9772434
40
0.2410532
50
12.6490276
51
41.6081334
0
ARC
8
DEFAULT_255_1_234
10
23.2671895
20
12.9968321
40
0.2108218
50
41.7850273
51
85.9892764
0
ARC
8
DEFAULT_255_1_234
10
23.2548632
20
12.9155462
40
0.2928454
50
84.6957577
51
90.0676183
0
ARC
8
DEFAULT_255_1_234
10
23.2525116
20
12.8486716
40
0.3597255
50
89.6804936
51
99.1614436
0
ARC
8
DEFAULT_255_1_234
10
23.2319747
20
12.9714131
40
0.235281
50
98.9830931
51
113.8908934
0
ARC
8
DEFAULT_255_1_234
10
23.2090157
20
13.0255587
40
0.176479
50
114.1950727
51
127.3641004
0
LINE
8
DEFAULT_255_1_234
10
24.1235517
20
13.1353026
11
24.1235517
21
13.0140234
0
LINE
8
DEFAULT_255_1_234
10
24.1235517
20
13.0140234
11
23.7316028
21
13.0140234
0
LINE
8
DEFAULT_255_1_234
10
23.7316028
20
13.0140234
11
23.7316028
21
13.1353026
0
LINE
8
DEFAULT_255_1_234
10
23.7316028
20
13.1353026
11
24.1235517
21
13.1353026
0
LINE
8
DEFAULT_255_1_234
10
21.4706522
20
21.6848211
11
21.8031662
21
20.7202093
0
LINE
8
DEFAULT_255_1_234
10
21.8031662
20
20.7202093
11
22.1372865
21
21.6848211
0
LINE
8
DEFAULT_255_1_234
10
22.1372865
20
21.6848211
11
22.305953
21
21.6848211
0
LINE
8
DEFAULT_255_1_234
10
22.305953
20
21.6848211
11
21.8722391
21
20.5154
0
LINE
8
DEFAULT_255_1_234
10
21.8722391
20
20.5154
11
21.7356996
21
20.5154
0
LINE
8
DEFAULT_255_1_234
10
21.7356996
20
20.5154
11
21.3027889
21
21.6848211
0
LINE
8
DEFAULT_255_1_234
10
21.3027889
20
21.6848211
11
21.4706522
21
21.6848211
0
LINE
8
DEFAULT_255_1_234
10
22.980619
20
21.6856243
11
23.0071237
21
21.6856243
0
LINE
8
DEFAULT_255_1_234
10
23.0071237
20
21.6856243
11
23.0071237
21
21.559526
0
LINE
8
DEFAULT_255_1_234
10
23.0071237
20
21.559526
11
22.9798158
21
21.559526
0
LINE
8
DEFAULT_255_1_234
10
22.4328544
20
20.9603583
11
22.4328544
21
21.0173836
0
LINE
8
DEFAULT_255_1_234
10
22.5822448
20
20.9981075
11
22.5822448
21
20.9434917
0
ARC
8
DEFAULT_255_1_234
10
22.9850506
20
21.0597455
40
0.4998079
50
90.6001036
51
104.514704
0
ARC
8
DEFAULT_255_1_234
10
22.9462022
20
21.2042131
40
0.3502176
50
104.2855254
51
133.862935
0
ARC
8
DEFAULT_255_1_234
10
22.9625779
20
21.193383
40
0.3693984
50
134.5302688
51
161.6210873
0
ARC
8
DEFAULT_255_1_234
10
23.1278968
20
21.1350895
40
0.5446739
50
161.2849839
51
174.2076652
0
ARC
8
DEFAULT_255_1_234
10
23.2685905
20
21.1156787
40
0.6866274
50
173.7810589
51
174.9254635
0
ARC
8
DEFAULT_255_1_234
10
22.8135737
20
20.9773839
40
0.3033419
50
95.8330959
51
138.9954921
0
ARC
8
DEFAULT_255_1_234
10
22.8359093
20
20.8495375
40
0.4328947
50
89.8753725
51
97.0544009
0
ARC
8
DEFAULT_255_1_234
10
22.8406559
20
20.9330748
40
0.3493769
50
71.6407809
51
90.6240094
0
ARC
8
DEFAULT_255_1_234
10
22.8557132
20
20.9885082
40
0.2920396
50
39.6367836
51
71.019018
0
ARC
8
DEFAULT_255_1_234
10
22.7920605
20
20.9334998
40
0.3761538
50
10.658731
51
39.9043955
0
ARC
8
DEFAULT_255_1_234
10
22.6372688
20
20.8998686
40
0.5345136
50
359.682601
51
11.132623
0
ARC
8
DEFAULT_255_1_234
10
22.6332819
20
20.892801
40
0.5385081
50
347.2486944
51
0.4369317
0
ARC
8
DEFAULT_255_1_234
10
22.8000296
20
20.8526807
40
0.3670249
50
318.1409698
51
347.6118597
0
ARC
8
DEFAULT_255_1_234
10
22.8325289
20
20.8259702
40
0.3250007
50
275.6342139
51
317.8248465
0
ARC
8
DEFAULT_255_1_234
10
22.81044
20
20.9559219
40
0.4565864
50
269.8874292
51
276.7917694
0
ARC
8
DEFAULT_255_1_234
10
22.8049471
20
20.8533743
40
0.3540676
50
246.9140195
51
270.7437342
0
ARC
8
DEFAULT_255_1_234
10
22.8055861
20
20.8391384
40
0.3412781
50
218.1665114
51
245.878116
0
ARC
8
DEFAULT_255_1_234
10
22.8935322
20
20.9127279
40
0.455911
50
191.4115814
51
218.6077802
0
ARC
8
DEFAULT_255_1_234
10
23.0873411
20
20.9561833
40
0.6545001
50
179.6345085
51
191.7836486
0
ARC
8
DEFAULT_255_1_234
10
23.6455748
20
21.0240697
40
1.2127388
50
171.4525249
51
180.3158839
0
ARC
8
DEFAULT_255_1_234
10
23.2060624
20
21.0924608
40
0.7679464
50
157.9802646
51
171.6246686
0
ARC
8
DEFAULT_255_1_234
10
22.9846645
20
21.1807421
40
0.5296008
50
141.4298019
51
157.854097
0
ARC
8
DEFAULT_255_1_234
10
22.9204965
20
21.2261381
40
0.4511509
50
102.8715806
51
140.8564722
0
ARC
8
DEFAULT_255_1_234
10
22.9852581
20
20.9821552
40
0.7034845
50
90.3778349
51
103.5869322
0
ARC
8
DEFAULT_255_1_234
10
22.8114357
20
20.921673
40
0.2370698
50
89.8751008
51
126.2071704
0
ARC
8
DEFAULT_255_1_234
10
22.8160147
20
20.9062303
40
0.2522934
50
124.9745049
51
144.895901
0
ARC
8
DEFAULT_255_1_234
10
22.7984337
20
20.920556
40
0.2296779
50
145.2974905
51
160.2660252
0
ARC
8
DEFAULT_255_1_234
10
23.1056876
20
20.9403071
40
0.5234525
50
179.6514266
51
190.2855912
0
ARC
8
DEFAULT_255_1_234
10
22.9363013
20
20.9083786
40
0.3510893
50
190.0945431
51
207.5098196
0
ARC
8
DEFAULT_255_1_234
10
22.8797283
20
20.8814623
40
0.288489
50
207.9583163
51
216.3251085
0
ARC
8
DEFAULT_255_1_234
10
22.8457391
20
20.8535105
40
0.2445587
50
215.7661442
51
232.5456785
0
ARC
8
DEFAULT_255_1_234
10
22.8074374
20
20.8048482
40
0.1826382
50
232.8005391
51
270.6605633
0
ARC
8
DEFAULT_255_1_234
10
22.8120075
20
20.8412612
40
0.2190529
50
269.35537
51
288.4744281
0
ARC
8
DEFAULT_255_1_234
10
22.8212972
20
20.8063118
40
0.1829749
50
289.1833337
51
322.9683818
0
ARC
8
DEFAULT_255_1_234
10
22.7601494
20
20.8545391
40
0.2608399
50
322.6007884
51
346.5182367
0
ARC
8
DEFAULT_255_1_234
10
22.644409
20
20.8840616
40
0.3802777
50
346.2582162
51
358.7741648
0
ARC
8
DEFAULT_255_1_234
10
22.5425759
20
20.8895965
40
0.4822176
50
358.3755224
51
0.0098023
0
ARC
8
DEFAULT_255_1_234
10
22.6181946
20
20.8923657
40
0.4066078
50
359.6214041
51
11.2839074
0
ARC
8
DEFAULT_255_1_234
10
22.7459093
20
20.9190066
40
0.2761514
50
11.0482309
51
31.8146458
0
ARC
8
DEFAULT_255_1_234
10
22.7768136
20
20.9357584
40
0.2410679
50
32.3035391
51
38.082671
0
ARC
8
DEFAULT_255_1_234
10
22.8188796
20
20.9738662
40
0.1844966
50
36.825067
51
85.7415724
0
ARC
8
DEFAULT_255_1_234
10
22.8121629
20
20.9238301
40
0.2349122
50
85.0140713
51
90.0513278
0
LINE
8
DEFAULT_255_1_234
10
23.7886119
20
21.4840276
11
23.7886119
21
21.1426788
0
LINE
8
DEFAULT_255_1_234
10
23.7886119
20
21.1426788
11
24.1147004
21
21.1426788
0
LINE
8
DEFAULT_255_1_234
10
24.1147004
20
21.1426788
11
24.1147004
21
21.0021233
0
LINE
8
DEFAULT_255_1_234
10
24.1147004
20
21.0021233
11
23.7886119
21
21.0021233
0
LINE
8
DEFAULT_255_1_234
10
23.7886119
20
21.0021233
11
23.7886119
21
20.6326634
0
LINE
8
DEFAULT_255_1_234
10
23.7886119
20
20.6326634
11
23.6392215
21
20.6326634
0
LINE
8
DEFAULT_255_1_234
10
23.6392215
20
20.6326634
11
23.6392215
21
21.0021233
0
LINE
8
DEFAULT_255_1_234
10
23.6392215
20
21.0021233
11
23.313133
21
21.0021233
0
LINE
8
DEFAULT_255_1_234
10
23.313133
20
21.0021233
11
23.313133
21
21.1426788
0
LINE
8
DEFAULT_255_1_234
10
23.313133
20
21.1426788
11
23.6392215
21
21.1426788
0
LINE
8
DEFAULT_255_1_234
10
23.6392215
20
21.1426788
11
23.6392215
21
21.4840276
0
LINE
8
DEFAULT_255_1_234
10
23.6392215
20
21.4840276
11
23.7886119
21
21.4840276
0
LINE
8
DEFAULT_255_1_234
10
21.4706522
20
29.6223211
11
21.8031662
21
28.6577093
0
LINE
8
DEFAULT_255_1_234
10
21.8031662
20
28.6577093
11
22.1372865
21
29.6223211
0
LINE
8
DEFAULT_255_1_234
10
22.1372865
20
29.6223211
11
22.305953
21
29.6223211
0
LINE
8
DEFAULT_255_1_234
10
22.305953
20
29.6223211
11
21.8722391
21
28.4529
0
LINE
8
DEFAULT_255_1_234
10
21.8722391
20
28.4529
11
21.7356996
21
28.4529
0
LINE
8
DEFAULT_255_1_234
10
21.7356996
20
28.4529
11
21.3027889
21
29.6223211
0
LINE
8
DEFAULT_255_1_234
10
21.3027889
20
29.6223211
11
21.4706522
21
29.6223211
0
LINE
8
DEFAULT_255_1_234
10
22.611159
20
29.0086963
11
22.4922893
21
29.0392169
0
LINE
8
DEFAULT_255_1_234
10
22.4922893
20
29.0392169
11
22.5517242
21
29.6223211
0
LINE
8
DEFAULT_255_1_234
10
22.5517242
20
29.6223211
11
23.1508918
21
29.6223211
0
LINE
8
DEFAULT_255_1_234
10
23.1508918
20
29.6223211
11
23.1508918
21
29.4849784
0
LINE
8
DEFAULT_255_1_234
10
23.1508918
20
29.4849784
11
22.6778225
21
29.4849784
0
LINE
8
DEFAULT_255_1_234
10
22.6778225
20
29.4849784
11
22.6424828
21
29.1661184
0
LINE
8
DEFAULT_255_1_234
10
22.4505243
20
28.7605156
11
22.5910797
21
28.7605156
0
LINE
8
DEFAULT_255_1_234
10
22.6505146
20
29.0408232
11
22.611159
21
29.0086963
0
ARC
8
DEFAULT_255_1_234
10
22.8279612
20
28.848123
40
0.3681349
50
93.7182161
51
120.2538958
0
ARC
8
DEFAULT_255_1_234
10
22.8373875
20
28.7673394
40
0.449379
50
89.9660152
51
94.2496022
0
ARC
8
DEFAULT_255_1_234
10
22.8414609
20
28.8262549
40
0.390482
50
73.8043271
51
90.5585896
0
ARC
8
DEFAULT_255_1_234
10
22.8649506
20
28.9120602
40
0.3015334
50
41.3071453
51
73.5430202
0
ARC
8
DEFAULT_255_1_234
10
22.8233333
20
28.8762324
40
0.3564457
50
13.5075983
51
41.2174222
0
ARC
8
DEFAULT_255_1_234
10
22.6591537
20
28.8332486
40
0.5261351
50
1.1331335
51
13.8829381
0
ARC
8
DEFAULT_255_1_234
10
22.5179906
20
28.8256665
40
0.6674378
50
359.9919444
51
1.544251
0
ARC
8
DEFAULT_255_1_234
10
22.6456732
20
28.821528
40
0.5397702
50
347.8572367
51
0.4293338
0
ARC
8
DEFAULT_255_1_234
10
22.820705
20
28.7818736
40
0.3603188
50
323.673004
51
348.1672506
0
ARC
8
DEFAULT_255_1_234
10
22.8501558
20
28.7639168
40
0.3259678
50
316.8171152
51
323.1492751
0
ARC
8
DEFAULT_255_1_234
10
22.8562747
20
28.760246
40
0.3189975
50
281.8396411
51
316.5457803
0
ARC
8
DEFAULT_255_1_234
10
22.8187011
20
28.9157762
40
0.4789527
50
269.5770101
51
282.4214771
0
ARC
8
DEFAULT_255_1_234
10
22.8115822
20
28.8944125
40
0.45759
50
256.2427136
51
270.4486331
0
ARC
8
DEFAULT_255_1_234
10
22.7816724
20
28.7744229
40
0.3339303
50
228.9023911
51
256.3314342
0
ARC
8
DEFAULT_255_1_234
10
22.7742957
20
28.7627746
40
0.32031
50
193.753695
51
228.5271154
0
ARC
8
DEFAULT_255_1_234
10
22.8980911
20
28.79908
40
0.4492253
50
184.924711
51
194.497588
0
ARC
8
DEFAULT_255_1_234
10
22.9173478
20
28.8026591
40
0.3289787
50
187.3600538
51
198.6732863
0
ARC
8
DEFAULT_255_1_234
10
22.8123772
20
28.7662674
40
0.217884
50
198.4451669
51
217.794479
0
ARC
8
DEFAULT_255_1_234
10
22.7827947
20
28.7453085
40
0.1816698
50
218.2887171
51
228.5612368
0
ARC
8
DEFAULT_255_1_234
10
22.7925734
20
28.7584963
40
0.1980329
50
228.9654866
51
258.1234728
0
ARC
8
DEFAULT_255_1_234
10
22.8131444
20
28.8465833
40
0.2884748
50
257.7258293
51
270.401361
0
ARC
8
DEFAULT_255_1_234
10
22.817633
20
28.8020821
40
0.2439788
50
269.4204404
51
286.4209037
0
ARC
8
DEFAULT_255_1_234
10
22.8324818
20
28.7481657
40
0.1880666
50
286.7251356
51
320.600362
0
ARC
8
DEFAULT_255_1_234
10
22.7941643
20
28.7792595
40
0.2374121
50
320.6712579
51
344.5441685
0
ARC
8
DEFAULT_255_1_234
10
22.6784969
20
28.8132045
40
0.3579479
50
344.2412205
51
356.7357071
0
ARC
8
DEFAULT_255_1_234
10
22.5536118
20
28.8235444
40
0.4832297
50
356.3548756
51
0.0500261
0
ARC
8
DEFAULT_255_1_234
10
22.6872627
20
28.826665
40
0.3495889
50
359.5576869
51
12.953486
0
ARC
8
DEFAULT_255_1_234
10
22.7927524
20
28.8522434
40
0.2410532
50
12.6490276
51
41.6081334
0
ARC
8
DEFAULT_255_1_234
10
22.8157895
20
28.8718321
40
0.2108218
50
41.7850273
51
85.9892764
0
ARC
8
DEFAULT_255_1_234
10
22.8034632
20
28.7905462
40
0.2928454
50
84.6957577
51
90.0676183
0
ARC
8
DEFAULT_255_1_234
10
22.8011116
20
28.7236716
40
0.3597255
50
89.6804936
51
99.1614436
0
ARC
8
DEFAULT_255_1_234
10
22.7805747
20
28.8464131
40
0.235281
50
98.9830931
51
113.8908934
0
ARC
8
DEFAULT_255_1_234
10
22.7576157
20
28.9005587
40
0.176479
50
114.1950727
51
127.3641004
0
LINE
8
DEFAULT_255_1_234
10
23.7886119
20
29.4215276
11
23.7886119
21
29.0801788
0
LINE
8
DEFAULT_255_1_234
10
23.7886119
20
29.0801788
11
24.1147004
21
29.0801788
0
LINE
8
DEFAULT_255_1_234
10
24.1147004
20
29.0801788
11
24.1147004
21
28.9396233
0
LINE
8
DEFAULT_255_1_234
10
24.1147004
20
28.9396233
11
23.7886119
21
28.9396233
0
LINE
8
DEFAULT_255_1_234
10
23.7886119
20
28.9396233
11
23.7886119
21
28.5701634
0
LINE
8
DEFAULT_255_1_234
10
23.7886119
20
28.5701634
11
23.6392215
21
28.5701634
0
LINE
8
DEFAULT_255_1_234
10
23.6392215
20
28.5701634
11
23.6392215
21
28.9396233
0
LINE
8
DEFAULT_255_1_234
10
23.6392215
20
28.9396233
11
23.313133
21
28.9396233
0
LINE
8
DEFAULT_255_1_234
10
23.313133
20
28.9396233
11
23.313133
21
29.0801788
0
LINE
8
DEFAULT_255_1_234
10
23.313133
20
29.0801788
11
23.6392215
21
29.0801788
0
LINE
8
DEFAULT_255_1_234
10
23.6392215
20
29.0801788
11
23.6392215
21
29.4215276
0
LINE
8
DEFAULT_255_1_234
10
23.6392215
20
29.4215276
11
23.7886119
21
29.4215276
0
LINE
8
DEFAULT_255_1_234
10
21.9220522
20
37.5598211
11
22.2545662
21
36.5952093
0
LINE
8
DEFAULT_255_1_234
10
22.2545662
20
36.5952093
11
22.5886865
21
37.5598211
0
LINE
8
DEFAULT_255_1_234
10
22.5886865
20
37.5598211
11
22.757353
21
37.5598211
0
LINE
8
DEFAULT_255_1_234
10
22.757353
20
37.5598211
11
22.3236391
21
36.3904
0
LINE
8
DEFAULT_255_1_234
10
22.3236391
20
36.3904
11
22.1870996
21
36.3904
0
LINE
8
DEFAULT_255_1_234
10
22.1870996
20
36.3904
11
21.7541889
21
37.5598211
0
LINE
8
DEFAULT_255_1_234
10
21.7541889
20
37.5598211
11
21.9220522
21
37.5598211
0
LINE
8
DEFAULT_255_1_234
10
23.5026983
20
37.5598211
11
23.5026983
21
36.783152
0
LINE
8
DEFAULT_255_1_234
10
23.5026983
20
36.783152
11
23.6649394
21
36.783152
0
LINE
8
DEFAULT_255_1_234
10
23.6649394
20
36.783152
11
23.6649394
21
36.6618728
0
LINE
8
DEFAULT_255_1_234
10
23.6649394
20
36.6618728
11
23.5026983
21
36.6618728
0
LINE
8
DEFAULT_255_1_234
10
23.5026983
20
36.6618728
11
23.5026983
21
36.3904
0
LINE
8
DEFAULT_255_1_234
10
23.5026983
20
36.3904
11
23.353308
21
36.3904
0
LINE
8
DEFAULT_255_1_234
10
23.353308
20
36.3904
11
23.353308
21
36.6618728
0
LINE
8
DEFAULT_255_1_234
10
23.353308
20
36.6618728
11
22.8208037
21
36.6618728
0
LINE
8
DEFAULT_255_1_234
10
22.8208037
20
36.6618728
11
22.8208037
21
36.7494187
0
LINE
8
DEFAULT_255_1_234
10
22.8208037
20
36.7494187
11
23.344473
21
37.5598211
0
LINE
8
DEFAULT_255_1_234
10
23.344473
20
37.5598211
11
23.5026983
21
37.5598211
0
LINE
8
DEFAULT_255_1_234
10
23.3356381
20
37.3244912
11
22.9894702
21
36.783152
0
LINE
8
DEFAULT_255_1_234
10
22.9894702
20
36.783152
11
23.353308
21
36.783152
0
LINE
8
DEFAULT_255_1_234
10
23.353308
20
36.783152
11
23.353308
21
37.3566181
0
LINE
8
DEFAULT_255_1_234
10
23.353308
20
37.3566181
11
23.3356381
21
37.3244912
0
LINE
8
DEFAULT_255_1_234
10
24.1235517
20
36.9478026
11
24.1235517
21
36.8265234
0
LINE
8
DEFAULT_255_1_234
10
24.1235517
20
36.8265234
11
23.7316028
21
36.8265234
0
LINE
8
DEFAULT_255_1_234
10
23.7316028
20
36.8265234
11
23.7316028
21
36.9478026
0
LINE
8
DEFAULT_255_1_234
10
23.7316028
20
36.9478026
11
24.1235517
21
36.9478026
0
LINE
8
DEFAULT_255_1_234
10
21.9220522
20
45.4973211
11
22.2545662
21
44.5327093
0
LINE
8
DEFAULT_255_1_234
10
22.2545662
20
44.5327093
11
22.5886865
21
45.4973211
0
LINE
8
DEFAULT_255_1_234
10
22.5886865
20
45.4973211
11
22.757353
21
45.4973211
0
LINE
8
DEFAULT_255_1_234
10
22.757353
20
45.4973211
11
22.3236391
21
44.3279
0
LINE
8
DEFAULT_255_1_234
10
22.3236391
20
44.3279
11
22.1870996
21
44.3279
0
LINE
8
DEFAULT_255_1_234
10
22.1870996
20
44.3279
11
21.7541889
21
45.4973211
0
LINE
8
DEFAULT_255_1_234
10
21.7541889
20
45.4973211
11
21.9220522
21
45.4973211
0
LINE
8
DEFAULT_255_1_234
10
23.0914733
20
44.8636169
11
23.0914733
21
44.9848962
0
LINE
8
DEFAULT_255_1_234
10
23.0914733
20
44.9848962
11
23.2031145
21
44.9848962
0
LINE
8
DEFAULT_255_1_234
10
23.0127623
20
45.1905087
11
22.8641751
21
45.1905087
0
LINE
8
DEFAULT_255_1_234
10
22.8537338
20
44.6363188
11
23.0031242
21
44.6363188
0
LINE
8
DEFAULT_255_1_234
10
23.2031145
20
44.8636169
11
23.0914733
21
44.8636169
0
ARC
8
DEFAULT_255_1_234
10
23.2002011
20
45.3241713
40
0.3392876
50
270.4919872
51
281.8951556
0
ARC
8
DEFAULT_255_1_234
10
23.2243273
20
45.2139702
40
0.2264817
50
281.6691735
51
301.2943132
0
ARC
8
DEFAULT_255_1_234
10
23.2413483
20
45.1828304
40
0.1910381
50
301.7833094
51
311.7545298
0
ARC
8
DEFAULT_255_1_234
10
23.2505059
20
45.1726748
40
0.1773635
50
311.7323931
51
354.2802411
0
ARC
8
DEFAULT_255_1_234
10
23.1778684
20
45.1851722
40
0.2509385
50
353.0937916
51
0.1181479
0
ARC
8
DEFAULT_255_1_234
10
23.1317469
20
45.1899386
40
0.2970898
50
359.1805295
51
15.0453146
0
ARC
8
DEFAULT_255_1_234
10
23.2663306
20
45.2291992
40
0.1569564
50
13.9577229
51
77.6713066
0
ARC
8
DEFAULT_255_1_234
10
23.2276835
20
45.0906949
40
0.3006298
50
76.1116566
51
90.7026153
0
ARC
8
DEFAULT_255_1_234
10
23.2217673
20
45.1180545
40
0.2732568
50
89.5324876
51
103.531937
0
ARC
8
DEFAULT_255_1_234
10
23.2017117
20
45.1979884
40
0.1908508
50
103.2931773
51
133.5619022
0
ARC
8
DEFAULT_255_1_234
10
23.1972606
20
45.2039375
40
0.1834746
50
133.8349307
51
173.5344437
0
ARC
8
DEFAULT_255_1_234
10
23.2695649
20
45.1911213
40
0.2568033
50
172.5096846
51
180.1366907
0
ARC
8
DEFAULT_255_1_234
10
23.1744543
20
45.1945622
40
0.3103056
50
155.3484492
51
180.7484736
0
ARC
8
DEFAULT_255_1_234
10
23.1695632
20
45.1916846
40
0.3070957
50
131.5744599
51
154.4798489
0
ARC
8
DEFAULT_255_1_234
10
23.2008779
20
45.160031
40
0.3515643
50
96.9875458
51
131.9690667
0
ARC
8
DEFAULT_255_1_234
10
23.2228259
20
45.0354636
40
0.4779224
50
89.8596053
51
97.7825159
0
ARC
8
DEFAULT_255_1_234
10
23.2276322
20
45.0092616
40
0.5041361
50
78.3655447
51
90.4131539
0
ARC
8
DEFAULT_255_1_234
10
23.263424
20
45.1751887
40
0.3344039
50
56.6229102
51
78.638727
0
ARC
8
DEFAULT_255_1_234
10
23.2849184
20
45.2127805
40
0.2912001
50
47.0253525
51
56.0854072
0
ARC
8
DEFAULT_255_1_234
10
23.2868964
20
45.2167223
40
0.2869704
50
10.9208013
51
46.7778124
0
ARC
8
DEFAULT_255_1_234
10
23.150503
20
45.1851857
40
0.426899
50
359.6364486
51
11.6087304
0
ARC
8
DEFAULT_255_1_234
10
23.3339874
20
45.1836752
40
0.243409
50
332.3549906
51
359.7179418
0
ARC
8
DEFAULT_255_1_234
10
23.2689476
20
45.2145142
40
0.3153459
50
325.2333722
51
332.8745602
0
ARC
8
DEFAULT_255_1_234
10
23.2842099
20
45.2038828
40
0.2967456
50
292.9802137
51
325.2392345
0
ARC
8
DEFAULT_255_1_234
10
23.2567473
20
45.2572863
40
0.3566604
50
292.5402179
51
293.6924929
0
ARC
8
DEFAULT_255_1_234
10
23.2960069
20
44.6118091
40
0.3307468
50
57.6435486
51
72.8625112
0
ARC
8
DEFAULT_255_1_234
10
23.3314569
20
44.6692549
40
0.2632492
50
36.7248896
51
57.4697979
0
ARC
8
DEFAULT_255_1_234
10
23.3303202
20
44.670522
40
0.2634081
50
8.0545065
51
36.356114
0
ARC
8
DEFAULT_255_1_234
10
23.2440387
20
44.6550174
40
0.3510261
50
359.8320645
51
8.5869982
0
ARC
8
DEFAULT_255_1_234
10
23.2065163
20
44.6502101
40
0.3885653
50
343.9829931
51
0.5571613
0
ARC
8
DEFAULT_255_1_234
10
23.295136
20
44.6259438
40
0.2966924
50
311.6359546
51
343.7651759
0
ARC
8
DEFAULT_255_1_234
10
23.2572929
20
44.6686102
40
0.3537231
50
279.7829875
51
311.6255694
0
ARC
8
DEFAULT_255_1_234
10
23.2271705
20
44.812328
40
0.5004971
50
269.7286406
51
280.3856417
0
ARC
8
DEFAULT_255_1_234
10
23.2209778
20
44.8081996
40
0.4963778
50
256.6828919
51
270.4412052
0
ARC
8
DEFAULT_255_1_234
10
23.1871074
20
44.6697394
40
0.3538406
50
229.4223008
51
256.8556159
0
ARC
8
DEFAULT_255_1_234
10
23.1456467
20
44.6230736
40
0.2914296
50
181.818294
51
229.6455059
0
ARC
8
DEFAULT_255_1_234
10
23.2496423
20
44.6361496
40
0.3959084
50
179.9755256
51
183.2323064
0
ARC
8
DEFAULT_255_1_234
10
23.2324169
20
44.6341037
40
0.2293034
50
179.4465117
51
196.2869258
0
ARC
8
DEFAULT_255_1_234
10
23.1836577
20
44.6207651
40
0.1787621
50
196.5661473
51
227.705904
0
ARC
8
DEFAULT_255_1_234
10
23.2000672
20
44.6391155
40
0.2033784
50
227.7652068
51
257.8762805
0
ARC
8
DEFAULT_255_1_234
10
23.2225642
20
44.7334156
40
0.3003081
50
257.4584385
51
270.426602
0
ARC
8
DEFAULT_255_1_234
10
23.2271208
20
44.7623996
40
0.329292
50
269.5962073
51
280.8789248
0
ARC
8
DEFAULT_255_1_234
10
23.2500737
20
44.6477685
40
0.2123908
50
280.6346389
51
299.8595945
0
ARC
8
DEFAULT_255_1_234
10
23.2691644
20
44.6115212
40
0.171457
50
300.3576302
51
314.5517981
0
ARC
8
DEFAULT_255_1_234
10
23.2608704
20
44.6175919
40
0.1816095
50
315.0728369
51
345.0431014
0
ARC
8
DEFAULT_255_1_234
10
23.1685518
20
44.6444841
40
0.2777492
50
344.5986631
51
357.9269593
0
ARC
8
DEFAULT_255_1_234
10
23.0789844
20
44.6506276
40
0.3674917
50
357.4748886
51
0.0231117
0
ARC
8
DEFAULT_255_1_234
10
23.1812954
20
44.6530679
40
0.2651907
50
359.5047933
51
13.4239635
0
ARC
8
DEFAULT_255_1_234
10
23.2679597
20
44.6752478
40
0.1757509
50
12.9498199
51
48.7551375
0
ARC
8
DEFAULT_255_1_234
10
23.2497331
20
44.65034
40
0.2065134
50
49.5088623
51
72.1836453
0
ARC
8
DEFAULT_255_1_234
10
23.2139484
20
44.5441291
40
0.3185836
50
71.9010081
51
84.3554254
0
ARC
8
DEFAULT_255_1_234
10
23.1978116
20
44.4080326
40
0.4556151
50
84.0193428
51
89.333121
0
LINE
8
DEFAULT_255_1_234
10
24.1235517
20
44.8853026
11
24.1235517
21
44.7640234
0
LINE
8
DEFAULT_255_1_234
10
24.1235517
20
44.7640234
11
23.7316028
21
44.7640234
0
LINE
8
DEFAULT_255_1_234
10
23.7316028
20
44.7640234
11
23.7316028
21
44.8853026
0
LINE
8
DEFAULT_255_1_234
10
23.7316028
20
44.8853026
11
24.1235517
21
44.8853026
0
LINE
8
DEFAULT_255_1_234
10
21.4706522
20
53.4348211
11
21.8031662
21
52.4702093
0
LINE
8
DEFAULT_255_1_234
10
21.8031662
20
52.4702093
11
22.1372865
21
53.4348211
0
LINE
8
DEFAULT_255_1_234
10
22.1372865
20
53.4348211
11
22.305953
21
53.4348211
0
LINE
8
DEFAULT_255_1_234
10
22.305953
20
53.4348211
11
21.8722391
21
52.2654
0
LINE
8
DEFAULT_255_1_234
10
21.8722391
20
52.2654
11
21.7356996
21
52.2654
0
LINE
8
DEFAULT_255_1_234
10
21.7356996
20
52.2654
11
21.3027889
21
53.4348211
0
LINE
8
DEFAULT_255_1_234
10
21.3027889
20
53.4348211
11
21.4706522
21
53.4348211
0
LINE
8
DEFAULT_255_1_234
10
23.0512983
20
53.4348211
11
23.0512983
21
52.658152
0
LINE
8
DEFAULT_255_1_234
10
23.0512983
20
52.658152
11
23.2135394
21
52.658152
0
LINE
8
DEFAULT_255_1_234
10
23.2135394
20
52.658152
11
23.2135394
21
52.5368728
0
LINE
8
DEFAULT_255_1_234
10
23.2135394
20
52.5368728
11
23.0512983
21
52.5368728
0
LINE
8
DEFAULT_255_1_234
10
23.0512983
20
52.5368728
11
23.0512983
21
52.2654
0
LINE
8
DEFAULT_255_1_234
10
23.0512983
20
52.2654
11
22.901908
21
52.2654
0
LINE
8
DEFAULT_255_1_234
10
22.901908
20
52.2654
11
22.901908
21
52.5368728
0
LINE
8
DEFAULT_255_1_234
10
22.901908
20
52.5368728
11
22.3694037
21
52.5368728
0
LINE
8
DEFAULT_255_1_234
10
22.3694037
20
52.5368728
11
22.3694037
21
52.6244187
0
LINE
8
DEFAULT_255_1_234
10
22.3694037
20
52.6244187
11
22.893073
21
53.4348211
0
LINE
8
DEFAULT_255_1_234
10
22.893073
20
53.4348211
11
23.0512983
21
53.4348211
0
LINE
8
DEFAULT_255_1_234
10
22.8842381
20
53.1994912
11
22.5380702
21
52.658152
0
LINE
8
DEFAULT_255_1_234
10
22.5380702
20
52.658152
11
22.901908
21
52.658152
0
LINE
8
DEFAULT_255_1_234
10
22.901908
20
52.658152
11
22.901908
21
53.2316181
0
LINE
8
DEFAULT_255_1_234
10
22.901908
20
53.2316181
11
22.8842381
21
53.1994912
0
LINE
8
DEFAULT_255_1_234
10
23.7886119
20
53.2340276
11
23.7886119
21
52.8926788
0
LINE
8
DEFAULT_255_1_234
10
23.7886119
20
52.8926788
11
24.1147004
21
52.8926788
0
LINE
8
DEFAULT_255_1_234
10
24.1147004
20
52.8926788
11
24.1147004
21
52.7521233
0
LINE
8
DEFAULT_255_1_234
10
24.1147004
20
52.7521233
11
23.7886119
21
52.7521233
0
LINE
8
DEFAULT_255_1_234
10
23.7886119
20
52.7521233
11
23.7886119
21
52.3826634
0
LINE
8
DEFAULT_255_1_234
10
23.7886119
20
52.3826634
11
23.6392215
21
52.3826634
0
LINE
8
DEFAULT_255_1_234
10
23.6392215
20
52.3826634
11
23.6392215
21
52.7521233
0
LINE
8
DEFAULT_255_1_234
10
23.6392215
20
52.7521233
11
23.313133
21
52.7521233
0
LINE
8
DEFAULT_255_1_234
10
23.313133
20
52.7521233
11
23.313133
21
52.8926788
0
LINE
8
DEFAULT_255_1_234
10
23.313133
20
52.8926788
11
23.6392215
21
52.8926788
0
LINE
8
DEFAULT_255_1_234
10
23.6392215
20
52.8926788
11
23.6392215
21
53.2340276
0
LINE
8
DEFAULT_255_1_234
10
23.6392215
20
53.2340276
11
23.7886119
21
53.2340276
0
LINE
8
DEFAULT_255_1_234
10
21.4706522
20
61.3723211
11
21.8031662
21
60.4077093
0
LINE
8
DEFAULT_255_1_234
10
21.8031662
20
60.4077093
11
22.1372865
21
61.3723211
0
LINE
8
DEFAULT_255_1_234
10
22.1372865
20
61.3723211
11
22.305953
21
61.3723211
0
LINE
8
DEFAULT_255_1_234
10
22.305953
20
61.3723211
11
21.8722391
21
60.2029
0
LINE
8
DEFAULT_255_1_234
10
21.8722391
20
60.2029
11
21.7356996
21
60.2029
0
LINE
8
DEFAULT_255_1_234
10
21.7356996
20
60.2029
11
21.3027889
21
61.3723211
0
LINE
8
DEFAULT_255_1_234
10
21.3027889
20
61.3723211
11
21.4706522
21
61.3723211
0
LINE
8
DEFAULT_255_1_234
10
22.6400733
20
60.7386169
11
22.6400733
21
60.8598962
0
LINE
8
DEFAULT_255_1_234
10
22.6400733
20
60.8598962
11
22.7517145
21
60.8598962
0
LINE
8
DEFAULT_255_1_234
10
22.5613623
20
61.0655087
11
22.4127751
21
61.0655087
0
LINE
8
DEFAULT_255_1_234
10
22.4023338
20
60.5113188
11
22.5517242
21
60.5113188
0
LINE
8
DEFAULT_255_1_234
10
22.7517145
20
60.7386169
11
22.6400733
21
60.7386169
0
ARC
8
DEFAULT_255_1_234
10
22.7488011
20
61.1991713
40
0.3392876
50
270.4919872
51
281.8951556
0
ARC
8
DEFAULT_255_1_234
10
22.7729273
20
61.0889702
40
0.2264817
50
281.6691735
51
301.2943132
0
ARC
8
DEFAULT_255_1_234
10
22.7899483
20
61.0578304
40
0.1910381
50
301.7833094
51
311.7545298
0
ARC
8
DEFAULT_255_1_234
10
22.7991059
20
61.0476748
40
0.1773635
50
311.7323931
51
354.2802411
0
ARC
8
DEFAULT_255_1_234
10
22.7264684
20
61.0601722
40
0.2509385
50
353.0937916
51
0.1181479
0
ARC
8
DEFAULT_255_1_234
10
22.6803469
20
61.0649386
40
0.2970898
50
359.1805295
51
15.0453146
0
ARC
8
DEFAULT_255_1_234
10
22.8149306
20
61.1041992
40
0.1569564
50
13.9577229
51
77.6713066
0
ARC
8
DEFAULT_255_1_234
10
22.7762835
20
60.9656949
40
0.3006298
50
76.1116566
51
90.7026153
0
ARC
8
DEFAULT_255_1_234
10
22.7703673
20
60.9930545
40
0.2732568
50
89.5324876
51
103.531937
0
ARC
8
DEFAULT_255_1_234
10
22.7503117
20
61.0729884
40
0.1908508
50
103.2931773
51
133.5619022
0
ARC
8
DEFAULT_255_1_234
10
22.7458606
20
61.0789375
40
0.1834746
50
133.8349307
51
173.5344437
0
ARC
8
DEFAULT_255_1_234
10
22.8181649
20
61.0661213
40
0.2568033
50
172.5096846
51
180.1366907
0
ARC
8
DEFAULT_255_1_234
10
22.7230543
20
61.0695622
40
0.3103056
50
155.3484492
51
180.7484736
0
ARC
8
DEFAULT_255_1_234
10
22.7181632
20
61.0666846
40
0.3070957
50
131.5744599
51
154.4798489
0
ARC
8
DEFAULT_255_1_234
10
22.7494779
20
61.035031
40
0.3515643
50
96.9875458
51
131.9690667
0
ARC
8
DEFAULT_255_1_234
10
22.7714259
20
60.9104636
40
0.4779224
50
89.8596053
51
97.7825159
0
ARC
8
DEFAULT_255_1_234
10
22.7762322
20
60.8842616
40
0.5041361
50
78.3655447
51
90.4131539
0
ARC
8
DEFAULT_255_1_234
10
22.812024
20
61.0501887
40
0.3344039
50
56.6229102
51
78.638727
0
ARC
8
DEFAULT_255_1_234
10
22.8335184
20
61.0877805
40
0.2912001
50
47.0253525
51
56.0854072
0
ARC
8
DEFAULT_255_1_234
10
22.8354964
20
61.0917223
40
0.2869704
50
10.9208013
51
46.7778124
0
ARC
8
DEFAULT_255_1_234
10
22.699103
20
61.0601857
40
0.426899
50
359.6364486
51
11.6087304
0
ARC
8
DEFAULT_255_1_234
10
22.8825874
20
61.0586752
40
0.243409
50
332.3549906
51
359.7179418
0
ARC
8
DEFAULT_255_1_234
10
22.8175476
20
61.0895142
40
0.3153459
50
325.2333722
51
332.8745602
0
ARC
8
DEFAULT_255_1_234
10
22.8328099
20
61.0788828
40
0.2967456
50
292.9802137
51
325.2392345
0
ARC
8
DEFAULT_255_1_234
10
22.8053473
20
61.1322863
40
0.3566604
50
292.5402179
51
293.6924929
0
ARC
8
DEFAULT_255_1_234
10
22.8446069
20
60.4868091
40
0.3307468
50
57.6435486
51
72.8625112
0
ARC
8
DEFAULT_255_1_234
10
22.8800569
20
60.5442549
40
0.2632492
50
36.7248896
51
57.4697979
0
ARC
8
DEFAULT_255_1_234
10
22.8789202
20
60.545522
40
0.2634081
50
8.0545065
51
36.356114
0
ARC
8
DEFAULT_255_1_234
10
22.7926387
20
60.5300174
40
0.3510261
50
359.8320645
51
8.5869982
0
ARC
8
DEFAULT_255_1_234
10
22.7551163
20
60.5252101
40
0.3885653
50
343.9829931
51
0.5571613
0
ARC
8
DEFAULT_255_1_234
10
22.843736
20
60.5009438
40
0.2966924
50
311.6359546
51
343.7651759
0
ARC
8
DEFAULT_255_1_234
10
22.8058929
20
60.5436102
40
0.3537231
50
279.7829875
51
311.6255694
0
ARC
8
DEFAULT_255_1_234
10
22.7757705
20
60.687328
40
0.5004971
50
269.7286406
51
280.3856417
0
ARC
8
DEFAULT_255_1_234
10
22.7695778
20
60.6831996
40
0.4963778
50
256.6828919
51
270.4412052
0
ARC
8
DEFAULT_255_1_234
10
22.7357074
20
60.5447394
40
0.3538406
50
229.4223008
51
256.8556159
0
ARC
8
DEFAULT_255_1_234
10
22.6942467
20
60.4980736
40
0.2914296
50
181.818294
51
229.6455059
0
ARC
8
DEFAULT_255_1_234
10
22.7982423
20
60.5111496
40
0.3959084
50
179.9755256
51
183.2323064
0
ARC
8
DEFAULT_255_1_234
10
22.7810169
20
60.5091037
40
0.2293034
50
179.4465117
51
196.2869258
0
ARC
8
DEFAULT_255_1_234
10
22.7322577
20
60.4957651
40
0.1787621
50
196.5661473
51
227.705904
0
ARC
8
DEFAULT_255_1_234
10
22.7486672
20
60.5141155
40
0.2033784
50
227.7652068
51
257.8762805
0
ARC
8
DEFAULT_255_1_234
10
22.7711642
20
60.6084156
40
0.3003081
50
257.4584385
51
270.426602
0
ARC
8
DEFAULT_255_1_234
10
22.7757208
20
60.6373996
40
0.329292
50
269.5962073
51
280.8789248
0
ARC
8
DEFAULT_255_1_234
10
22.7986737
20
60.5227685
40
0.2123908
50
280.6346389
51
299.8595945
0
ARC
8
DEFAULT_255_1_234
10
22.8177644
20
60.4865212
40
0.171457
50
300.3576302
51
314.5517981
0
ARC
8
DEFAULT_255_1_234
10
22.8094704
20
60.4925919
40
0.1816095
50
315.0728369
51
345.0431014
0
ARC
8
DEFAULT_255_1_234
10
22.7171518
20
60.5194841
40
0.2777492
50
344.5986631
51
357.9269593
0
ARC
8
DEFAULT_255_1_234
10
22.6275844
20
60.5256276
40
0.3674917
50
357.4748886
51
0.0231117
0
ARC
8
DEFAULT_255_1_234
10
22.7298954
20
60.5280679
40
0.2651907
50
359.5047933
51
13.4239635
0
ARC
8
DEFAULT_255_1_234
10
22.8165597
20
60.5502478
40
0.1757509
50
12.9498199
51
48.7551375
0
ARC
8
DEFAULT_255_1_234
10
22.7983331
20
60.52534
40
0.2065134
50
49.5088623
51
72.1836453
0
ARC
8
DEFAULT_255_1_234
10
22.7625484
20
60.4191291
40
0.3185836
50
71.9010081
51
84.3554254
0
ARC
8
DEFAULT_255_1_234
10
22.7464116
20
60.2830326
40
0.4556151
50
84.0193428
51
89.333121
0
LINE
8
DEFAULT_255_1_234
10
23.7886119
20
61.1715276
11
23.7886119
21
60.8301788
0
LINE
8
DEFAULT_255_1_234
10
23.7886119
20
60.8301788
11
24.1147004
21
60.8301788
0
LINE
8
DEFAULT_255_1_234
10
24.1147004
20
60.8301788
11
24.1147004
21
60.6896233
0
LINE
8
DEFAULT_255_1_234
10
24.1147004
20
60.6896233
11
23.7886119
21
60.6896233
0
LINE
8
DEFAULT_255_1_234
10
23.7886119
20
60.6896233
11
23.7886119
21
60.3201634
0
LINE
8
DEFAULT_255_1_234
10
23.7886119
20
60.3201634
11
23.6392215
21
60.3201634
0
LINE
8
DEFAULT_255_1_234
10
23.6392215
20
60.3201634
11
23.6392215
21
60.6896233
0
LINE
8
DEFAULT_255_1_234
10
23.6392215
20
60.6896233
11
23.313133
21
60.6896233
0
LINE
8
DEFAULT_255_1_234
10
23.313133
20
60.6896233
11
23.313133
21
60.8301788
0
LINE
8
DEFAULT_255_1_234
10
23.313133
20
60.8301788
11
23.6392215
21
60.8301788
0
LINE
8
DEFAULT_255_1_234
10
23.6392215
20
60.8301788
11
23.6392215
21
61.1715276
0
LINE
8
DEFAULT_255_1_234
10
23.6392215
20
61.1715276
11
23.7886119
21
61.1715276
0
LINE
8
DEFAULT_255_1_234
10
21.9220522
20
69.3098211
11
22.2545662
21
68.3452093
0
LINE
8
DEFAULT_255_1_234
10
22.2545662
20
68.3452093
11
22.5886865
21
69.3098211
0
LINE
8
DEFAULT_255_1_234
10
22.5886865
20
69.3098211
11
22.757353
21
69.3098211
0
LINE
8
DEFAULT_255_1_234
10
22.757353
20
69.3098211
11
22.3236391
21
68.1404
0
LINE
8
DEFAULT_255_1_234
10
22.3236391
20
68.1404
11
22.1870996
21
68.1404
0
LINE
8
DEFAULT_255_1_234
10
22.1870996
20
68.1404
11
21.7541889
21
69.3098211
0
LINE
8
DEFAULT_255_1_234
10
21.7541889
20
69.3098211
11
21.9220522
21
69.3098211
0
LINE
8
DEFAULT_255_1_234
10
23.6416474
20
68.2616792
11
23.6416474
21
68.1404
0
LINE
8
DEFAULT_255_1_234
10
23.6416474
20
68.1404
11
22.8754195
21
68.1404
0
LINE
8
DEFAULT_255_1_234
10
22.8754195
20
68.1404
11
22.8754195
21
68.2472221
0
LINE
8
DEFAULT_255_1_234
10
22.8754195
20
68.2472221
11
23.2802191
21
68.6969995
0
LINE
8
DEFAULT_255_1_234
10
23.0015178
20
68.9652595
11
22.8529307
21
68.9652595
0
LINE
8
DEFAULT_255_1_234
10
23.3677651
20
68.6014218
11
23.0545273
21
68.2616792
0
LINE
8
DEFAULT_255_1_234
10
23.0545273
20
68.2616792
11
23.6416474
21
68.2616792
0
ARC
8
DEFAULT_255_1_234
10
21.9312025
20
69.8899527
40
1.8008286
50
318.5132453
51
320.7828378
0
ARC
8
DEFAULT_255_1_234
10
22.4598999
20
69.4596426
40
1.1191493
50
320.7372736
51
323.9737074
0
ARC
8
DEFAULT_255_1_234
10
22.8518855
20
69.1756361
40
0.6350923
50
323.8961724
51
328.6421089
0
ARC
8
DEFAULT_255_1_234
10
23.0565451
20
69.0494031
40
0.3946393
50
328.8299013
51
331.789948
0
ARC
8
DEFAULT_255_1_234
10
23.1562629
20
68.9979509
40
0.2824501
50
331.4255242
51
352.9364833
0
ARC
8
DEFAULT_255_1_234
10
23.169913
20
68.9948976
40
0.2685315
50
353.2248685
51
0.0169286
0
ARC
8
DEFAULT_255_1_234
10
23.1909007
20
68.997195
40
0.2475536
50
359.4866256
51
15.9339782
0
ARC
8
DEFAULT_255_1_234
10
23.2415992
20
69.0108286
40
0.1950618
50
16.1714718
51
43.5284424
0
ARC
8
DEFAULT_255_1_234
10
23.2493301
20
69.0185573
40
0.184134
50
43.4415429
51
83.1661404
0
ARC
8
DEFAULT_255_1_234
10
23.2359219
20
68.9448771
40
0.258926
50
82.160215
51
90.1505798
0
ARC
8
DEFAULT_255_1_234
10
23.2327646
20
68.8911865
40
0.3126255
50
89.5460705
51
102.5418777
0
ARC
8
DEFAULT_255_1_234
10
23.2084732
20
68.9942665
40
0.2067346
50
102.1739365
51
129.2061916
0
ARC
8
DEFAULT_255_1_234
10
23.2005804
20
69.0067094
40
0.1921118
50
129.7279328
51
135.7542026
0
ARC
8
DEFAULT_255_1_234
10
23.2127332
20
68.9970045
40
0.2075944
50
136.175737
51
166.3674722
0
ARC
8
DEFAULT_255_1_234
10
23.3134251
20
68.9700182
40
0.3118201
50
165.9092917
51
178.8683903
0
ARC
8
DEFAULT_255_1_234
10
23.3999112
20
68.9653179
40
0.3983935
50
178.438168
51
180.0083905
0
ARC
8
DEFAULT_255_1_234
10
23.2597714
20
68.9692231
40
0.4068601
50
163.2878735
51
180.5581814
0
ARC
8
DEFAULT_255_1_234
10
23.1795976
20
68.991284
40
0.3237344
50
133.454115
51
162.9470031
0
ARC
8
DEFAULT_255_1_234
10
23.1974517
20
68.9723
40
0.349795
50
100.7869394
51
133.4384016
0
ARC
8
DEFAULT_255_1_234
10
23.2322289
20
68.8174319
40
0.5084616
50
89.6605301
51
101.3704185
0
ARC
8
DEFAULT_255_1_234
10
23.2388627
20
68.8235496
40
0.502348
50
78.2171172
51
90.4130393
0
ARC
8
DEFAULT_255_1_234
10
23.2743706
20
68.9859637
40
0.3361092
50
55.9268222
51
78.4888551
0
ARC
8
DEFAULT_255_1_234
10
23.2940146
20
69.0198324
40
0.2970617
50
47.9292255
51
55.4054003
0
ARC
8
DEFAULT_255_1_234
10
23.3041707
20
69.0301502
40
0.2825983
50
4.3347696
51
48.0560701
0
ARC
8
DEFAULT_255_1_234
10
23.19461
20
69.0131601
40
0.393225
50
359.925209
51
5.5967654
0
ARC
8
DEFAULT_255_1_234
10
23.2374992
20
69.0187816
40
0.3503892
50
337.8914096
51
358.9967724
0
ARC
8
DEFAULT_255_1_234
10
22.9661404
20
69.1234706
40
0.6412172
50
326.9135351
51
338.3505194
0
ARC
8
DEFAULT_255_1_234
10
22.5675708
20
69.3789284
40
1.1146189
50
319.6472867
51
327.095818
0
ARC
8
DEFAULT_255_1_234
10
22.1842711
20
69.6951
40
1.6114559
50
317.2586784
51
319.9046139
0
LINE
8
DEFAULT_255_1_234
10
24.1235517
20
68.6978026
11
24.1235517
21
68.5765234
0
LINE
8
DEFAULT_255_1_234
10
24.1235517
20
68.5765234
11
23.7316028
21
68.5765234
0
LINE
8
DEFAULT_255_1_234
10
23.7316028
20
68.5765234
11
23.7316028
21
68.6978026
0
LINE
8
DEFAULT_255_1_234
10
23.7316028
20
68.6978026
11
24.1235517
21
68.6978026
0
LINE
8
DEFAULT_255_1_234
10
21.9220522
20
77.2473211
11
22.2545662
21
76.2827093
0
LINE
8
DEFAULT_255_1_234
10
22.2545662
20
76.2827093
11
22.5886865
21
77.2473211
0
LINE
8
DEFAULT_255_1_234
10
22.5886865
20
77.2473211
11
22.757353
21
77.2473211
0
LINE
8
DEFAULT_255_1_234
10
22.757353
20
77.2473211
11
22.3236391
21
76.0779
0
LINE
8
DEFAULT_255_1_234
10
22.3236391
20
76.0779
11
22.1870996
21
76.0779
0
LINE
8
DEFAULT_255_1_234
10
22.1870996
20
76.0779
11
21.7541889
21
77.2473211
0
LINE
8
DEFAULT_255_1_234
10
21.7541889
20
77.2473211
11
21.9220522
21
77.2473211
0
LINE
8
DEFAULT_255_1_234
10
23.3637492
20
77.2529433
11
23.3637492
21
76.0779
0
LINE
8
DEFAULT_255_1_234
10
23.3637492
20
76.0779
11
23.2143589
21
76.0779
0
LINE
8
DEFAULT_255_1_234
10
23.2143589
20
76.0779
11
23.2143589
21
77.0682133
0
LINE
8
DEFAULT_255_1_234
10
23.2143589
20
77.0682133
11
22.914775
21
76.9581785
0
LINE
8
DEFAULT_255_1_234
10
22.914775
20
76.9581785
11
22.914775
21
77.0931117
0
LINE
8
DEFAULT_255_1_234
10
22.914775
20
77.0931117
11
23.3404572
21
77.2529433
0
LINE
8
DEFAULT_255_1_234
10
23.3404572
20
77.2529433
11
23.3637492
21
77.2529433
0
LINE
8
DEFAULT_255_1_234
10
24.1235517
20
76.6353026
11
24.1235517
21
76.5140234
0
LINE
8
DEFAULT_255_1_234
10
24.1235517
20
76.5140234
11
23.7316028
21
76.5140234
0
LINE
8
DEFAULT_255_1_234
10
23.7316028
20
76.5140234
11
23.7316028
21
76.6353026
0
LINE
8
DEFAULT_255_1_234
10
23.7316028
20
76.6353026
11
24.1235517
21
76.6353026
0
LINE
8
DEFAULT_255_1_234
10
21.4706522
20
85.1848211
11
21.8031662
21
84.2202093
0
LINE
8
DEFAULT_255_1_234
10
21.8031662
20
84.2202093
11
22.1372865
21
85.1848211
0
LINE
8
DEFAULT_255_1_234
10
22.1372865
20
85.1848211
11
22.305953
21
85.1848211
0
LINE
8
DEFAULT_255_1_234
10
22.305953
20
85.1848211
11
21.8722391
21
84.0154
0
LINE
8
DEFAULT_255_1_234
10
21.8722391
20
84.0154
11
21.7356996
21
84.0154
0
LINE
8
DEFAULT_255_1_234
10
21.7356996
20
84.0154
11
21.3027889
21
85.1848211
0
LINE
8
DEFAULT_255_1_234
10
21.3027889
20
85.1848211
11
21.4706522
21
85.1848211
0
LINE
8
DEFAULT_255_1_234
10
23.1902474
20
84.1366792
11
23.1902474
21
84.0154
0
LINE
8
DEFAULT_255_1_234
10
23.1902474
20
84.0154
11
22.4240195
21
84.0154
0
LINE
8
DEFAULT_255_1_234
10
22.4240195
20
84.0154
11
22.4240195
21
84.1222221
0
LINE
8
DEFAULT_255_1_234
10
22.4240195
20
84.1222221
11
22.8288191
21
84.5719995
0
LINE
8
DEFAULT_255_1_234
10
22.5501178
20
84.8402595
11
22.4015307
21
84.8402595
0
LINE
8
DEFAULT_255_1_234
10
22.9163651
20
84.4764218
11
22.6031273
21
84.1366792
0
LINE
8
DEFAULT_255_1_234
10
22.6031273
20
84.1366792
11
23.1902474
21
84.1366792
0
ARC
8
DEFAULT_255_1_234
10
21.4798025
20
85.7649527
40
1.8008286
50
318.5132453
51
320.7828378
0
ARC
8
DEFAULT_255_1_234
10
22.0084999
20
85.3346426
40
1.1191493
50
320.7372736
51
323.9737074
0
ARC
8
DEFAULT_255_1_234
10
22.4004855
20
85.0506361
40
0.6350923
50
323.8961724
51
328.6421089
0
ARC
8
DEFAULT_255_1_234
10
22.6051451
20
84.9244031
40
0.3946393
50
328.8299013
51
331.789948
0
ARC
8
DEFAULT_255_1_234
10
22.7048629
20
84.8729509
40
0.2824501
50
331.4255242
51
352.9364833
0
ARC
8
DEFAULT_255_1_234
10
22.718513
20
84.8698976
40
0.2685315
50
353.2248685
51
0.0169286
0
ARC
8
DEFAULT_255_1_234
10
22.7395007
20
84.872195
40
0.2475536
50
359.4866256
51
15.9339782
0
ARC
8
DEFAULT_255_1_234
10
22.7901992
20
84.8858286
40
0.1950618
50
16.1714718
51
43.5284424
0
ARC
8
DEFAULT_255_1_234
10
22.7979301
20
84.8935573
40
0.184134
50
43.4415429
51
83.1661404
0
ARC
8
DEFAULT_255_1_234
10
22.7845219
20
84.8198771
40
0.258926
50
82.160215
51
90.1505798
0
ARC
8
DEFAULT_255_1_234
10
22.7813646
20
84.7661865
40
0.3126255
50
89.5460705
51
102.5418777
0
ARC
8
DEFAULT_255_1_234
10
22.7570732
20
84.8692665
40
0.2067346
50
102.1739365
51
129.2061916
0
ARC
8
DEFAULT_255_1_234
10
22.7491804
20
84.8817094
40
0.1921118
50
129.7279328
51
135.7542026
0
ARC
8
DEFAULT_255_1_234
10
22.7613332
20
84.8720045
40
0.2075944
50
136.175737
51
166.3674722
0
ARC
8
DEFAULT_255_1_234
10
22.8620251
20
84.8450182
40
0.3118201
50
165.9092917
51
178.8683903
0
ARC
8
DEFAULT_255_1_234
10
22.9485112
20
84.8403179
40
0.3983935
50
178.438168
51
180.0083905
0
ARC
8
DEFAULT_255_1_234
10
22.8083714
20
84.8442231
40
0.4068601
50
163.2878735
51
180.5581814
0
ARC
8
DEFAULT_255_1_234
10
22.7281976
20
84.866284
40
0.3237344
50
133.454115
51
162.9470031
0
ARC
8
DEFAULT_255_1_234
10
22.7460517
20
84.8473
40
0.349795
50
100.7869394
51
133.4384016
0
ARC
8
DEFAULT_255_1_234
10
22.7808289
20
84.6924319
40
0.5084616
50
89.6605301
51
101.3704185
0
ARC
8
DEFAULT_255_1_234
10
22.7874627
20
84.6985496
40
0.502348
50
78.2171172
51
90.4130393
0
ARC
8
DEFAULT_255_1_234
10
22.8229706
20
84.8609637
40
0.3361092
50
55.9268222
51
78.4888551
0
ARC
8
DEFAULT_255_1_234
10
22.8426146
20
84.8948324
40
0.2970617
50
47.9292255
51
55.4054003
0
ARC
8
DEFAULT_255_1_234
10
22.8527707
20
84.9051502
40
0.2825983
50
4.3347696
51
48.0560701
0
ARC
8
DEFAULT_255_1_234
10
22.74321
20
84.8881601
40
0.393225
50
359.925209
51
5.5967654
0
ARC
8
DEFAULT_255_1_234
10
22.7860992
20
84.8937816
40
0.3503892
50
337.8914096
51
358.9967724
0
ARC
8
DEFAULT_255_1_234
10
22.5147404
20
84.9984706
40
0.6412172
50
326.9135351
51
338.3505194
0
ARC
8
DEFAULT_255_1_234
10
22.1161708
20
85.2539284
40
1.1146189
50
319.6472867
51
327.095818
0
ARC
8
DEFAULT_255_1_234
10
21.7328711
20
85.5701
40
1.6114559
50
317.2586784
51
319.9046139
0
LINE
8
DEFAULT_255_1_234
10
23.7886119
20
84.9840276
11
23.7886119
21
84.6426788
0
LINE
8
DEFAULT_255_1_234
10
23.7886119
20
84.6426788
11
24.1147004
21
84.6426788
0
LINE
8
DEFAULT_255_1_234
10
24.1147004
20
84.6426788
11
24.1147004
21
84.5021233
0
LINE
8
DEFAULT_255_1_234
10
24.1147004
20
84.5021233
11
23.7886119
21
84.5021233
0
LINE
8
DEFAULT_255_1_234
10
23.7886119
20
84.5021233
11
23.7886119
21
84.1326634
0
LINE
8
DEFAULT_255_1_234
10
23.7886119
20
84.1326634
11
23.6392215
21
84.1326634
0
LINE
8
DEFAULT_255_1_234
10
23.6392215
20
84.1326634
11
23.6392215
21
84.5021233
0
LINE
8
DEFAULT_255_1_234
10
23.6392215
20
84.5021233
11
23.313133
21
84.5021233
0
LINE
8
DEFAULT_255_1_234
10
23.313133
20
84.5021233
11
23.313133
21
84.6426788
0
LINE
8
DEFAULT_255_1_234
10
23.313133
20
84.6426788
11
23.6392215
21
84.6426788
0
LINE
8
DEFAULT_255_1_234
10
23.6392215
20
84.6426788
11
23.6392215
21
84.9840276
0
LINE
8
DEFAULT_255_1_234
10
23.6392215
20
84.9840276
11
23.7886119
21
84.9840276
0
LINE
8
DEFAULT_255_1_234
10
21.4706522
20
93.1223211
11
21.8031662
21
92.1577093
0
LINE
8
DEFAULT_255_1_234
10
21.8031662
20
92.1577093
11
22.1372865
21
93.1223211
0
LINE
8
DEFAULT_255_1_234
10
22.1372865
20
93.1223211
11
22.305953
21
93.1223211
0
LINE
8
DEFAULT_255_1_234
10
22.305953
20
93.1223211
11
21.8722391
21
91.9529
0
LINE
8
DEFAULT_255_1_234
10
21.8722391
20
91.9529
11
21.7356996
21
91.9529
0
LINE
8
DEFAULT_255_1_234
10
21.7356996
20
91.9529
11
21.3027889
21
93.1223211
0
LINE
8
DEFAULT_255_1_234
10
21.3027889
20
93.1223211
11
21.4706522
21
93.1223211
0
LINE
8
DEFAULT_255_1_234
10
22.9123492
20
93.1279433
11
22.9123492
21
91.9529
0
LINE
8
DEFAULT_255_1_234
10
22.9123492
20
91.9529
11
22.7629589
21
91.9529
0
LINE
8
DEFAULT_255_1_234
10
22.7629589
20
91.9529
11
22.7629589
21
92.9432133
0
LINE
8
DEFAULT_255_1_234
10
22.7629589
20
92.9432133
11
22.463375
21
92.8331785
0
LINE
8
DEFAULT_255_1_234
10
22.463375
20
92.8331785
11
22.463375
21
92.9681117
0
LINE
8
DEFAULT_255_1_234
10
22.463375
20
92.9681117
11
22.8890572
21
93.1279433
0
LINE
8
DEFAULT_255_1_234
10
22.8890572
20
93.1279433
11
22.9123492
21
93.1279433
0
LINE
8
DEFAULT_255_1_234
10
23.7886119
20
92.9215276
11
23.7886119
21
92.5801788
0
LINE
8
DEFAULT_255_1_234
10
23.7886119
20
92.5801788
11
24.1147004
21
92.5801788
0
LINE
8
DEFAULT_255_1_234
10
24.1147004
20
92.5801788
11
24.1147004
21
92.4396233
0
LINE
8
DEFAULT_255_1_234
10
24.1147004
20
92.4396233
11
23.7886119
21
92.4396233
0
LINE
8
DEFAULT_255_1_234
10
23.7886119
20
92.4396233
11
23.7886119
21
92.0701634
0
LINE
8
DEFAULT_255_1_234
10
23.7886119
20
92.0701634
11
23.6392215
21
92.0701634
0
LINE
8
DEFAULT_255_1_234
10
23.6392215
20
92.0701634
11
23.6392215
21
92.4396233
0
LINE
8
DEFAULT_255_1_234
10
23.6392215
20
92.4396233
11
23.313133
21
92.4396233
0
LINE
8
DEFAULT_255_1_234
10
23.313133
20
92.4396233
11
23.313133
21
92.5801788
0
LINE
8
DEFAULT_255_1_234
10
23.313133
20
92.5801788
11
23.6392215
21
92.5801788
0
LINE
8
DEFAULT_255_1_234
10
23.6392215
20
92.5801788
11
23.6392215
21
92.9215276
0
LINE
8
DEFAULT_255_1_234
10
23.6392215
20
92.9215276
11
23.7886119
21
92.9215276
0
ENDSEC
0
EOF