0
SECTION
2
HEADER
9
$MEASUREMENT
70
1
0
ENDSEC
0
SECTION
2
TABLES
0
TABLE
2
LTYPE
0
LTYPE
72
65
70
64
2
CONTINUOUS
3
______
73
0
40
0
0
ENDTAB
0
TABLE
2
LAYER
0
LAYER
2
DEFAULT_255_2_778
70
0
62
255
6
CONTINUOUS
0
ENDTAB
0
ENDSEC
0
SECTION
2
ENTITIES
0
ARC
8
DEFAULT_255_2_778
10
6.058197
20
5.6177899
40
5.8754229
50
180.0009875
51
180.1148348
0
ARC
8
DEFAULT_255_2_778
10
6.0165314
20
5.6176866
40
5.8337572
50
136.4210698
51
179.9999796
0
ARC
8
DEFAULT_255_2_778
10
6.0203964
20
5.6137076
40
5.8392998
50
134.9972528
51
136.4189297
0
ARC
8
DEFAULT_255_2_778
10
6.0168141
20
5.6179873
40
5.8337406
50
91.4227618
51
135.002093
0
ARC
8
DEFAULT_255_2_778
10
6.0168003
20
5.612229
40
5.8394968
50
89.9998919
51
91.4212238
0
ARC
8
DEFAULT_255_2_778
10
6.0167101
20
5.576303
40
5.8754228
50
89.8851652
51
89.9990125
0
ARC
8
DEFAULT_255_2_778
10
6.0402617
20
5.576303
40
5.8754229
50
90.0009875
51
90.1148348
0
ARC
8
DEFAULT_255_2_778
10
6.0400959
20
5.6175852
40
5.8341406
50
46.4225745
51
89.9993668
0
ARC
8
DEFAULT_255_2_778
10
6.0361102
20
5.6135641
40
5.839801
50
44.9998222
51
46.4214408
0
ARC
8
DEFAULT_255_2_778
10
6.0401312
20
5.6176487
40
5.8340694
50
1.4230468
51
44.9993804
0
ARC
8
DEFAULT_255_2_778
10
6.0347008
20
5.6176997
40
5.8394968
50
359.9998919
51
1.4212238
0
ARC
8
DEFAULT_255_2_778
10
5.9987748
20
5.6177899
40
5.8754228
50
359.8851652
51
359.9990125
0
ARC
8
DEFAULT_255_2_778
10
5.9987748
20
5.5942383
40
5.8754229
50
0.0009875
51
0.1148348
0
ARC
8
DEFAULT_255_2_778
10
6.039734
20
5.5944378
40
5.8344636
50
316.4251366
51
359.9990359
0
ARC
8
DEFAULT_255_2_778
10
6.0356664
20
5.5984805
40
5.8401971
50
315.002449
51
316.4239091
0
ARC
8
DEFAULT_255_2_778
10
6.0400431
20
5.5947909
40
5.8344933
50
271.4237036
51
314.9976807
0
ARC
8
DEFAULT_255_2_778
10
6.0401714
20
5.5997994
40
5.839497
50
269.9998919
51
271.4212238
0
ARC
8
DEFAULT_255_2_778
10
6.0402617
20
5.6357252
40
5.8754228
50
269.8851652
51
269.9990125
0
ARC
8
DEFAULT_255_2_778
10
6.0167101
20
5.6357252
40
5.8754229
50
270.0009875
51
270.1148348
0
ARC
8
DEFAULT_255_2_778
10
6.0168471
20
5.5943826
40
5.8340801
50
226.4236319
51
269.9996488
0
ARC
8
DEFAULT_255_2_778
10
6.0208831
20
5.598294
40
5.8396958
50
224.9998796
51
226.4213981
0
ARC
8
DEFAULT_255_2_778
10
6.0169349
20
5.5944198
40
5.8341646
50
181.4234187
51
225.0003933
0
ARC
8
DEFAULT_255_2_778
10
6.0222712
20
5.5943286
40
5.839497
50
179.9998919
51
181.4212238
0
ARC
8
DEFAULT_255_2_778
10
6.058197
20
5.5942383
40
5.8754228
50
179.8851652
51
179.9990125
0
LINE
8
DEFAULT_255_2_778
10
0.1827859
20
5.6060141
11
0.1827859
21
5.6060141
0
ARC
8
DEFAULT_255_2_778
10
5.9923133
20
5.6173556
40
5.3224089
50
180.0000066
51
180.1256573
0
ARC
8
DEFAULT_255_2_778
10
6.0168718
20
5.6173836
40
5.3469673
50
134.9981462
51
180.0003066
0
ARC
8
DEFAULT_255_2_778
10
6.0171164
20
5.6176282
40
5.3469674
50
89.9996934
51
135.0018538
0
ARC
8
DEFAULT_255_2_778
10
6.0171444
20
5.6421867
40
5.3224088
50
89.8743427
51
89.9999934
0
ARC
8
DEFAULT_255_2_778
10
6.0404899
20
5.6421878
40
5.3224079
50
90.0000066
51
90.1256573
0
ARC
8
DEFAULT_255_2_778
10
6.0404456
20
5.6174536
40
5.3471419
50
44.9989212
51
89.9995315
0
ARC
8
DEFAULT_255_2_778
10
6.0407626
20
5.6173836
40
5.3469674
50
359.9996934
51
45.0018538
0
ARC
8
DEFAULT_255_2_778
10
6.0653211
20
5.6173556
40
5.3224088
50
359.8743427
51
359.9999934
0
ARC
8
DEFAULT_255_2_778
10
6.0653221
20
5.5940101
40
5.3224079
50
0.0000066
51
0.1256573
0
ARC
8
DEFAULT_255_2_778
10
6.040588
20
5.5940544
40
5.3471419
50
314.9989212
51
359.9995315
0
ARC
8
DEFAULT_255_2_778
10
6.0404456
20
5.593912
40
5.3471421
50
270.0004685
51
315.0010788
0
ARC
8
DEFAULT_255_2_778
10
6.0404899
20
5.5691779
40
5.3224078
50
269.8743427
51
269.9999934
0
ARC
8
DEFAULT_255_2_778
10
6.0171444
20
5.5691789
40
5.3224089
50
270.0000066
51
270.1256573
0
ARC
8
DEFAULT_255_2_778
10
6.0171164
20
5.5937374
40
5.3469673
50
224.9981462
51
270.0003066
0
ARC
8
DEFAULT_255_2_778
10
6.0170464
20
5.5940544
40
5.3471421
50
180.0004685
51
225.0010788
0
ARC
8
DEFAULT_255_2_778
10
5.9923122
20
5.5940101
40
5.3224078
50
179.8743427
51
179.9999934
0
LINE
8
DEFAULT_255_2_778
10
0.6699172
20
5.6056828
11
0.6699172
21
5.6056828
0
LINE
8
DEFAULT_255_2_778
10
6.0287496
20
10.6225308
11
6.0287496
21
9.7711308
0
LINE
8
DEFAULT_255_2_778
10
6.0287496
20
0.5892308
11
6.0287496
21
1.4420308
0
LINE
8
DEFAULT_255_2_778
10
6.5193496
20
10.5992308
11
6.4825496
21
10.2352308
0
LINE
8
DEFAULT_255_2_778
10
5.5353496
20
0.6128308
11
5.5721496
21
0.9769308
0
LINE
8
DEFAULT_255_2_778
10
11.0455496
20
5.6057308
11
10.1914496
21
5.6057308
0
LINE
8
DEFAULT_255_2_778
10
1.0080496
20
5.6057308
11
1.8608496
21
5.6057308
0
LINE
8
DEFAULT_255_2_778
10
11.0222496
20
5.1136308
11
10.6582496
21
5.1504308
0
LINE
8
DEFAULT_255_2_778
10
1.0329496
20
6.0992308
11
1.3969496
21
6.0624308
0
LINE
8
DEFAULT_255_2_778
10
9.5757496
20
9.1530308
11
8.9725496
21
8.5513308
0
LINE
8
DEFAULT_255_2_778
10
2.4796496
20
2.0585308
11
3.0829496
21
2.6601308
0
LINE
8
DEFAULT_255_2_778
10
9.9062496
20
8.7903308
11
9.6242496
21
8.5577308
0
LINE
8
DEFAULT_255_2_778
10
2.1481496
20
2.4225308
11
2.4301496
21
2.6551308
0
LINE
8
DEFAULT_255_2_778
10
9.5757496
20
2.0585308
11
8.9725496
21
2.6601308
0
LINE
8
DEFAULT_255_2_778
10
2.4796496
20
9.1530308
11
3.0829496
21
8.5513308
0
LINE
8
DEFAULT_255_2_778
10
9.2101496
20
1.7277308
11
8.9791496
21
2.0098308
0
LINE
8
DEFAULT_255_2_778
10
2.8453496
20
9.4851308
11
3.0763496
21
9.2030308
0
LINE
8
DEFAULT_255_2_778
10
7.9480496
20
10.2415308
11
7.6213496
21
9.4528308
0
LINE
8
DEFAULT_255_2_778
10
4.1076496
20
0.9700308
11
4.4346496
21
1.7587308
0
LINE
8
DEFAULT_255_2_778
10
8.3928496
20
10.0309308
11
8.2208496
21
9.7092308
0
LINE
8
DEFAULT_255_2_778
10
3.6626496
20
1.1806308
11
3.8345496
21
1.5026308
0
LINE
8
DEFAULT_255_2_778
10
10.6640496
20
3.6864308
11
9.8771496
21
4.0116308
0
LINE
8
DEFAULT_255_2_778
10
1.3927496
20
7.5253308
11
2.1796496
21
7.2001308
0
LINE
8
DEFAULT_255_2_778
10
10.4520496
20
3.2401308
11
10.1303496
21
3.4137308
0
LINE
8
DEFAULT_255_2_778
10
1.6033496
20
7.9719308
11
1.9253496
21
7.7983308
0
LINE
8
DEFAULT_255_2_778
10
10.6627496
20
7.5256308
11
9.8758496
21
7.2004308
0
LINE
8
DEFAULT_255_2_778
10
1.3927496
20
3.6864308
11
2.1796496
21
4.0116308
0
LINE
8
DEFAULT_255_2_778
10
10.8296496
20
7.0617308
11
10.4790496
21
6.9556308
0
LINE
8
DEFAULT_255_2_778
10
1.2260496
20
4.1500308
11
1.5766496
21
4.2561308
0
LINE
8
DEFAULT_255_2_778
10
7.9478496
20
0.9702308
11
7.6210496
21
1.7590308
0
LINE
8
DEFAULT_255_2_778
10
4.1073496
20
10.2418308
11
4.4344496
21
9.4530308
0
LINE
8
DEFAULT_255_2_778
10
7.4845496
20
0.8049308
11
7.3784496
21
1.1536308
0
LINE
8
DEFAULT_255_2_778
10
4.5709496
20
10.4069308
11
4.6770496
21
10.0581308
0
LINE
8
DEFAULT_255_2_778
10
7.0058496
20
10.5265308
11
6.8407496
21
9.6906308
0
LINE
8
DEFAULT_255_2_778
10
5.0506496
20
0.6853308
11
5.2157496
21
1.5211308
0
LINE
8
DEFAULT_255_2_778
10
7.4858496
20
10.4069308
11
7.3794496
21
10.0579308
0
LINE
8
DEFAULT_255_2_778
10
4.5709496
20
0.8049308
11
4.6770496
21
1.1536308
0
LINE
8
DEFAULT_255_2_778
10
10.9492496
20
4.6265308
11
10.1118496
21
4.7932308
0
LINE
8
DEFAULT_255_2_778
10
1.1062496
20
6.5836308
11
1.9436496
21
6.4170308
0
LINE
8
DEFAULT_255_2_778
10
10.8296496
20
4.1487308
11
10.4790496
21
4.2548308
0
LINE
8
DEFAULT_255_2_778
10
1.2260496
20
7.0617308
11
1.5766496
21
6.9556308
0
LINE
8
DEFAULT_255_2_778
10
10.1994496
20
8.3929308
11
9.4900496
21
7.9195308
0
LINE
8
DEFAULT_255_2_778
10
1.8563496
20
2.8186308
11
2.5656496
21
3.2922308
0
LINE
8
DEFAULT_255_2_778
10
10.4518496
20
7.9719308
11
10.1298496
21
7.7973308
0
LINE
8
DEFAULT_255_2_778
10
1.6031496
20
3.2388308
11
1.9250496
21
3.4123308
0
LINE
8
DEFAULT_255_2_778
10
8.8156496
20
1.4322308
11
8.3420496
21
2.1415308
0
LINE
8
DEFAULT_255_2_778
10
3.2395496
20
9.7785308
11
3.7131496
21
9.0691308
0
LINE
8
DEFAULT_255_2_778
10
8.3928496
20
1.1806308
11
8.2208496
21
1.5026308
0
LINE
8
DEFAULT_255_2_778
10
3.6626496
20
10.0309308
11
3.8345496
21
9.7092308
0
LINE
8
DEFAULT_255_2_778
10
8.8159496
20
9.7785308
11
8.3423496
21
9.0691308
0
LINE
8
DEFAULT_255_2_778
10
3.2395496
20
1.4333308
11
3.7131496
21
2.1426308
0
LINE
8
DEFAULT_255_2_778
10
9.2101496
20
9.4848308
11
8.9791496
21
9.2027308
0
LINE
8
DEFAULT_255_2_778
10
2.8453496
20
1.7280308
11
3.0763496
21
2.0100308
0
LINE
8
DEFAULT_255_2_778
10
10.1994496
20
2.8189308
11
9.4900496
21
3.2925308
0
LINE
8
DEFAULT_255_2_778
10
1.8563496
20
8.3929308
11
2.5656496
21
7.9192308
0
LINE
8
DEFAULT_255_2_778
10
9.9059496
20
2.4225308
11
9.6239496
21
2.6551308
0
LINE
8
DEFAULT_255_2_778
10
2.1481496
20
8.7903308
11
2.4301496
21
8.5577308
0
LINE
8
DEFAULT_255_2_778
10
10.9495496
20
6.5836308
11
10.1121496
21
6.4170308
0
LINE
8
DEFAULT_255_2_778
10
1.1062496
20
4.6268308
11
1.9436496
21
4.7935308
0
LINE
8
DEFAULT_255_2_778
10
11.0217496
20
6.0979308
11
10.6576496
21
6.0611308
0
LINE
8
DEFAULT_255_2_778
10
1.0326496
20
5.1123308
11
1.3967496
21
5.1491308
0
LINE
8
DEFAULT_255_2_778
10
7.0058496
20
0.6837308
11
6.8407496
21
1.5195308
0
LINE
8
DEFAULT_255_2_778
10
5.0506496
20
10.5251308
11
5.2157496
21
9.6893308
0
LINE
8
DEFAULT_255_2_778
10
6.5203496
20
0.6115308
11
6.4836496
21
0.9755308
0
LINE
8
DEFAULT_255_2_778
10
5.5363496
20
10.5979308
11
5.5731496
21
10.2338308
0
LINE
8
DEFAULT_255_2_778
10
5.4943802
20
6.1402142
11
6.0284802
21
5.6060142
0
LINE
8
DEFAULT_255_2_778
10
6.0284802
20
5.6060142
11
2.3502802
21
1.9278142
0
LINE
8
DEFAULT_255_2_778
10
2.3502802
20
1.9278142
11
5.4943802
21
6.1402142
0
LINE
8
DEFAULT_255_2_778
10
9.7041392
20
9.2829198
11
6.0288392
21
5.6047198
0
LINE
8
DEFAULT_255_2_778
10
6.0288392
20
5.6047198
11
5.4946392
21
6.1389198
0
LINE
8
DEFAULT_255_2_778
10
5.4946392
20
6.1389198
11
9.7041392
21
9.2829198
0
LINE
8
DEFAULT_255_2_778
10
6.5611377
20
5.0717475
11
6.0288377
21
5.6059475
0
LINE
8
DEFAULT_255_2_778
10
6.0288377
20
5.6059475
11
9.7041377
21
9.2844475
0
LINE
8
DEFAULT_255_2_778
10
9.7041377
20
9.2844475
11
6.5611377
21
5.0717475
0
LINE
8
DEFAULT_255_2_778
10
6.5611103
20
5.0717198
11
6.0287103
21
5.6062198
0
LINE
8
DEFAULT_255_2_778
10
6.0287103
20
5.6062198
11
2.3505103
21
1.9280198
0
LINE
8
DEFAULT_255_2_778
10
2.3505103
20
1.9280198
11
6.5611103
21
5.0717198
0
ARC
8
DEFAULT_255_2_778
10
14.1879285
20
5.4757944
40
1.671801
50
257.6211232
51
266.7119834
0
ARC
8
DEFAULT_255_2_778
10
14.1730261
20
5.2802042
40
1.4756825
50
266.8540813
51
269.9866179
0
ARC
8
DEFAULT_255_2_778
10
14.1784227
20
5.1144388
40
1.3099295
50
269.7488795
51
288.5768762
0
ARC
8
DEFAULT_255_2_778
10
14.4158236
20
4.4711073
40
0.6248098
50
286.7350951
51
322.4504951
0
ARC
8
DEFAULT_255_2_778
10
14.4867218
20
4.3893778
40
0.519239
50
324.8334009
51
351.3360795
0
ARC
8
DEFAULT_255_2_778
10
14.2626381
20
4.4428947
40
0.7490722
50
349.8711049
51
359.813301
0
ARC
8
DEFAULT_255_2_778
10
14.5005664
20
4.4572414
40
0.5114157
50
358.1188853
51
59.3217503
0
ARC
8
DEFAULT_255_2_778
10
14.4350636
20
4.3663242
40
0.6231087
50
58.4069793
51
58.8446034
0
ARC
8
DEFAULT_255_2_778
10
12.7538919
20
1.4386797
40
3.9989854
50
59.9329538
51
66.6402883
0
LINE
8
DEFAULT_255_2_778
10
14.3394994
20
5.1098827
11
14.3300989
21
5.1141548
0
ARC
8
DEFAULT_255_2_778
10
17.2476261
20
11.6400857
40
7.1484081
50
243.7774302
51
245.9121656
0
ARC
8
DEFAULT_255_2_778
10
9.9631566
20
-3.0708309
40
9.2673005
50
63.5633328
51
64.5132685
0
ARC
8
DEFAULT_255_2_778
10
50.3652594
20
81.2521712
40
84.2351187
50
244.3566006
51
244.3867475
0
ARC
8
DEFAULT_255_2_778
10
15.0597229
20
7.886005
40
2.8170896
50
235.3747815
51
245.9337427
0
ARC
8
DEFAULT_255_2_778
10
14.2545765
20
6.6459035
40
1.3397992
50
220.1541794
51
233.5745673
0
ARC
8
DEFAULT_255_2_778
10
14.1669725
20
6.5719002
40
1.2251218
50
201.7105795
51
220.1508885
0
ARC
8
DEFAULT_255_2_778
10
14.1322785
20
6.556718
40
1.1872733
50
180.9605902
51
201.6492276
0
ARC
8
DEFAULT_255_2_778
10
14.129374
20
6.5565948
40
1.1843673
50
179.9988883
51
180.956986
0
ARC
8
DEFAULT_255_2_778
10
14.1436835
20
6.5553269
40
1.1986774
50
146.7895675
51
179.9382938
0
ARC
8
DEFAULT_255_2_778
10
14.2016683
20
6.5173166
40
1.2680102
50
128.6932839
51
146.7876402
0
ARC
8
DEFAULT_255_2_778
10
14.2747153
20
6.4291406
40
1.3824988
50
119.4954519
51
128.7716183
0
ARC
8
DEFAULT_255_2_778
10
14.5091998
20
6.022672
40
1.8517408
50
103.7734981
51
119.6182111
0
ARC
8
DEFAULT_255_2_778
10
14.5637259
20
5.7625373
40
2.117396
50
89.6713051
51
103.5306173
0
ARC
8
DEFAULT_255_2_778
10
14.5588801
20
4.8738798
40
3.0060667
50
80.4086237
51
89.6761138
0
ARC
8
DEFAULT_255_2_778
10
14.4435448
20
4.0637874
40
3.8241112
50
80.2320666
51
80.7270819
0
ARC
8
DEFAULT_255_2_778
10
14.4996932
20
4.8204266
40
3.0697838
50
71.2135335
51
78.8687723
0
ARC
8
DEFAULT_255_2_778
10
19.912842
20
21.6127051
40
14.5739027
50
252.3264055
51
252.781538
0
ARC
8
DEFAULT_255_2_778
10
15.5717762
20
7.5666909
40
0.1281378
50
28.4840152
51
77.854489
0
ARC
8
DEFAULT_255_2_778
10
15.5911042
20
7.5874347
40
0.1016569
50
359.11173
51
23.3962968
0
ARC
8
DEFAULT_255_2_778
10
15.510761
20
7.589063
40
0.1820163
50
342.3435089
51
358.9913018
0
ARC
8
DEFAULT_255_2_778
10
15.4109161
20
7.6161132
40
0.2853978
50
340.3753387
51
343.248557
0
ARC
8
DEFAULT_255_2_778
10
17.3893019
20
14.4261643
40
7.688612
50
254.4955274
51
255.8369491
0
ARC
8
DEFAULT_255_2_778
10
14.2451679
20
3.4339499
40
3.7451752
50
73.0978765
51
80.8217733
0
ARC
8
DEFAULT_255_2_778
10
14.6357229
20
5.5668963
40
1.5778928
50
82.4682505
51
83.0396503
0
ARC
8
DEFAULT_255_2_778
10
14.6529166
20
5.5229639
40
1.6195727
50
83.8317995
51
90.0922979
0
ARC
8
DEFAULT_255_2_778
10
14.6506063
20
5.316832
40
1.8257025
50
90.0093742
51
91.9247145
0
ARC
8
DEFAULT_255_2_778
10
14.671201
20
4.9613353
40
2.1817074
50
92.1517034
51
101.5241947
0
ARC
8
DEFAULT_255_2_778
10
14.3183468
20
6.6148171
40
0.4913069
50
99.7273348
51
168.6894199
0
ARC
8
DEFAULT_255_2_778
10
14.4381558
20
6.5814959
40
0.6153926
50
167.8350344
51
170.5948099
0
ARC
8
DEFAULT_255_2_778
10
14.4248329
20
6.5926537
40
0.6004903
50
171.4374189
51
179.8780575
0
ARC
8
DEFAULT_255_2_778
10
14.3072055
20
6.5921011
40
0.482865
50
179.7827803
51
242.7929057
0
ARC
8
DEFAULT_255_2_778
10
16.648519
20
10.7472493
40
5.2519259
50
240.8014942
51
246.1984175
0
ARC
8
DEFAULT_255_2_778
10
5.4696212
20
-13.8941324
40
21.8069879
50
65.022079
51
65.4533181
0
ARC
8
DEFAULT_255_2_778
10
14.5431434
20
4.3545849
40
1.427233
50
41.6403647
51
58.7977885
0
ARC
8
DEFAULT_255_2_778
10
14.7402447
20
4.5402889
40
1.1565681
50
1.4227366
51
41.2530785
0
ARC
8
DEFAULT_255_2_778
10
14.4749796
20
4.511735
40
1.4226298
50
359.9912581
51
2.3071548
0
ARC
8
DEFAULT_255_2_778
10
14.3659291
20
4.5125493
40
1.5316807
50
355.4621654
51
359.9614205
0
ARC
8
DEFAULT_255_2_778
10
14.271648
20
4.5189201
40
1.6261707
50
354.8822294
51
355.5012182
0
ARC
8
DEFAULT_255_2_778
10
14.4872773
20
4.475817
40
1.4077554
50
337.4096476
51
355.846723
0
ARC
8
DEFAULT_255_2_778
10
14.6942993
20
4.4030334
40
1.1887221
50
297.7069863
51
336.8155245
0
ARC
8
DEFAULT_255_2_778
10
14.5070973
20
4.7059855
40
1.5441769
50
292.5685952
51
298.6301587
0
ARC
8
DEFAULT_255_2_778
10
14.1103806
20
5.6177969
40
2.538471
50
283.237339
51
292.9386041
0
ARC
8
DEFAULT_255_2_778
10
14.1355089
20
5.5243619
40
2.4417667
50
269.944566
51
283.1654085
0
ARC
8
DEFAULT_255_2_778
10
14.1511171
20
5.9245882
40
2.8420488
50
253.520349
51
269.6377092
0
ARC
8
DEFAULT_255_2_778
10
14.3729356
20
6.7474374
40
3.6940781
50
247.9870556
51
253.8416483
0
ARC
8
DEFAULT_255_2_778
10
13.0376801
20
3.4810601
40
0.1659076
50
216.9242649
51
252.6972624
0
ARC
8
DEFAULT_255_2_778
10
12.9959203
20
3.4399475
40
0.108105
50
178.6532522
51
212.7977792
0
ARC
8
DEFAULT_255_2_778
10
13.0891377
20
3.4391519
40
0.2013202
50
163.2716382
51
179.0504159
0
ARC
8
DEFAULT_255_2_778
10
13.1908231
20
3.4134764
40
0.3061284
50
162.4549521
51
164.1475169
0
ARC
8
DEFAULT_255_2_778
10
17.1292099
20
4.6617096
40
1.6140506
50
293.9447058
51
307.1230436
0
ARC
8
DEFAULT_255_2_778
10
17.288426
20
4.2979205
40
1.2169534
50
270.2319871
51
294.0450824
0
ARC
8
DEFAULT_255_2_778
10
17.2963634
20
4.3138239
40
1.2328506
50
255.3350023
51
269.860111
0
ARC
8
DEFAULT_255_2_778
10
17.3495497
20
4.5252262
40
1.4508324
50
247.2302553
51
255.4166106
0
ARC
8
DEFAULT_255_2_778
10
17.1468864
20
4.0449857
40
0.9295823
50
224.4254891
51
247.292036
0
ARC
8
DEFAULT_255_2_778
10
17.2242122
20
4.0995372
40
1.0231029
50
179.3502143
51
223.5760219
0
ARC
8
DEFAULT_255_2_778
10
17.3050647
20
4.1111296
40
1.1038896
50
177.223358
51
179.9994653
0
ARC
8
DEFAULT_255_2_778
10
17.2837788
20
4.1144665
40
1.0824695
50
147.8427
51
177.3451983
0
ARC
8
DEFAULT_255_2_778
10
17.2581309
20
4.126855
40
1.0541674
50
129.7655107
51
147.6707839
0
ARC
8
DEFAULT_255_2_778
10
17.6623601
20
3.5927835
40
1.7235325
50
100.3609954
51
128.7382749
0
ARC
8
DEFAULT_255_2_778
10
18.1074872
20
1.4720065
40
3.8901937
50
93.6381359
51
101.1924077
0
ARC
8
DEFAULT_255_2_778
10
17.8888797
20
5.1472713
40
0.2090063
50
89.5602238
51
97.7663867
0
ARC
8
DEFAULT_255_2_778
10
17.8896446
20
4.9423943
40
0.4138781
50
87.8203269
51
89.8838111
0
ARC
8
DEFAULT_255_2_778
10
17.8580376
20
4.1123364
40
1.2445376
50
87.1329502
51
87.8196694
0
ARC
8
DEFAULT_255_2_778
10
17.9550858
20
5.9756061
40
0.6212654
50
266.7890833
51
269.5434838
0
ARC
8
DEFAULT_255_2_778
10
17.9316279
20
6.1844597
40
0.8303055
50
271.2772571
51
278.9031676
0
ARC
8
DEFAULT_255_2_778
10
18.028387
20
5.6000829
40
0.2380506
50
277.6629822
51
298.5624147
0
ARC
8
DEFAULT_255_2_778
10
18.0968097
20
5.4712645
40
0.0922078
50
299.4912301
51
3.615189
0
ARC
8
DEFAULT_255_2_778
10
17.9436276
20
5.4717983
40
0.2452632
50
1.2336279
51
15.8432932
0
ARC
8
DEFAULT_255_2_778
10
17.5931088
20
5.378186
40
0.6080495
50
15.3120251
51
22.2715073
0
ARC
8
DEFAULT_255_2_778
10
17.0271516
20
5.1540008
40
1.216771
50
21.9402435
51
24.6280341
0
ARC
8
DEFAULT_255_2_778
10
17.6501052
20
5.4381519
40
0.5320746
50
24.7678252
51
74.5829461
0
ARC
8
DEFAULT_255_2_778
10
17.5826471
20
5.2387396
40
0.7423419
50
73.6553048
51
90.4051696
0
ARC
8
DEFAULT_255_2_778
10
17.5786594
20
5.0557009
40
0.9253629
50
90.0781204
51
96.626588
0
ARC
8
DEFAULT_255_2_778
10
17.5872746
20
4.970226
40
1.0112619
50
96.5525947
51
97.9941869
0
ARC
8
DEFAULT_255_2_778
10
18.0376798
20
2.41034
40
3.6100327
50
99.4230375
51
107.7655573
0
ARC
8
DEFAULT_255_2_778
10
13.6058645
20
17.0736412
40
11.7090149
50
285.6744603
51
286.5243541
0
ARC
8
DEFAULT_255_2_778
10
15.4251672
20
10.6353905
40
5.0186797
50
285.0371002
51
285.5349909
0
ARC
8
DEFAULT_255_2_778
10
16.7832232
20
5.5652556
40
0.2302165
50
104.0751571
51
108.6931648
0
ARC
8
DEFAULT_255_2_778
10
16.8103107
20
5.4833855
40
0.3164498
50
108.588024
51
110.0746627
0
ARC
8
DEFAULT_255_2_778
10
15.8049977
20
7.9605009
40
2.3571136
50
290.0299518
51
292.3597078
0
ARC
8
DEFAULT_255_2_778
10
16.4969436
20
6.2456746
40
0.0258181
50
179.6552614
51
193.4705437
0
ARC
8
DEFAULT_255_2_778
10
16.5476159
20
6.237579
40
0.0769336
50
141.3783577
51
173.8433151
0
ARC
8
DEFAULT_255_2_778
10
16.6546328
20
6.1694234
40
0.2035367
50
140.6520788
51
145.1950356
0
ARC
8
DEFAULT_255_2_778
10
16.7424601
20
6.0943966
40
0.319032
50
128.0697392
51
140.2328973
0
ARC
8
DEFAULT_255_2_778
10
16.6969507
20
6.1562607
40
0.2422779
50
119.3402403
51
128.6181331
0
ARC
8
DEFAULT_255_2_778
10
17.5747913
20
4.2891878
40
2.3048515
50
90.0056537
51
115.6182511
0
ARC
8
DEFAULT_255_2_778
10
17.5745594
20
4.2919953
40
2.3020439
50
86.2364957
51
89.999889
0
ARC
8
DEFAULT_255_2_778
10
17.5756953
20
4.3096779
40
2.284325
50
86.0806053
51
86.2358123
0
ARC
8
DEFAULT_255_2_778
10
17.4544619
20
2.4622782
40
4.1356942
50
83.9752378
51
86.1543845
0
ARC
8
DEFAULT_255_2_778
10
17.7312515
20
4.8342301
40
1.7479902
50
71.8198053
51
84.8374904
0
ARC
8
DEFAULT_255_2_778
10
17.9000946
20
5.4076501
40
1.1506638
50
52.7749793
51
70.8987671
0
ARC
8
DEFAULT_255_2_778
10
17.8796254
20
5.436361
40
1.1406819
50
10.3445993
51
51.0836343
0
ARC
8
DEFAULT_255_2_778
10
17.0658881
20
5.2143853
40
1.982369
50
5.6473329
51
12.4331757
0
ARC
8
DEFAULT_255_2_778
10
14.8498335
20
5.0738143
40
4.2022283
50
359.4479682
51
4.5812865
0
ARC
8
DEFAULT_255_2_778
10
-4.7170383
20
5.0493275
40
23.7689105
50
359.7264064
51
359.9614315
0
ARC
8
DEFAULT_255_2_778
10
42.717809
20
4.8225047
40
23.666479
50
179.7256452
51
179.9601612
0
ARC
8
DEFAULT_255_2_778
10
19.0830352
20
-29.6267029
40
32.7927787
50
90.0553854
51
90.3345816
0
ARC
8
DEFAULT_255_2_778
10
18.6976237
20
37.1671865
40
34.0022228
50
270.042076
51
270.3267643
0
ARC
8
DEFAULT_255_2_778
10
18.6996809
20
13.3280485
40
10.1631015
50
268.3629567
51
270.1291741
0
ARC
8
DEFAULT_255_2_778
10
18.6170418
20
9.8927457
40
6.7268578
50
267.9340154
51
268.2306454
0
ARC
8
DEFAULT_255_2_778
10
18.3801013
20
3.206653
40
0.0368157
50
216.7194293
51
261.3051818
0
ARC
8
DEFAULT_255_2_778
10
18.4229692
20
3.2519865
40
0.0988636
50
222.2533002
51
222.9370662
0
ARC
8
DEFAULT_255_2_778
10
18.5333124
20
3.3382879
40
0.2387903
50
203.7415858
51
219.7769888
0
ARC
8
DEFAULT_255_2_778
10
18.6068846
20
3.3789384
40
0.3225917
50
198.4846641
51
205.0896338
0
ARC
8
DEFAULT_255_2_778
10
18.8917896
20
3.4886926
40
0.6277467
50
188.8505011
51
199.7408924
0
ARC
8
DEFAULT_255_2_778
10
27.3437618
20
4.9910935
40
9.2120773
50
189.4453531
51
189.9957275
0
ARC
8
DEFAULT_255_2_778
10
11.4061716
20
2.3118998
40
6.949168
50
9.6712914
51
9.7903464
0
ARC
8
DEFAULT_255_2_778
10
19.6473243
20
4.4807621
40
1.4419179
50
177.4554392
51
179.6344931
0
ARC
8
DEFAULT_255_2_778
10
16.2767937
20
4.6250985
40
1.9317051
50
357.6169472
51
358.833123
0
ARC
8
DEFAULT_255_2_778
10
17.3837278
20
4.5999707
40
0.8244929
50
359.0124495
51
359.9768497
0
ARC
8
DEFAULT_255_2_778
10
17.7910812
20
4.6053302
40
0.4171783
50
359.2181394
51
10.5287048
0
ARC
8
DEFAULT_255_2_778
10
18.060258
20
4.6463702
40
0.1453035
50
14.0154959
51
28.9009676
0
ARC
8
DEFAULT_255_2_778
10
17.9939438
20
4.614623
40
0.2187433
50
27.7860907
51
43.0869034
0
ARC
8
DEFAULT_255_2_778
10
18.1034707
20
4.7214972
40
0.0658268
50
40.2712224
51
69.936034
0
ARC
8
DEFAULT_255_2_778
10
18.1209921
20
4.7627289
40
0.0212129
50
76.1949917
51
80.6573133
0
ARC
8
DEFAULT_255_2_778
10
18.0061464
20
0.5996661
40
4.1856661
50
88.3805721
51
89.9248772
0
ARC
8
DEFAULT_255_2_778
10
17.9352701
20
3.5520595
40
1.2356311
50
86.4567541
51
120.323104
0
ARC
8
DEFAULT_255_2_778
10
17.7981376
20
3.8758552
40
0.8880445
50
123.2344861
51
129.3610093
0
ARC
8
DEFAULT_255_2_778
10
17.5429444
20
4.1934468
40
0.4806666
50
129.8510996
51
180.8995112
0
ARC
8
DEFAULT_255_2_778
10
17.5924216
20
4.1859119
40
0.5300846
50
180.0011946
51
183.2985446
0
ARC
8
DEFAULT_255_2_778
10
17.5906226
20
4.1854781
40
0.5282636
50
183.2627914
51
207.0476071
0
ARC
8
DEFAULT_255_2_778
10
17.5006173
20
4.1440738
40
0.4292936
50
207.5884607
51
267.3347366
0
ARC
8
DEFAULT_255_2_778
10
17.5312137
20
4.2972029
40
0.5841503
50
265.0347765
51
270.0295735
0
ARC
8
DEFAULT_255_2_778
10
17.5299652
20
4.3681378
40
0.655087
50
270.1355655
51
280.3746407
0
ARC
8
DEFAULT_255_2_778
10
17.5108221
20
4.5113246
40
0.7994107
50
279.8761171
51
299.3670011
0
ARC
8
DEFAULT_255_2_778
10
17.6126977
20
4.3063097
40
0.570902
50
300.5468636
51
346.4721753
0
ARC
8
DEFAULT_255_2_778
10
17.1043688
20
4.4562453
40
1.1005285
50
345.0731908
51
358.3108988
0
ARC
8
DEFAULT_255_2_778
10
16.5839052
20
4.4891475
40
1.6218306
50
357.6909982
51
0.0287178
0
ARC
8
DEFAULT_255_2_778
10
21.7693717
20
6.2290937
40
0.0392101
50
179.6492189
51
192.1210614
0
ARC
8
DEFAULT_255_2_778
10
21.8312436
20
6.2219723
40
0.101349
50
147.7021684
51
175.8347014
0
ARC
8
DEFAULT_255_2_778
10
21.9053324
20
6.1853346
40
0.1837532
50
149.8118907
51
150.3902992
0
ARC
8
DEFAULT_255_2_778
10
21.9449679
20
6.1606337
40
0.2304383
50
129.4586921
51
149.4586542
0
ARC
8
DEFAULT_255_2_778
10
21.8774648
20
6.2423462
40
0.1244499
50
117.2741223
51
129.3721976
0
ARC
8
DEFAULT_255_2_778
10
22.8553144
20
4.2360626
40
2.3563171
50
88.5203766
51
116.0524209
0
ARC
8
DEFAULT_255_2_778
10
22.9160108
20
2.9921716
40
3.5994225
50
89.3469477
51
89.997658
0
ARC
8
DEFAULT_255_2_778
10
22.9713637
20
4.7778965
40
1.8135206
50
90.0008481
51
90.4526755
0
ARC
8
DEFAULT_255_2_778
10
22.9704148
20
4.7446031
40
1.8468142
50
82.2069044
51
89.9713957
0
ARC
8
DEFAULT_255_2_778
10
23.0310738
20
5.1344612
40
1.4523496
50
65.6754166
51
82.4923459
0
ARC
8
DEFAULT_255_2_778
10
23.1666106
20
5.4380194
40
1.119912
50
13.5022449
51
65.5970124
0
ARC
8
DEFAULT_255_2_778
10
22.6980237
20
5.2970734
40
1.6086936
50
1.0716526
51
14.4868368
0
ARC
8
DEFAULT_255_2_778
10
27.0286272
20
3.5333282
40
2.6973214
50
181.1358228
51
186.1248958
0
ARC
8
DEFAULT_255_2_778
10
18.6806115
20
2.7401138
40
5.6885886
50
4.2800367
51
5.0973467
0
ARC
8
DEFAULT_255_2_778
10
24.3823259
20
-36.9305641
40
40.095235
50
90.0414267
51
90.2943978
0
ARC
8
DEFAULT_255_2_778
10
23.9706196
20
43.080687
40
39.9170753
50
270.0428337
51
270.2952419
0
ARC
8
DEFAULT_255_2_778
10
23.9705236
20
12.909152
40
9.7455751
50
268.0954617
51
270.1760081
0
ARC
8
DEFAULT_255_2_778
10
23.6494701
20
3.2083194
40
0.0394608
50
229.3912193
51
265.8811445
0
ARC
8
DEFAULT_255_2_778
10
23.7416868
20
3.3154545
40
0.180818
50
206.8416152
51
229.3040682
0
ARC
8
DEFAULT_255_2_778
10
23.7692945
20
3.337735
40
0.2156388
50
199.1882186
51
208.8120072
0
ARC
8
DEFAULT_255_2_778
10
24.2460821
20
3.4973643
40
0.7184283
50
190.5664091
51
198.7140094
0
ARC
8
DEFAULT_255_2_778
10
26.3357966
20
3.9394567
40
2.8542391
50
191.5287524
51
191.5981517
0
ARC
8
DEFAULT_255_2_778
10
26.4435824
20
3.9611091
40
2.9641777
50
191.4572511
51
191.5224426
0
ARC
8
DEFAULT_255_2_778
10
26.9605304
20
4.0658585
40
3.4916318
50
191.3757643
51
191.4568769
0
ARC
8
DEFAULT_255_2_778
10
19.2155355
20
2.5422623
40
4.4018596
50
10.9334825
51
12.3972117
0
ARC
8
DEFAULT_255_2_778
10
19.6399712
20
2.6105345
40
3.9727386
50
12.7497068
51
12.7640878
0
ARC
8
DEFAULT_255_2_778
10
22.3861229
20
4.6615644
40
1.6156275
50
293.9971503
51
307.1290621
0
ARC
8
DEFAULT_255_2_778
10
22.5472175
20
4.293531
40
1.2138915
50
270.252773
51
294.1154087
0
ARC
8
DEFAULT_255_2_778
10
22.5554617
20
4.2994054
40
1.2197573
50
255.0647107
51
269.8642998
0
ARC
8
DEFAULT_255_2_778
10
22.607002
20
4.5009349
40
1.4277638
50
247.0525451
51
255.1506164
0
ARC
8
DEFAULT_255_2_778
10
22.3966055
20
4.0517296
40
0.9322622
50
222.4259354
51
248.1961923
0
ARC
8
DEFAULT_255_2_778
10
22.4126909
20
4.0389858
40
0.9357575
50
188.0752889
51
221.1854149
0
ARC
8
DEFAULT_255_2_778
10
22.7136607
20
4.1062218
40
1.2434252
50
185.3419001
51
189.1946547
0
ARC
8
DEFAULT_255_2_778
10
22.940146
20
4.1148225
40
1.469781
50
180.3621428
51
184.853751
0
ARC
8
DEFAULT_255_2_778
10
22.8565967
20
4.11309
40
1.3862229
50
180.0017335
51
180.3123636
0
ARC
8
DEFAULT_255_2_778
10
22.5760157
20
4.1272464
40
1.1057329
50
157.6356458
51
180.7357328
0
ARC
8
DEFAULT_255_2_778
10
22.4912807
20
4.1439378
40
1.0211588
50
128.2049908
51
156.6926824
0
ARC
8
DEFAULT_255_2_778
10
22.7034441
20
3.8985518
40
1.3452851
50
121.5598982
51
128.8418545
0
ARC
8
DEFAULT_255_2_778
10
23.1597801
20
2.9928736
40
2.3573886
50
92.1889433
51
119.4891276
0
ARC
8
DEFAULT_255_2_778
10
23.5399138
20
-0.271856
40
5.6400299
50
94.4120271
51
94.7819411
0
ARC
8
DEFAULT_255_2_778
10
23.3201237
20
5.5252694
40
0.1698911
50
266.6972014
51
296.9211098
0
ARC
8
DEFAULT_255_2_778
10
23.3380936
20
5.459343
40
0.1038972
50
304.568638
51
7.5596127
0
ARC
8
DEFAULT_255_2_778
10
23.0604491
20
5.4702673
40
0.3806485
50
0.4130503
51
7.152239
0
ARC
8
DEFAULT_255_2_778
10
22.9562163
20
5.4631988
40
0.4849871
50
6.4476261
51
74.9345356
0
ARC
8
DEFAULT_255_2_778
10
22.890094
20
5.2875547
40
0.6720272
50
73.383012
51
79.14649
0
ARC
8
DEFAULT_255_2_778
10
22.7565466
20
4.7087364
40
1.2658323
50
78.1430506
51
90.0662316
0
ARC
8
DEFAULT_255_2_778
10
22.802248
20
4.1486469
40
1.8265301
50
91.4796547
51
113.137403
0
ARC
8
DEFAULT_255_2_778
10
25.1909733
20
4.4697592
40
1.7229689
50
177.6955611
51
179.6541144
0
ARC
8
DEFAULT_255_2_778
10
14.57566
20
4.8469431
40
8.8990663
50
358.0171898
51
358.0926492
0
ARC
8
DEFAULT_255_2_778
10
22.0278714
20
4.6037845
40
1.4428992
50
357.8936657
51
359.7813059
0
ARC
8
DEFAULT_255_2_778
10
23.0268474
20
4.6054748
40
0.443971
50
359.0710604
51
10.2478818
0
ARC
8
DEFAULT_255_2_778
10
23.3457537
20
4.6562355
40
0.1213112
50
13.4540523
51
28.0480632
0
ARC
8
DEFAULT_255_2_778
10
23.3059846
20
4.6392472
40
0.1644393
50
26.7563688
51
51.215611
0
ARC
8
DEFAULT_255_2_778
10
23.3791021
20
4.7318286
40
0.0464819
50
49.9872323
51
85.3927483
0
ARC
8
DEFAULT_255_2_778
10
23.2759926
20
1.0136841
40
3.7659922
50
88.37427
51
89.9423555
0
ARC
8
DEFAULT_255_2_778
10
23.2047032
20
3.5294152
40
1.2525116
50
86.5635047
51
120.8954802
0
ARC
8
DEFAULT_255_2_778
10
23.0720794
20
3.836243
40
0.9221601
50
123.614331
51
126.8813551
0
ARC
8
DEFAULT_255_2_778
10
22.8283168
20
4.1837121
40
0.4981145
50
128.4408554
51
181.4018008
0
ARC
8
DEFAULT_255_2_778
10
22.8925238
20
4.1715164
40
0.5621724
50
179.998982
51
181.0643817
0
ARC
8
DEFAULT_255_2_778
10
22.8644473
20
4.1688789
40
0.5340559
50
180.8374193
51
204.4115057
0
ARC
8
DEFAULT_255_2_778
10
22.7608693
20
4.1406032
40
0.4283913
50
206.6937699
51
265.5156607
0
ARC
8
DEFAULT_255_2_778
10
22.7960982
20
4.2951749
40
0.5856974
50
263.2616172
51
270.0514259
0
ARC
8
DEFAULT_255_2_778
10
22.7954646
20
4.3640972
40
0.6546205
50
270.10147
51
279.3427525
0
ARC
8
DEFAULT_255_2_778
10
22.7640625
20
4.5079679
40
0.8017168
50
279.8880207
51
299.9736995
0
ARC
8
DEFAULT_255_2_778
10
22.8607501
20
4.3159239
40
0.587179
50
301.1632169
51
346.8182916
0
ARC
8
DEFAULT_255_2_778
10
22.3612621
20
4.4581116
40
1.106203
50
345.547243
51
359.5304501
0
ARC
8
DEFAULT_255_2_778
10
21.9104167
20
4.4800076
40
1.5573191
50
358.860814
51
0.0056251
0
ARC
8
DEFAULT_255_2_778
10
21.237068
20
6.5322619
40
0.8956935
50
85.9879848
51
89.9465954
0
ARC
8
DEFAULT_255_2_778
10
21.2249557
20
6.835968
40
0.5921285
50
88.7471006
51
113.3767348
0
ARC
8
DEFAULT_255_2_778
10
21.1862
20
6.9609102
40
0.4622768
50
115.1121344
51
159.1779773
0
ARC
8
DEFAULT_255_2_778
10
21.4498058
20
6.8369594
40
0.7530526
50
157.4922706
51
166.8046279
0
ARC
8
DEFAULT_255_2_778
10
23.0465852
20
6.5473597
40
2.3752152
50
168.7962543
51
177.2852027
0
ARC
8
DEFAULT_255_2_778
10
20.9246607
20
6.6377806
40
0.2515956
50
174.9652869
51
179.8828471
0
ARC
8
DEFAULT_255_2_778
10
20.7733216
20
6.6256646
40
0.1010485
50
172.8196288
51
274.022664
0
ARC
8
DEFAULT_255_2_778
10
20.7965936
20
6.7774192
40
0.253072
50
266.3335694
51
270.0675185
0
ARC
8
DEFAULT_255_2_778
10
20.7965694
20
6.8391103
40
0.3147632
50
270.058688
51
273.2721605
0
ARC
8
DEFAULT_255_2_778
10
21.2995263
20
6.3932477
40
0.1326668
50
52.3226384
51
97.2274166
0
ARC
8
DEFAULT_255_2_778
10
21.3087668
20
6.4380748
40
0.0937175
50
355.0421477
51
39.9470434
0
ARC
8
DEFAULT_255_2_778
10
21.1756923
20
6.4301716
40
0.2264414
50
357.0607852
51
359.9503735
0
ARC
8
DEFAULT_255_2_778
10
20.8828469
20
4.0151297
40
1.8502902
50
89.2478528
51
92.7671214
0
ARC
8
DEFAULT_255_2_778
10
20.7893426
20
5.7182818
40
0.1450409
50
88.3490938
51
122.3078625
0
ARC
8
DEFAULT_255_2_778
10
20.7883862
20
5.7645847
40
0.1080797
50
135.104748
51
181.8473498
0
ARC
8
DEFAULT_255_2_778
10
21.7432495
20
5.6781672
40
1.0661171
50
175.5384473
51
180.576643
0
ARC
8
DEFAULT_255_2_778
10
31.1217059
20
5.6341246
40
10.4445728
50
179.8172543
51
180.0398487
0
ARC
8
DEFAULT_255_2_778
10
19.8653635
20
3.3671855
40
0.8117725
50
357.764074
51
359.955884
0
ARC
8
DEFAULT_255_2_778
10
18.3231445
20
3.4500462
40
2.3561587
50
354.7847548
51
357.2137866
0
ARC
8
DEFAULT_255_2_778
10
23.271811
20
3.0179423
40
2.6113717
50
175.2127508
51
176.8297227
0
ARC
8
DEFAULT_255_2_778
10
20.6961004
20
-44.1882867
40
47.3506577
50
90.0383152
51
90.2772565
0
ARC
8
DEFAULT_255_2_778
10
20.2386163
20
50.0636131
40
46.9023523
50
270.0411468
51
270.2789569
0
ARC
8
DEFAULT_255_2_778
10
20.2396703
20
14.3597902
40
11.1985649
50
268.231332
51
270.1669406
0
ARC
8
DEFAULT_255_2_778
10
19.8976728
20
3.216062
40
0.049635
50
232.1747154
51
265.7979167
0
ARC
8
DEFAULT_255_2_778
10
19.9575403
20
3.2985134
40
0.1515114
50
206.0748742
51
233.4134191
0
ARC
8
DEFAULT_255_2_778
10
19.9095163
20
3.2762303
40
0.0985869
50
191.8648749
51
206.7104599
0
ARC
8
DEFAULT_255_2_778
10
20.0850745
20
3.3182262
40
0.2790736
50
178.9163347
51
192.8921027
0
ARC
8
DEFAULT_255_2_778
10
20.8729241
20
3.3152392
40
1.0669052
50
177.0389788
51
179.5561453
0
ARC
8
DEFAULT_255_2_778
10
18.7321143
20
3.4256427
40
1.0767496
50
357.0565781
51
359.5858874
0
ARC
8
DEFAULT_255_2_778
10
18.0036584
20
5.6754071
40
1.8053284
50
359.2590257
51
2.6971868
0
ARC
8
DEFAULT_255_2_778
10
19.6725773
20
5.7646411
40
0.1344778
50
358.1761987
51
32.0353015
0
ARC
8
DEFAULT_255_2_778
10
19.7163666
20
5.764732
40
0.1000244
50
45.4177322
51
92.0640825
0
ARC
8
DEFAULT_255_2_778
10
19.6147145
20
4.6193342
40
1.2492112
50
85.4982732
51
89.6473976
0
ARC
8
DEFAULT_255_2_778
10
30.4616899
20
551.5103099
40
545.7494399
50
268.85964
51
268.8619571
0
ARC
8
DEFAULT_255_2_778
10
19.5630705
20
3.6063876
40
2.2628797
50
89.0564069
51
89.7965699
0
ARC
8
DEFAULT_255_2_778
10
19.5620053
20
3.3754581
40
2.4938115
50
89.7909332
51
90.002232
0
ARC
8
DEFAULT_255_2_778
10
19.5626209
20
2.8996932
40
2.9695767
50
90.013752
51
90.534232
0
ARC
8
DEFAULT_255_2_778
10
19.5885048
20
0.1865646
40
5.6828288
50
90.5401373
51
90.7871731
0
ARC
8
DEFAULT_255_2_778
10
19.3689468
20
16.0443763
40
10.1765029
50
270.6719337
51
270.7966178
0
ARC
8
DEFAULT_255_2_778
10
19.4666017
20
7.6791481
40
1.8107048
50
270.0563577
51
270.6862466
0
ARC
8
DEFAULT_255_2_778
10
19.457368
20
6.128444
40
0.2602331
50
258.1679621
51
272.4258702
0
ARC
8
DEFAULT_255_2_778
10
19.4199862
20
5.9306238
40
0.0590849
50
176.1968042
51
254.3112233
0
ARC
8
DEFAULT_255_2_778
10
19.9064392
20
5.9954731
40
0.5488007
50
179.7640633
51
186.3743723
0
ARC
8
DEFAULT_255_2_778
10
21.7649394
20
6.0233417
40
2.4074324
50
179.9530716
51
180.6094858
0
ARC
8
DEFAULT_255_2_778
10
25.4192093
20
6.0237565
40
6.0617017
50
179.8030827
51
179.9852834
0
ARC
8
DEFAULT_255_2_778
10
48.0898019
20
5.9465726
40
28.7324256
50
179.7631055
51
179.8045422
0
ARC
8
DEFAULT_255_2_778
10
0.4406666
20
6.1429302
40
18.9171142
50
359.7650834
51
359.8327417
0
ARC
8
DEFAULT_255_2_778
10
10.7247761
20
6.1125145
40
8.6329597
50
359.8353578
51
359.9943316
0
ARC
8
DEFAULT_255_2_778
10
19.628752
20
6.4186269
40
0.2713407
50
180.0508288
51
182.802428
0
ARC
8
DEFAULT_255_2_778
10
19.4511466
20
6.4323521
40
0.0947698
50
87.5725417
51
188.4743836
0
ARC
8
DEFAULT_255_2_778
10
19.4931884
20
6.2056668
40
0.3236122
50
92.9141967
51
96.7484402
0
ARC
8
DEFAULT_255_2_778
10
18.7941916
20
23.9563575
40
17.4408578
50
272.2428307
51
272.3179626
0
ARC
8
DEFAULT_255_2_778
10
19.4323432
20
8.7123513
40
2.1836163
50
271.7647069
51
275.1771247
0
ARC
8
DEFAULT_255_2_778
10
19.6106386
20
6.847577
40
0.3105002
50
273.4607405
51
292.4266209
0
ARC
8
DEFAULT_255_2_778
10
19.6664116
20
6.6815807
40
0.1362903
50
297.3819802
51
354.3128654
0
ARC
8
DEFAULT_255_2_778
10
18.9675624
20
6.8387747
40
0.8517491
50
348.4390091
51
355.3639442
0
ARC
8
DEFAULT_255_2_778
10
16.6439234
20
7.0719012
40
3.18694
50
354.5629318
51
355.3418758
0
ARC
8
DEFAULT_255_2_778
10
12.4405227
20
7.418431
40
7.4045997
50
355.3107174
51
355.5683382
0
ARC
8
DEFAULT_255_2_778
10
-7.8183758
20
8.9898202
40
27.7243495
50
355.5656802
51
355.639848
0
ARC
8
DEFAULT_255_2_778
10
21.4512341
20
6.7806692
40
1.6286574
50
160.681094
51
176.4307724
0
ARC
8
DEFAULT_255_2_778
10
21.0280425
20
6.9431882
40
1.1756054
50
109.0244822
51
161.3324905
0
ARC
8
DEFAULT_255_2_778
10
21.1018691
20
6.765313
40
1.3678813
50
105.4818733
51
109.5192424
0
ARC
8
DEFAULT_255_2_778
10
21.0969502
20
6.7853281
40
1.3472794
50
89.5799828
51
105.5074867
0
ARC
8
DEFAULT_255_2_778
10
21.087994
20
6.0208681
40
2.1117869
50
79.4215174
51
89.4890393
0
ARC
8
DEFAULT_255_2_778
10
20.9205494
20
4.9742242
40
3.1715018
50
79.0287959
51
79.9191725
0
ARC
8
DEFAULT_255_2_778
10
21.499429
20
7.9148858
40
0.1746313
50
46.9892621
51
81.8665098
0
ARC
8
DEFAULT_255_2_778
10
21.5201897
20
7.9577124
40
0.1299137
50
356.0187802
51
40.7882959
0
ARC
8
DEFAULT_255_2_778
10
21.3317117
20
7.9501452
40
0.3180815
50
353.3228545
51
359.7383366
0
ARC
8
DEFAULT_255_2_778
10
25.0368063
20
7.3373587
40
3.4377354
50
170.3578248
51
173.1148712
0
ARC
8
DEFAULT_255_2_778
10
29.8920005
20
6.7757002
40
8.3252833
50
173.2829922
51
175.0503667
0
ARC
8
DEFAULT_255_2_778
10
-11.6983858
20
10.5103365
40
33.4324956
50
354.643894
51
354.8236483
0
ARC
8
DEFAULT_255_2_778
10
26.8025512
20
5.5109013
40
1.1269958
50
123.150734
51
145.1896398
0
ARC
8
DEFAULT_255_2_778
10
26.6666719
20
5.6905976
40
0.9023762
50
91.1618487
51
122.1667077
0
ARC
8
DEFAULT_255_2_778
10
26.6836079
20
5.5003193
40
1.0930369
50
89.9936486
51
91.8472058
0
ARC
8
DEFAULT_255_2_778
10
26.6835792
20
5.4515022
40
1.1418541
50
87.9996757
51
89.9924777
0
ARC
8
DEFAULT_255_2_778
10
26.7302806
20
6.3928376
40
0.19994
50
59.8611533
51
91.9618703
0
ARC
8
DEFAULT_255_2_778
10
26.7603065
20
6.4779791
40
0.1124917
50
355.8921153
51
51.2811808
0
ARC
8
DEFAULT_255_2_778
10
26.5958624
20
6.4603293
40
0.276813
50
359.9775765
51
1.9856792
0
ARC
8
DEFAULT_255_2_778
10
26.5497542
20
6.4603937
40
0.3229211
50
357.7934222
51
359.969352
0
ARC
8
DEFAULT_255_2_778
10
26.6307413
20
4.7058267
40
1.0751056
50
87.1052436
51
89.9824845
0
ARC
8
DEFAULT_255_2_778
10
26.6194731
20
4.947172
40
0.8338408
50
89.2031196
51
112.6457981
0
ARC
8
DEFAULT_255_2_778
10
26.5769813
20
5.0808244
40
0.6942398
50
113.6564118
51
159.4924394
0
ARC
8
DEFAULT_255_2_778
10
26.8386627
20
4.9608303
40
0.9815938
50
158.2832417
51
168.6588863
0
ARC
8
DEFAULT_255_2_778
10
27.546391
20
4.8158132
40
1.704023
50
168.5576501
51
179.7503836
0
ARC
8
DEFAULT_255_2_778
10
28.3541182
20
4.7879106
40
2.5119824
50
179.1942146
51
180.0057059
0
ARC
8
DEFAULT_255_2_778
10
25.7051861
20
52.6274202
40
49.4618493
50
269.2366604
51
270.1586404
0
ARC
8
DEFAULT_255_2_778
10
25.0509684
20
3.2125945
40
0.0428959
50
228.137794
51
263.665744
0
ARC
8
DEFAULT_255_2_778
10
25.1095432
20
3.289103
40
0.1391639
50
213.2379396
51
231.199791
0
ARC
8
DEFAULT_255_2_778
10
25.0705103
20
3.2656117
40
0.093657
50
199.8819751
51
214.3063757
0
ARC
8
DEFAULT_255_2_778
10
25.2380791
20
3.3030232
40
0.26486
50
178.3064623
51
195.1594958
0
ARC
8
DEFAULT_255_2_778
10
26.3902848
20
3.3060068
40
1.4169583
50
178.7104359
51
179.8041305
0
ARC
8
DEFAULT_255_2_778
10
23.5284514
20
3.3700145
40
1.4455908
50
358.7268735
51
359.8313915
0
ARC
8
DEFAULT_255_2_778
10
25.1305145
20
6.4033979
40
0.1786298
50
151.7369774
51
184.8933702
0
ARC
8
DEFAULT_255_2_778
10
25.0561713
20
6.4217233
40
0.1061968
50
87.2005789
51
141.3963796
0
ARC
8
DEFAULT_255_2_778
10
25.0839276
20
6.1964358
40
0.3321254
50
89.877828
51
93.8965543
0
ARC
8
DEFAULT_255_2_778
10
25.5835701
20
6.1797173
40
0.3491134
50
90.0348235
51
92.2546346
0
ARC
8
DEFAULT_255_2_778
10
25.5953254
20
6.3935034
40
0.1358554
50
52.4276935
51
95.0537279
0
ARC
8
DEFAULT_255_2_778
10
25.5756616
20
6.407886
40
0.138603
50
356.892699
51
42.3071638
0
ARC
8
DEFAULT_255_2_778
10
25.2854075
20
6.3801767
40
0.4291287
50
359.9310718
51
2.6975217
0
ARC
8
DEFAULT_255_2_778
10
25.7292223
20
5.9031078
40
0.1061824
50
77.0400643
51
88.6436006
0
ARC
8
DEFAULT_255_2_778
10
25.7088983
20
5.803354
40
0.2079691
50
71.9134366
51
77.746876
0
ARC
8
DEFAULT_255_2_778
10
25.7118686
20
5.8119091
40
0.1989145
50
71.6971175
51
71.96171
0
ARC
8
DEFAULT_255_2_778
10
27.4786014
20
6.3727158
40
0.273737
50
160.1696768
51
182.9851316
0
ARC
8
DEFAULT_255_2_778
10
27.321596
20
6.4175936
40
0.1113667
50
87.3942997
51
154.477772
0
ARC
8
DEFAULT_255_2_778
10
27.3592685
20
6.1571853
40
0.3730879
50
89.7928498
51
95.0143009
0
ARC
8
DEFAULT_255_2_778
10
27.3604983
20
6.0168575
40
0.5134133
50
88.812792
51
89.986711
0
ARC
8
DEFAULT_255_2_778
10
27.9574373
20
6.174522
40
0.3559938
50
90.0472408
51
92.5601443
0
ARC
8
DEFAULT_255_2_778
10
27.9701784
20
6.4024145
40
0.1287626
50
48.651106
51
95.8099854
0
ARC
8
DEFAULT_255_2_778
10
27.9587352
20
6.4211884
40
0.1240186
50
355.1331626
51
38.9054185
0
ARC
8
DEFAULT_255_2_778
10
27.7848808
20
6.4108557
40
0.2974259
50
357.5536594
51
359.9635774
0
ARC
8
DEFAULT_255_2_778
10
27.9496905
20
3.2733405
40
0.1330139
50
323.4095502
51
5.7472094
0
ARC
8
DEFAULT_255_2_778
10
27.9866335
20
3.269622
40
0.1029111
50
264.3712481
51
312.7500055
0
ARC
8
DEFAULT_255_2_778
10
27.9767941
20
3.4351066
40
0.2678998
50
267.0562186
51
269.9456058
0
ARC
8
DEFAULT_255_2_778
10
27.5042173
20
-16.375583
40
19.5485286
50
88.6551021
51
89.5499912
0
ARC
8
DEFAULT_255_2_778
10
27.6064861
20
-6.1595744
40
9.3320578
50
89.6852395
51
89.9963581
0
ARC
8
DEFAULT_255_2_778
10
27.5949264
20
-3.1216976
40
6.2941927
50
89.8893722
51
92.2689648
0
ARC
8
DEFAULT_255_2_778
10
27.3332242
20
3.5433149
40
0.3759627
50
270.0272683
51
271.9070922
0
ARC
8
DEFAULT_255_2_778
10
27.3225945
20
3.3205658
40
0.1535944
50
239.5669434
51
274.035283
0
ARC
8
DEFAULT_255_2_778
10
27.3296948
20
3.2845919
40
0.1285004
50
174.6631833
51
228.6465081
0
ARC
8
DEFAULT_255_2_778
10
27.872457
20
3.3275967
40
0.6714241
50
179.8324245
51
182.650836
0
ARC
8
DEFAULT_255_2_778
10
27.6358438
20
7.506934
40
0.5227829
50
240.3810273
51
271.1719014
0
ARC
8
DEFAULT_255_2_778
10
27.5977304
20
7.4177382
40
0.426546
50
182.9845441
51
238.9099965
0
ARC
8
DEFAULT_255_2_778
10
27.7431593
20
7.4437052
40
0.5734235
50
179.9645036
51
184.8193497
0
ARC
8
DEFAULT_255_2_778
10
27.6396114
20
7.4543414
40
0.4699881
50
138.7944681
51
181.2534421
0
ARC
8
DEFAULT_255_2_778
10
27.6331443
20
7.4417552
40
0.4736128
50
93.7662883
51
137.1332881
0
ARC
8
DEFAULT_255_2_778
10
27.6547094
20
7.3162959
40
0.6003647
50
89.9688475
51
95.0335289
0
ARC
8
DEFAULT_255_2_778
10
27.6570701
20
7.4246909
40
0.4919738
50
51.6787325
51
90.236917
0
ARC
8
DEFAULT_255_2_778
10
27.668224
20
7.4580439
40
0.4590458
50
0.4826547
51
50.1894668
0
ARC
8
DEFAULT_255_2_778
10
27.5650979
20
7.4440899
40
0.5624379
50
359.997001
51
1.8157261
0
ARC
8
DEFAULT_255_2_778
10
27.6721811
20
7.4332745
40
0.4554824
50
319.8724427
51
1.3569048
0
ARC
8
DEFAULT_255_2_778
10
27.6766175
20
7.4491835
40
0.4625876
50
275.6421688
51
318.0113269
0
ARC
8
DEFAULT_255_2_778
10
27.6472758
20
7.5981014
40
0.6138415
50
269.9309306
51
277.0012003
0
LINE
8
DEFAULT_255_2_778
10
13.0548358
20
4.0685604
11
13.8295358
21
3.8428604
0
LINE
8
DEFAULT_255_2_778
10
15.6797358
20
7.5202604
11
15.5080358
21
6.9712604
0
LINE
8
DEFAULT_255_2_778
10
14.6780358
20
5.8732604
11
15.2825358
21
5.5753604
0
LINE
8
DEFAULT_255_2_778
10
12.8989358
20
3.5057604
11
13.0521358
21
4.0677604
0
LINE
8
DEFAULT_255_2_778
10
13.0521358
20
4.0677604
11
13.0548358
21
4.0685604
0
LINE
8
DEFAULT_255_2_778
10
18.2565358
20
3.4938604
11
18.1033358
21
3.3747604
0
LINE
8
DEFAULT_255_2_778
10
16.6123358
20
5.7459604
11
16.4718358
21
6.2396604
0
LINE
8
DEFAULT_255_2_778
10
19.0513358
20
4.8389604
11
19.0513358
21
3.1660604
0
LINE
8
DEFAULT_255_2_778
10
18.2541358
20
3.4935604
11
18.2565358
21
3.4938604
0
LINE
8
DEFAULT_255_2_778
10
18.2057358
20
4.4899604
11
18.2054358
21
4.4899604
0
LINE
8
DEFAULT_255_2_778
10
21.8715358
20
5.7356604
11
21.7310358
21
6.2208604
0
LINE
8
DEFAULT_255_2_778
10
24.3064358
20
5.3271604
11
24.3318358
21
3.4798604
0
LINE
8
DEFAULT_255_2_778
10
23.5145358
20
3.4882604
11
23.3613358
21
3.3734604
0
LINE
8
DEFAULT_255_2_778
10
23.1060358
20
5.3514604
11
23.3103358
21
5.3556604
0
LINE
8
DEFAULT_255_2_778
10
22.0845358
20
5.8282604
11
21.8717358
21
5.7345604
0
LINE
8
DEFAULT_255_2_778
10
21.8717358
20
5.7345604
11
21.8715358
21
5.7356604
0
LINE
8
DEFAULT_255_2_778
10
23.4677358
20
4.4801604
11
23.4680358
21
4.4801604
0
LINE
8
DEFAULT_255_2_778
10
21.5892358
20
7.3874604
11
21.2997358
21
7.4257604
0
LINE
8
DEFAULT_255_2_778
10
20.8145358
20
6.5248604
11
21.2828358
21
6.5248604
0
LINE
8
DEFAULT_255_2_778
10
21.4018358
20
6.4185604
11
21.4018358
21
5.8652604
0
LINE
8
DEFAULT_255_2_778
10
21.4018358
20
5.8652604
11
20.9071358
21
5.8652604
0
LINE
8
DEFAULT_255_2_778
10
20.6771358
20
5.6268604
11
20.6771358
21
3.3665604
0
LINE
8
DEFAULT_255_2_778
10
19.8088358
20
3.4178604
11
19.8088358
21
5.6520604
0
LINE
8
DEFAULT_255_2_778
10
19.3577358
20
6.1116604
11
19.3577358
21
6.4053604
0
LINE
8
DEFAULT_255_2_778
10
21.5881358
20
7.3895604
11
21.5892358
21
7.3874604
0
LINE
8
DEFAULT_255_2_778
10
25.7751358
20
6.0010604
11
25.8772358
21
6.1542604
0
LINE
8
DEFAULT_255_2_778
10
26.8724358
20
6.4479604
11
26.8724358
21
5.7710604
0
LINE
8
DEFAULT_255_2_778
10
26.8724358
20
5.7710604
11
26.6850358
21
5.7795604
0
LINE
8
DEFAULT_255_2_778
10
25.8421358
20
4.7876604
11
25.8421358
21
3.1657604
0
LINE
8
DEFAULT_255_2_778
10
24.9740358
20
3.3657604
11
24.9525358
21
6.3881604
0
LINE
8
DEFAULT_255_2_778
10
25.0846358
20
6.5285604
11
25.5698358
21
6.5285604
0
LINE
8
DEFAULT_255_2_778
10
25.7145358
20
6.3796604
11
25.7317358
21
6.0092604
0
LINE
8
DEFAULT_255_2_778
10
25.7743358
20
6.0007604
11
25.7751358
21
6.0010604
0
LINE
8
DEFAULT_255_2_778
10
27.2094358
20
4.8474604
11
27.2052358
21
6.3584604
0
LINE
8
DEFAULT_255_2_778
10
27.3711358
20
6.5301604
11
27.9415358
21
6.5301604
0
LINE
8
DEFAULT_255_2_778
10
28.0820358
20
6.3981604
11
28.0820358
21
3.2866604
0
LINE
8
DEFAULT_255_2_778
10
27.2010358
20
3.3295604
11
27.2094358
21
4.8492604
0
LINE
8
DEFAULT_255_2_778
10
27.2094358
20
4.8492604
11
27.2094358
21
4.8474604
0
LINE
8
DEFAULT_255_2_778
10
27.6465358
20
6.9842604
11
27.6465358
21
6.9842604
0
ENDSEC
0
EOF