0
SECTION
2
HEADER
9
$MEASUREMENT
70
1
0
ENDSEC
0
SECTION
2
TABLES
0
TABLE
2
LTYPE
0
LTYPE
72
65
70
64
2
CONTINUOUS
3
______
73
0
40
0
0
ENDTAB
0
TABLE
2
LAYER
0
LAYER
2
DEFAULT_255_2_778
70
0
62
255
6
CONTINUOUS
0
ENDTAB
0
ENDSEC
0
SECTION
2
ENTITIES
0
ARC
8
DEFAULT_255_2_778
10
1.4953262
20
4.1652595
40
0.2736479
50
124.2674217
51
179.6202635
0
ARC
8
DEFAULT_255_2_778
10
1.6792391
20
3.9573836
40
0.5501048
50
122.3375964
51
127.9093628
0
ARC
8
DEFAULT_255_2_778
10
1.7179565
20
3.8777356
40
0.638187
50
97.364911
51
121.44951
0
ARC
8
DEFAULT_255_2_778
10
1.8231088
20
3.2187901
40
1.3053258
50
89.5357945
51
98.2347337
0
ARC
8
DEFAULT_255_2_778
10
1.8476952
20
3.2696076
40
1.2545437
50
78.5316299
51
90.6398995
0
ARC
8
DEFAULT_255_2_778
10
1.9791895
20
3.8814288
40
0.6288345
50
53.8774939
51
79.1897096
0
ARC
8
DEFAULT_255_2_778
10
2.0592071
20
4.0083147
40
0.4792777
50
47.340596
51
52.6620924
0
ARC
8
DEFAULT_255_2_778
10
1.6109745
20
3.5224555
40
1.140316
50
25.9962013
51
47.3209508
0
ARC
8
DEFAULT_255_2_778
10
1.49419
20
3.4613197
40
1.2720866
50
21.25004
51
26.1656569
0
ARC
8
DEFAULT_255_2_778
10
1.6792493
20
3.653693
40
1.8678709
50
15.9529401
51
29.4092414
0
ARC
8
DEFAULT_255_2_778
10
2.1065592
20
3.8981554
40
1.375588
50
29.2788064
51
73.6949575
0
ARC
8
DEFAULT_255_2_778
10
1.9053553
20
3.2915722
40
2.0143923
50
73.0460771
51
85.4111019
0
ARC
8
DEFAULT_255_2_778
10
1.8372604
20
2.6142862
40
2.6949898
50
85.1200539
51
90.0824049
0
ARC
8
DEFAULT_255_2_778
10
1.8213361
20
3.1715335
40
2.1377735
50
89.6770858
51
100.4717169
0
ARC
8
DEFAULT_255_2_778
10
1.7029848
20
3.7899814
40
1.5081209
50
100.3206209
51
117.942575
0
ARC
8
DEFAULT_255_2_778
10
1.6107477
20
3.9808058
40
1.2963464
50
118.2932334
51
131.4692191
0
ARC
8
DEFAULT_255_2_778
10
1.5771491
20
3.9982803
40
1.2610763
50
130.8511268
51
149.1274595
0
ARC
8
DEFAULT_255_2_778
10
1.3828507
20
4.1271748
40
1.0282263
50
149.7365955
51
180.6186323
0
ARC
8
DEFAULT_255_2_778
10
1.2813742
20
4.0996557
40
0.9268352
50
178.9850426
51
205.1610869
0
ARC
8
DEFAULT_255_2_778
10
1.1837394
20
4.0706323
40
0.8262655
50
206.2180258
51
231.6245905
0
ARC
8
DEFAULT_255_2_778
10
1.7025055
20
4.7178105
40
1.6556906
50
231.4544618
51
241.2119457
0
ARC
8
DEFAULT_255_2_778
10
2.1411019
20
5.5076889
40
2.5591641
50
241.1222469
51
248.2624402
0
ARC
8
DEFAULT_255_2_778
10
2.6121913
20
6.6764802
40
3.8193161
50
248.1916088
51
253.448962
0
ARC
8
DEFAULT_255_2_778
10
2.9421471
20
7.7448195
40
4.9373991
50
253.3103179
51
255.0712321
0
ARC
8
DEFAULT_255_2_778
10
1.2051641
20
0.9269613
40
2.0992643
50
71.1192699
51
77.2019196
0
ARC
8
DEFAULT_255_2_778
10
2.4580645
20
2.4289474
40
0.2728689
50
358.913451
51
66.3365019
0
ARC
8
DEFAULT_255_2_778
10
2.3959075
20
2.4239954
40
0.3349769
50
299.5097329
51
359.96198
0
ARC
8
DEFAULT_255_2_778
10
2.2858223
20
2.5702148
40
0.5169995
50
296.5096628
51
302.1461141
0
ARC
8
DEFAULT_255_2_778
10
2.0735938
20
3.0143021
40
1.0091571
50
280.2393561
51
296.038233
0
ARC
8
DEFAULT_255_2_778
10
1.9702292
20
3.5607244
40
1.5652578
50
270.2178348
51
280.4072251
0
ARC
8
DEFAULT_255_2_778
10
1.9557498
20
3.9868319
40
1.9914588
50
269.9981162
51
270.5878079
0
ARC
8
DEFAULT_255_2_778
10
1.9429496
20
3.122329
40
1.1270279
50
255.335383
51
270.6474219
0
ARC
8
DEFAULT_255_2_778
10
1.8366423
20
2.7275862
40
0.7182371
50
200.5869353
51
255.5675981
0
ARC
8
DEFAULT_255_2_778
10
2.3500128
20
2.9537093
40
1.2787148
50
188.519371
51
201.9835919
0
ARC
8
DEFAULT_255_2_778
10
2.7992205
20
3.0380581
40
1.7355435
50
187.5150229
51
189.0763398
0
ARC
8
DEFAULT_255_2_778
10
1.8581476
20
2.8320153
40
1.6645287
50
188.4724787
51
227.8898428
0
ARC
8
DEFAULT_255_2_778
10
1.6920038
20
2.6322944
40
1.4049958
50
227.4547333
51
252.7317259
0
ARC
8
DEFAULT_255_2_778
10
1.8967934
20
3.251606
40
2.0572165
50
252.4053496
51
264.4604922
0
ARC
8
DEFAULT_255_2_778
10
1.9894319
20
4.0752107
40
2.8859454
50
264.2083223
51
270.1320725
0
ARC
8
DEFAULT_255_2_778
10
2.0085588
20
3.9035067
40
2.7142622
50
269.7366736
51
277.927148
0
ARC
8
DEFAULT_255_2_778
10
2.1353828
20
3.021654
40
1.8233497
50
277.8016947
51
290.2373966
0
ARC
8
DEFAULT_255_2_778
10
2.316814
20
2.5352899
40
1.3042527
50
290.1498673
51
311.367946
0
ARC
8
DEFAULT_255_2_778
10
2.2957566
20
2.5670854
40
1.3420414
50
311.1455069
51
327.5552721
0
ARC
8
DEFAULT_255_2_778
10
2.5713834
20
2.3918037
40
1.0154012
50
327.5582074
51
0.0434176
0
ARC
8
DEFAULT_255_2_778
10
2.3193926
20
2.4057636
40
1.2674604
50
359.403712
51
15.63262
0
ARC
8
DEFAULT_255_2_778
10
2.5822897
20
2.4719324
40
0.9964831
50
16.0420779
51
40.3170145
0
ARC
8
DEFAULT_255_2_778
10
2.6359258
20
2.4707347
40
0.9570247
50
42.4498256
51
57.0464057
0
ARC
8
DEFAULT_255_2_778
10
2.1976328
20
1.8109914
40
1.7490592
50
56.7547634
51
65.8134025
0
ARC
8
DEFAULT_255_2_778
10
1.708622
20
0.7388398
40
2.9274536
50
65.6800655
51
71.9645092
0
ARC
8
DEFAULT_255_2_778
10
1.3059941
20
-0.4578592
40
4.1900268
50
71.795775
51
74.8097694
0
ARC
8
DEFAULT_255_2_778
10
1.7058767
20
4.4202685
40
0.5895649
50
225.9109651
51
241.5357938
0
ARC
8
DEFAULT_255_2_778
10
1.4549333
20
4.1679075
40
0.2337506
50
180.2045319
51
227.0522792
0
ARC
8
DEFAULT_255_2_778
10
4.7241622
20
6.3034098
40
0.6070414
50
359.5434847
51
88.5601606
0
ARC
8
DEFAULT_255_2_778
10
4.7192047
20
6.2591462
40
0.651427
50
88.2220839
51
90.0017889
0
ARC
8
DEFAULT_255_2_778
10
4.7210599
20
6.2967979
40
0.6137781
50
90.1750874
51
179.8342868
0
ARC
8
DEFAULT_255_2_778
10
4.7186973
20
6.3084659
40
0.611493
50
180.9269793
51
270.0456327
0
ARC
8
DEFAULT_255_2_778
10
4.7244896
20
6.303666
40
0.6067161
50
269.4989889
51
359.5190422
0
ARC
8
DEFAULT_255_2_778
10
7.8944966
20
4.4094733
40
0.859214
50
66.4580413
51
90.9344344
0
ARC
8
DEFAULT_255_2_778
10
7.86344
20
4.3956119
40
0.8731276
50
88.881457
51
121.9743538
0
ARC
8
DEFAULT_255_2_778
10
7.8327491
20
4.4143136
40
0.8411659
50
120.8755022
51
154.3014885
0
ARC
8
DEFAULT_255_2_778
10
8.908441
20
3.4456318
40
1.7934999
50
171.0619025
51
180.3980145
0
ARC
8
DEFAULT_255_2_778
10
8.1383353
20
3.5718835
40
1.0131433
50
155.9713296
51
171.3485866
0
ARC
8
DEFAULT_255_2_778
10
7.7275832
20
3.7669549
40
0.5586608
50
96.5239453
51
157.0904407
0
ARC
8
DEFAULT_255_2_778
10
7.7853181
20
3.470078
40
0.8604997
50
89.8158095
51
98.0975508
0
ARC
8
DEFAULT_255_2_778
10
7.775401
20
3.5197419
40
0.8109304
50
68.0062661
51
89.1038284
0
ARC
8
DEFAULT_255_2_778
10
7.7259531
20
3.3674685
40
0.970705
50
68.3624869
51
68.6660547
0
ARC
8
DEFAULT_255_2_778
10
14.8049582
20
3.2563012
40
1.1212324
50
328.2040743
51
0.1927485
0
ARC
8
DEFAULT_255_2_778
10
14.8525201
20
3.2207669
40
1.0620978
50
270.1545141
51
328.4814419
0
ARC
8
DEFAULT_255_2_778
10
14.8713688
20
3.242524
40
1.0839688
50
190.9434836
51
269.1550731
0
ARC
8
DEFAULT_255_2_778
10
14.904313
20
3.2597197
40
1.1196289
50
179.9819156
51
191.4874111
0
ARC
8
DEFAULT_255_2_778
10
14.9061847
20
3.2638509
40
1.1215067
50
148.2506655
51
180.1929986
0
ARC
8
DEFAULT_255_2_778
10
14.8583015
20
3.2995724
40
1.0620047
50
90.1573819
51
148.5301193
0
ARC
8
DEFAULT_255_2_778
10
14.847475
20
3.2874635
40
1.0741387
50
14.1578157
51
89.5781024
0
ARC
8
DEFAULT_255_2_778
10
14.7857872
20
3.2613024
40
1.1403978
50
359.9382383
51
14.6742129
0
ARC
8
DEFAULT_255_2_778
10
14.9272021
20
3.2612045
40
2.0186826
50
359.9678884
51
26.4984705
0
ARC
8
DEFAULT_255_2_778
10
14.8579651
20
3.2221687
40
2.0980666
50
26.6088865
51
75.658648
0
ARC
8
DEFAULT_255_2_778
10
14.8570316
20
3.2127506
40
2.1074229
50
75.697483
51
90.0366291
0
ARC
8
DEFAULT_255_2_778
10
14.8526102
20
3.2083
40
2.1118754
50
89.9165971
51
113.0553731
0
ARC
8
DEFAULT_255_2_778
10
14.8275718
20
3.2504009
40
2.063342
50
112.8734654
51
172.6360493
0
ARC
8
DEFAULT_255_2_778
10
14.8240737
20
3.2605911
40
2.0585894
50
172.9048504
51
180.0144167
0
ARC
8
DEFAULT_255_2_778
10
14.7839418
20
3.2589521
40
2.0184578
50
179.9681805
51
206.4999691
0
ARC
8
DEFAULT_255_2_778
10
14.8534027
20
3.298107
40
2.0980954
50
206.6105077
51
255.6588716
0
ARC
8
DEFAULT_255_2_778
10
14.8543355
20
3.3074956
40
2.1074229
50
255.697527
51
270.036672
0
ARC
8
DEFAULT_255_2_778
10
14.8386822
20
3.3420067
40
2.1420011
50
270.4547905
51
293.4697722
0
ARC
8
DEFAULT_255_2_778
10
14.8795649
20
3.2791604
40
2.0681095
50
293.1242684
51
353.9347596
0
ARC
8
DEFAULT_255_2_778
10
14.9150356
20
3.2597808
40
2.0308489
50
354.3727174
51
0.0082458
0
ARC
8
DEFAULT_255_2_778
10
19.1058315
20
3.2784637
40
2.3781656
50
359.8123059
51
14.5135375
0
ARC
8
DEFAULT_255_2_778
10
19.4209502
20
3.3626734
40
2.0520008
50
14.4423097
51
34.9162581
0
ARC
8
DEFAULT_255_2_778
10
19.6084436
20
3.4958013
40
1.8220596
50
34.8582023
51
81.7618876
0
ARC
8
DEFAULT_255_2_778
10
19.5786242
20
3.3339595
40
1.9865142
50
81.5795499
51
90.0501817
0
ARC
8
DEFAULT_255_2_778
10
19.5738085
20
3.1278926
40
2.1925827
50
89.9196233
51
97.4598744
0
ARC
8
DEFAULT_255_2_778
10
19.5408049
20
3.3911225
40
1.9272963
50
97.5030217
51
103.2586509
0
ARC
8
DEFAULT_255_2_778
10
19.4562697
20
3.7112186
40
1.5963693
50
102.9403399
51
121.2392693
0
ARC
8
DEFAULT_255_2_778
10
19.3686725
20
3.8701295
40
1.4150899
50
121.5436226
51
137.1996988
0
ARC
8
DEFAULT_255_2_778
10
19.3917292
20
3.8480305
40
1.4470226
50
137.1779643
51
138.8471238
0
ARC
8
DEFAULT_255_2_778
10
19.5373203
20
3.0174586
40
1.8281375
50
227.4972726
51
238.1977921
0
ARC
8
DEFAULT_255_2_778
10
19.390512
20
2.7849986
40
1.5532115
50
238.281326
51
251.8953409
0
ARC
8
DEFAULT_255_2_778
10
19.4496375
20
3.0117786
40
1.7871941
50
252.3529733
51
266.6408335
0
ARC
8
DEFAULT_255_2_778
10
19.5531824
20
4.4558861
40
3.2349421
50
266.3087467
51
270.2426821
0
ARC
8
DEFAULT_255_2_778
10
19.5882697
20
3.5447766
40
2.3239019
50
269.4727369
51
269.999443
0
ARC
8
DEFAULT_255_2_778
10
19.5978591
20
3.2914346
40
2.0705822
50
269.7340212
51
284.8496198
0
ARC
8
DEFAULT_255_2_778
10
19.6848177
20
2.9728036
40
1.7403086
50
284.7707815
51
333.2853361
0
ARC
8
DEFAULT_255_2_778
10
19.3274882
20
3.1671868
40
2.1469194
50
332.9384671
51
349.0923943
0
ARC
8
DEFAULT_255_2_778
10
18.8580543
20
3.2626565
40
2.6259423
50
348.9851342
51
0.1749162
0
ARC
8
DEFAULT_255_2_778
10
19.3838582
20
3.2563012
40
1.1212324
50
328.2040743
51
0.1927485
0
ARC
8
DEFAULT_255_2_778
10
19.4314201
20
3.2207669
40
1.0620978
50
270.1545141
51
328.4814419
0
ARC
8
DEFAULT_255_2_778
10
19.4503043
20
3.2427026
40
1.0841479
50
190.8614898
51
269.1533349
0
ARC
8
DEFAULT_255_2_778
10
19.4829608
20
3.2597237
40
1.1194765
50
179.9821154
51
191.402096
0
ARC
8
DEFAULT_255_2_778
10
19.4848575
20
3.2638399
40
1.1213795
50
148.2459839
51
180.1924619
0
ARC
8
DEFAULT_255_2_778
10
19.4372188
20
3.2994154
40
1.0621616
50
90.1582915
51
148.5253754
0
ARC
8
DEFAULT_255_2_778
10
19.426375
20
3.2874635
40
1.0741387
50
14.1578157
51
89.5781024
0
ARC
8
DEFAULT_255_2_778
10
19.3646872
20
3.2613024
40
1.1403978
50
359.9382383
51
14.6742129
0
ARC
8
DEFAULT_255_2_778
10
10.4496421
20
3.2497607
40
1.9786693
50
322.5456085
51
359.6768937
0
ARC
8
DEFAULT_255_2_778
10
10.2251527
20
3.2600712
40
2.2032316
50
359.4416898
51
0.0000486
0
ARC
8
DEFAULT_255_2_778
10
10.4222911
20
3.2621062
40
2.0060943
50
359.9419334
51
25.5139501
0
ARC
8
DEFAULT_255_2_778
10
10.3515244
20
3.2198986
40
2.0881539
50
25.7227608
51
74.643339
0
ARC
8
DEFAULT_255_2_778
10
10.3398973
20
3.1846429
40
2.1252308
50
74.5927808
51
90.0461814
0
ARC
8
DEFAULT_255_2_778
10
10.3353305
20
3.1948769
40
2.1149982
50
89.9226886
51
112.8541906
0
ARC
8
DEFAULT_255_2_778
10
10.3041873
20
3.2439422
40
2.0577117
50
112.5857153
51
174.0608279
0
ARC
8
DEFAULT_255_2_778
10
10.2772088
20
3.2603571
40
2.0292246
50
174.4430038
51
180.0080188
0
ARC
8
DEFAULT_255_2_778
10
10.2917369
20
3.2717792
40
2.0437861
50
180.3281715
51
216.83607
0
ARC
8
DEFAULT_255_2_778
10
10.4541586
20
3.3724214
40
2.2341821
50
216.4045374
51
218.7938293
0
ARC
8
DEFAULT_255_2_778
10
11.7172223
20
4.3876845
40
3.8547035
50
218.7933402
51
220.8071023
0
ARC
8
DEFAULT_255_2_778
10
13.6973435
20
6.0947102
40
6.4690511
50
220.7896897
51
222.3192335
0
ARC
8
DEFAULT_255_2_778
10
16.5587943
20
8.6979334
40
10.3374707
50
222.3099999
51
223.524563
0
ARC
8
DEFAULT_255_2_778
10
20.7187169
20
12.6485563
40
16.0744016
50
223.5235627
51
224.572453
0
ARC
8
DEFAULT_255_2_778
10
24.2049122
20
16.0665456
40
20.9566248
50
224.5401974
51
224.8158126
0
ARC
8
DEFAULT_255_2_778
10
26.4854313
20
18.3339175
40
24.1724826
50
224.8182811
51
225.1918972
0
ARC
8
DEFAULT_255_2_778
10
31.4725077
20
23.3693762
40
31.2595617
50
225.2110973
51
225.9976505
0
ARC
8
DEFAULT_255_2_778
10
36.4255364
20
28.4832057
40
38.3788072
50
225.9823418
51
226.3405116
0
ARC
8
DEFAULT_255_2_778
10
38.1730767
20
30.3123321
40
40.9085501
50
226.3384225
51
226.5812528
0
ARC
8
DEFAULT_255_2_778
10
37.9292142
20
30.0537862
40
40.5531425
50
226.5804394
51
226.7926094
0
ARC
8
DEFAULT_255_2_778
10
35.6304211
20
27.6059201
40
37.1950929
50
226.7920476
51
226.9449227
0
ARC
8
DEFAULT_255_2_778
10
32.2953904
20
24.0364572
40
32.3100653
50
226.944964
51
227.0488248
0
ARC
8
DEFAULT_255_2_778
10
27.1509644
20
18.5087955
40
24.7588957
50
227.0464496
51
227.170892
0
ARC
8
DEFAULT_255_2_778
10
19.2352471
20
9.9680679
40
13.1140425
50
227.1672184
51
227.2739327
0
ARC
8
DEFAULT_255_2_778
10
13.5374775
20
3.8002461
40
4.7172216
50
227.2834767
51
227.3039043
0
ARC
8
DEFAULT_255_2_778
10
3.5980971
20
7.578326
40
9.8957722
50
312.934222
51
313.0243695
0
ARC
8
DEFAULT_255_2_778
10
-5.8522728
20
17.7071973
40
23.748697
50
313.0190554
51
313.1352405
0
ARC
8
DEFAULT_255_2_778
10
-13.0138438
20
25.3522198
40
34.2241189
50
313.1336042
51
313.2658366
0
ARC
8
DEFAULT_255_2_778
10
-17.2928939
20
29.8997184
40
40.4683171
50
313.2646207
51
313.3935727
0
ARC
8
DEFAULT_255_2_778
10
-19.6449611
20
32.3876559
40
43.8920655
50
313.3934497
51
313.5845712
0
ARC
8
DEFAULT_255_2_778
10
-19.9813684
20
32.742144
40
44.3807691
50
313.5836499
51
313.8252668
0
ARC
8
DEFAULT_255_2_778
10
-18.0461161
20
30.7277154
40
41.587362
50
313.8234988
51
314.150785
0
ARC
8
DEFAULT_255_2_778
10
-12.6346045
20
25.1657321
40
33.8272058
50
314.136193
51
314.8701543
0
ARC
8
DEFAULT_255_2_778
10
-7.2993266
20
19.7939752
40
26.2561513
50
314.8890013
51
315.2071485
0
ARC
8
DEFAULT_255_2_778
10
-2.321576
20
14.8695689
40
19.2541824
50
315.1702339
51
316.2608808
0
ARC
8
DEFAULT_255_2_778
10
2.5930587
20
10.1589863
40
12.4466002
50
316.2862627
51
317.1575958
0
ARC
8
DEFAULT_255_2_778
10
5.6878903
20
7.2929461
40
8.2285254
50
317.1368537
51
318.4441098
0
ARC
8
DEFAULT_255_2_778
10
8.1282979
20
5.1313013
40
4.9684189
50
318.4294994
51
320.1435414
0
ARC
8
DEFAULT_255_2_778
10
9.7650425
20
3.7661879
40
2.8371128
50
320.1233036
51
322.3936451
0
ARC
8
DEFAULT_255_2_778
10
10.4400944
20
3.241098
40
1.9818988
50
322.5106951
51
322.9316112
0
ARC
8
DEFAULT_255_2_778
10
10.200772
20
3.2542537
40
1.2498137
50
345.3882842
51
0.7298192
0
ARC
8
DEFAULT_255_2_778
10
10.3638309
20
3.2225822
40
1.0840897
50
337.0021007
51
344.83401
0
ARC
8
DEFAULT_255_2_778
10
10.1713333
20
3.3068185
40
1.2942006
50
329.3093971
51
336.8988238
0
ARC
8
DEFAULT_255_2_778
10
9.9287088
20
3.4450803
40
1.573419
50
328.2648923
51
329.4892752
0
ARC
8
DEFAULT_255_2_778
10
10.4143992
20
3.142116
40
1.00099
50
323.7456624
51
328.3907126
0
ARC
8
DEFAULT_255_2_778
10
9.4778082
20
3.8235415
40
2.1592364
50
321.005853
51
323.8616491
0
ARC
8
DEFAULT_255_2_778
10
7.9977001
20
5.0179255
40
4.061148
50
319.072432
51
321.0489856
0
ARC
8
DEFAULT_255_2_778
10
5.4736028
20
7.2086386
40
7.4033464
50
317.3032279
51
319.0598901
0
ARC
8
DEFAULT_255_2_778
10
3.4106478
20
9.0931693
40
10.1974651
50
317.1926378
51
317.3812501
0
ARC
8
DEFAULT_255_2_778
10
2.3664462
20
10.0623731
40
11.6221446
50
316.6698038
51
317.1853568
0
ARC
8
DEFAULT_255_2_778
10
-0.297498
20
12.583605
40
15.2900024
50
315.690682
51
316.6474361
0
ARC
8
DEFAULT_255_2_778
10
-2.8826279
20
15.0990394
40
18.8969791
50
315.1938059
51
315.7082758
0
ARC
8
DEFAULT_255_2_778
10
-3.3963519
20
15.6073945
40
19.6197069
50
314.8868929
51
315.1977532
0
ARC
8
DEFAULT_255_2_778
10
-2.5523462
20
14.7596784
40
18.423476
50
314.6870552
51
314.8877085
0
ARC
8
DEFAULT_255_2_778
10
-0.2671399
20
12.4479693
40
15.172912
50
314.4619594
51
314.690779
0
ARC
8
DEFAULT_255_2_778
10
3.4118624
20
8.6998097
40
9.9208877
50
314.3304521
51
314.4595497
0
ARC
8
DEFAULT_255_2_778
10
7.4596573
20
4.5557392
40
4.127964
50
314.2281673
51
314.3357765
0
ARC
8
DEFAULT_255_2_778
10
16.058729
20
7.1579346
40
7.9768963
50
224.0783099
51
224.1894585
0
ARC
8
DEFAULT_255_2_778
10
22.7430744
20
13.6336174
40
17.283611
50
223.9630422
51
224.0854696
0
ARC
8
DEFAULT_255_2_778
10
27.4976024
20
18.2194028
40
23.8892877
50
223.7788078
51
223.9635848
0
ARC
8
DEFAULT_255_2_778
10
29.9334274
20
20.5544472
40
27.2635542
50
223.5411288
51
223.780175
0
ARC
8
DEFAULT_255_2_778
10
29.5851146
20
20.2248983
40
26.7840511
50
223.2085961
51
223.5433977
0
ARC
8
DEFAULT_255_2_778
10
25.8295117
20
16.7066095
40
21.637902
50
222.4392441
51
223.2269647
0
ARC
8
DEFAULT_255_2_778
10
17.9483556
20
9.4923309
40
10.95341
50
222.396075
51
222.4087904
0
ARC
8
DEFAULT_255_2_778
10
21.907273
20
13.1104218
40
16.3165812
50
222.1428128
51
222.4054105
0
ARC
8
DEFAULT_255_2_778
10
18.1203244
20
9.7000941
40
11.2203971
50
220.8593732
51
222.2056129
0
ARC
8
DEFAULT_255_2_778
10
14.0986234
20
6.2187689
40
5.9012151
50
219.3965244
51
220.8402309
0
ARC
8
DEFAULT_255_2_778
10
11.9484817
20
4.4542775
40
3.119752
50
217.4502229
51
219.4169112
0
ARC
8
DEFAULT_255_2_778
10
10.6278256
20
3.4454423
40
1.4578642
50
214.3038177
51
217.5350314
0
ARC
8
DEFAULT_255_2_778
10
10.1638535
20
3.1239224
40
0.893402
50
213.7347037
51
214.0402928
0
ARC
8
DEFAULT_255_2_778
10
10.3371875
20
3.2544647
40
1.1101143
50
179.189221
51
214.3695814
0
ARC
8
DEFAULT_255_2_778
10
10.3262989
20
3.2603415
40
1.0991586
50
101.2496198
51
179.4875014
0
ARC
8
DEFAULT_255_2_778
10
10.3379714
20
3.2332341
40
1.1280391
50
89.9739448
51
101.5625006
0
ARC
8
DEFAULT_255_2_778
10
10.3401177
20
3.2428086
40
1.1184657
50
53.362902
51
90.0836735
0
ARC
8
DEFAULT_255_2_778
10
10.3656699
20
3.2667221
40
1.0840465
50
0.6216789
51
53.6923732
0
ARC
8
DEFAULT_255_2_778
10
10.3577136
20
3.2701504
40
1.0919707
50
0.0011912
51
0.4372736
0
ARC
8
DEFAULT_255_2_778
10
10.3425794
20
3.2443288
40
0.6070243
50
359.5416804
51
88.5528444
0
ARC
8
DEFAULT_255_2_778
10
10.3377045
20
3.2004057
40
0.6510674
50
88.2215937
51
90.0017761
0
ARC
8
DEFAULT_255_2_778
10
10.3394809
20
3.2376765
40
0.6137992
50
90.167705
51
179.832295
0
ARC
8
DEFAULT_255_2_778
10
10.3372687
20
3.2494386
40
0.6116656
50
180.9335235
51
270.0389283
0
ARC
8
DEFAULT_255_2_778
10
10.3428284
20
3.2445282
40
0.6067769
50
269.5142577
51
359.5226634
0
LINE
8
DEFAULT_255_2_778
10
2.6797843
20
3.9223731
11
3.4751843
21
4.1670731
0
LINE
8
DEFAULT_255_2_778
10
1.8844843
20
2.9132731
11
2.5675843
21
2.6788731
0
LINE
8
DEFAULT_255_2_778
10
1.0785843
20
2.8110731
11
0.2117843
21
2.5867731
0
LINE
8
DEFAULT_255_2_778
10
2.4038843
20
3.5857731
11
1.4248843
21
3.9019731
0
LINE
8
DEFAULT_255_2_778
10
4.2400843
20
5.1971731
11
5.2089843
21
5.1971731
0
LINE
8
DEFAULT_255_2_778
10
5.2089843
20
5.1971731
11
5.2089843
21
1.2812731
0
LINE
8
DEFAULT_255_2_778
10
5.2089843
20
1.2812731
11
4.2400843
21
1.2812731
0
LINE
8
DEFAULT_255_2_778
10
4.2400843
20
1.2812731
11
4.2400843
21
5.1971731
0
LINE
8
DEFAULT_255_2_778
10
8.0846843
20
4.2692731
11
8.2376843
21
5.1971731
0
LINE
8
DEFAULT_255_2_778
10
7.0747843
20
4.7790731
11
7.0641843
21
4.7790731
0
LINE
8
DEFAULT_255_2_778
10
7.0641843
20
4.7790731
11
7.0641843
21
5.1971731
0
LINE
8
DEFAULT_255_2_778
10
7.0641843
20
5.1971731
11
6.1460843
21
5.1971731
0
LINE
8
DEFAULT_255_2_778
10
6.1460843
20
5.1971731
11
6.1460843
21
1.2812731
0
LINE
8
DEFAULT_255_2_778
10
6.1460843
20
1.2812731
11
7.1149843
21
1.2812731
0
LINE
8
DEFAULT_255_2_778
10
7.1149843
20
1.2812731
11
7.1149843
21
3.4331731
0
LINE
8
DEFAULT_255_2_778
10
18.3021843
20
4.8002731
11
18.3021843
21
5.2082731
0
LINE
8
DEFAULT_255_2_778
10
18.3021843
20
5.2082731
11
17.3332843
21
5.2082731
0
LINE
8
DEFAULT_255_2_778
10
17.3332843
20
5.2082731
11
17.3332843
21
-0.1659269
0
LINE
8
DEFAULT_255_2_778
10
17.3332843
20
-0.1659269
11
18.3021843
21
-0.1659269
0
LINE
8
DEFAULT_255_2_778
10
18.3021843
20
-0.1659269
11
18.3021843
21
1.6696731
0
ENDSEC
0
EOF