0
SECTION
2
HEADER
9
$MEASUREMENT
70
1
0
ENDSEC
0
SECTION
2
TABLES
0
TABLE
2
LTYPE
0
LTYPE
72
65
70
64
2
CONTINUOUS
3
______
73
0
40
0
0
ENDTAB
0
TABLE
2
LAYER
0
LAYER
2
DEFAULT_255_2_778
70
0
62
255
6
CONTINUOUS
0
ENDTAB
0
ENDSEC
0
SECTION
2
ENTITIES
0
ARC
8
DEFAULT_255_2_778
10
4.2665585
20
0.7055127
40
0.996246
50
286.7891468
51
287.3515187
0
ARC
8
DEFAULT_255_2_778
10
3.7987169
20
2.2073333
40
2.5692495
50
287.3216066
51
288.0159767
0
ARC
8
DEFAULT_255_2_778
10
3.3675536
20
3.5360016
40
3.966125
50
288.0028315
51
288.7044004
0
ARC
8
DEFAULT_255_2_778
10
3.0129451
20
4.5850822
40
5.0735171
50
288.6982447
51
289.3914064
0
ARC
8
DEFAULT_255_2_778
10
2.7250994
20
5.4038743
40
5.9414316
50
289.3881457
51
290.070385
0
ARC
8
DEFAULT_255_2_778
10
2.4919325
20
6.0426932
40
6.6214731
50
290.068489
51
290.7376806
0
ARC
8
DEFAULT_255_2_778
10
2.2710359
20
6.6250593
40
7.2443257
50
290.7406466
51
291.7351479
0
ARC
8
DEFAULT_255_2_778
10
2.0643284
20
7.1440019
40
7.8029216
50
291.733963
51
292.8580036
0
ARC
8
DEFAULT_255_2_778
10
1.9189611
20
7.489356
40
8.1776227
50
292.8565974
51
294.0851615
0
ARC
8
DEFAULT_255_2_778
10
1.8349424
20
7.6777622
40
8.3839139
50
294.0839082
51
295.5348256
0
ARC
8
DEFAULT_255_2_778
10
1.818626
20
7.7125255
40
8.422315
50
295.5330407
51
297.1290141
0
ARC
8
DEFAULT_255_2_778
10
1.8722922
20
7.6085325
40
8.3052916
50
297.1266576
51
299.0161846
0
ARC
8
DEFAULT_255_2_778
10
2.0063379
20
7.3680453
40
8.0299701
50
299.0121118
51
301.3625732
0
ARC
8
DEFAULT_255_2_778
10
2.2254909
20
7.0096123
40
7.6098487
50
301.358164
51
304.0942002
0
ARC
8
DEFAULT_255_2_778
10
2.4494066
20
6.6769299
40
7.2088316
50
304.1026131
51
305.9022663
0
ARC
8
DEFAULT_255_2_778
10
2.75208
20
6.2645988
40
6.6973476
50
305.873365
51
310.1050025
0
ARC
8
DEFAULT_255_2_778
10
3.2274694
20
5.7031404
40
5.9616667
50
310.0865241
51
315.5871429
0
ARC
8
DEFAULT_255_2_778
10
3.7690089
20
5.1759695
40
5.2059104
50
315.560556
51
322.9711427
0
ARC
8
DEFAULT_255_2_778
10
4.2645385
20
4.8012271
40
4.5846369
50
322.9805466
51
331.3441938
0
ARC
8
DEFAULT_255_2_778
10
4.5779007
20
4.6270088
40
4.2261114
50
331.3795464
51
339.3906529
0
ARC
8
DEFAULT_255_2_778
10
4.68402
20
4.5850513
40
4.1120151
50
339.4173913
51
346.3726623
0
ARC
8
DEFAULT_255_2_778
10
4.625697
20
4.5981406
40
4.1717803
50
346.3866767
51
352.782419
0
ARC
8
DEFAULT_255_2_778
10
4.4393778
20
4.6214234
40
4.3595484
50
352.7864975
51
358.2293366
0
ARC
8
DEFAULT_255_2_778
10
4.2555119
20
4.6289
40
4.5435579
50
358.206743
51
0.0035711
0
ARC
8
DEFAULT_255_2_778
10
4.0732608
20
4.6278077
40
4.7258092
50
0.0166765
51
3.6343015
0
ARC
8
DEFAULT_255_2_778
10
3.8004245
20
4.6108494
40
4.9991718
50
3.6300568
51
6.5666523
0
ARC
8
DEFAULT_255_2_778
10
3.4917481
20
4.57506
40
5.309916
50
6.5693999
51
9.5959475
0
ARC
8
DEFAULT_255_2_778
10
3.1204702
20
4.5122436
40
5.6864702
50
9.596409
51
12.4895781
0
ARC
8
DEFAULT_255_2_778
10
2.7130133
20
4.4222801
40
6.1037406
50
12.4869229
51
15.0249521
0
ARC
8
DEFAULT_255_2_778
10
2.2749937
20
4.3047311
40
6.5572589
50
15.0247625
51
17.4366461
0
ARC
8
DEFAULT_255_2_778
10
1.7992553
20
4.1554618
40
7.0558654
50
17.4354657
51
19.6550706
0
ARC
8
DEFAULT_255_2_778
10
1.2792626
20
3.969679
40
7.6080497
50
19.6554851
51
21.8175507
0
ARC
8
DEFAULT_255_2_778
10
0.7180822
20
3.745251
40
8.2124431
50
21.8160766
51
23.7855081
0
ARC
8
DEFAULT_255_2_778
10
0.1537297
20
3.4969432
40
8.8290063
50
23.7829497
51
25.4755068
0
ARC
8
DEFAULT_255_2_778
10
-0.4594666
20
3.2043478
40
9.5084336
50
25.4778864
51
27.3083947
0
ARC
8
DEFAULT_255_2_778
10
-1.1023246
20
2.8731936
40
10.2315718
50
27.304569
51
28.7711032
0
ARC
8
DEFAULT_255_2_778
10
-1.728884
20
2.5291641
40
10.9463677
50
28.7710435
51
30.1850248
0
ARC
8
DEFAULT_255_2_778
10
7.507034
20
8.4261309
40
0.4536157
50
298.8587356
51
299.9100192
0
ARC
8
DEFAULT_255_2_778
10
7.199095
20
8.9820134
40
1.0890925
50
297.8562315
51
298.9323392
0
ARC
8
DEFAULT_255_2_778
10
6.9294187
20
9.4921565
40
1.6661292
50
296.4831922
51
297.8583055
0
ARC
8
DEFAULT_255_2_778
10
6.6930987
20
9.9658261
40
2.1954777
50
294.9450826
51
296.4909114
0
ARC
8
DEFAULT_255_2_778
10
6.5210248
20
10.3346903
40
2.6025034
50
293.485429
51
294.9550632
0
ARC
8
DEFAULT_255_2_778
10
6.3951144
20
10.6245176
40
2.9184992
50
291.7243535
51
293.4850241
0
ARC
8
DEFAULT_255_2_778
10
6.3014802
20
10.8592137
40
3.171184
50
289.7624894
51
291.7263956
0
ARC
8
DEFAULT_255_2_778
10
6.250616
20
10.9994567
40
3.3203654
50
288.5240861
51
289.7702406
0
ARC
8
DEFAULT_255_2_778
10
6.2160514
20
11.1033885
40
3.4298938
50
286.1502257
51
288.5199832
0
ARC
8
DEFAULT_255_2_778
10
6.1923235
20
11.184781
40
3.5146743
50
283.5675857
51
286.1526972
0
ARC
8
DEFAULT_255_2_778
10
6.1835978
20
11.2204241
40
3.5513697
50
280.5461892
51
283.5695322
0
ARC
8
DEFAULT_255_2_778
10
6.183847
20
11.2183935
40
3.5493277
50
276.9365589
51
280.5482336
0
ARC
8
DEFAULT_255_2_778
10
6.1871616
20
11.1903751
40
3.5211141
50
272.9287514
51
276.9380786
0
ARC
8
DEFAULT_255_2_778
10
6.1887851
20
11.1606515
40
3.4913464
50
270.0015895
51
272.9270678
0
ARC
8
DEFAULT_255_2_778
10
6.1887321
20
11.1376498
40
3.4683447
50
265.3971092
51
270.0024741
0
ARC
8
DEFAULT_255_2_778
10
6.1886803
20
11.1347088
40
3.4654088
50
260.4242536
51
265.3940618
0
ARC
8
DEFAULT_255_2_778
10
6.1956088
20
11.1741054
40
3.505409
50
255.36769
51
260.4197056
0
ARC
8
DEFAULT_255_2_778
10
6.2199069
20
11.2659667
40
3.6004289
50
250.3484376
51
255.3628438
0
ARC
8
DEFAULT_255_2_778
10
6.2716566
20
11.4104342
40
3.7538855
50
245.6964591
51
250.346129
0
ARC
8
DEFAULT_255_2_778
10
6.3395238
20
11.5625649
40
3.9204663
50
242.9122976
51
245.7075639
0
ARC
8
DEFAULT_255_2_778
10
2.7766471
20
11.5280978
40
3.879795
50
292.6132419
51
297.0992813
0
ARC
8
DEFAULT_255_2_778
10
2.8499652
20
11.352302
40
3.6893226
50
287.721497
51
292.6118976
0
ARC
8
DEFAULT_255_2_778
10
2.8901896
20
11.2273351
40
3.5580419
50
282.7271874
51
287.7170385
0
ARC
8
DEFAULT_255_2_778
10
2.9063857
20
11.1568889
40
3.4857585
50
277.7363754
51
282.7226138
0
ARC
8
DEFAULT_255_2_778
10
2.9095686
20
11.1352106
40
3.4638491
50
272.8051759
51
277.7324775
0
ARC
8
DEFAULT_255_2_778
10
2.9091003
20
11.145205
40
3.4738545
50
269.9989219
51
272.8048235
0
ARC
8
DEFAULT_255_2_778
10
2.909238
20
11.1696484
40
3.4982979
50
265.8926535
51
269.9966741
0
ARC
8
DEFAULT_255_2_778
10
2.9116809
20
11.2038779
40
3.5326144
50
262.0303451
51
265.8928977
0
ARC
8
DEFAULT_255_2_778
10
2.9147251
20
11.2264045
40
3.5553456
50
258.5792127
51
262.0320927
0
ARC
8
DEFAULT_255_2_778
10
2.9131673
20
11.2192654
40
3.5480392
50
255.7481807
51
258.581042
0
ARC
8
DEFAULT_255_2_778
10
2.900545
20
11.170207
40
3.4973832
50
253.0224208
51
255.7507437
0
ARC
8
DEFAULT_255_2_778
10
2.8757704
20
11.0884973
40
3.4120004
50
251.4854588
51
253.0196645
0
ARC
8
DEFAULT_255_2_778
10
2.8342707
20
10.9657809
40
3.2824574
50
249.2943416
51
251.4921589
0
ARC
8
DEFAULT_255_2_778
10
2.7534109
20
10.7522903
40
3.0541669
50
247.3164575
51
249.2972242
0
ARC
8
DEFAULT_255_2_778
10
2.639638
20
10.48
40
2.7590631
50
245.7303501
51
247.3157546
0
ARC
8
DEFAULT_255_2_778
10
2.485622
20
10.1392239
40
2.385099
50
244.1294063
51
245.7383866
0
ARC
8
DEFAULT_255_2_778
10
2.2737553
20
9.7026803
40
1.8998591
50
242.7201575
51
244.1340005
0
ARC
8
DEFAULT_255_2_778
10
2.0110738
20
9.1939294
40
1.3272955
50
241.4552648
51
242.7325179
0
ARC
8
DEFAULT_255_2_778
10
1.6952086
20
8.6141586
40
0.6670647
50
240.3589785
51
241.4921612
0
ARC
8
DEFAULT_255_2_778
10
1.4375201
20
8.1608913
40
0.145668
50
239.9266105
51
240.279466
0
ARC
8
DEFAULT_255_2_778
10
10.803151
20
2.5426624
40
10.9202381
50
149.8056306
51
151.2764973
0
ARC
8
DEFAULT_255_2_778
10
10.1747595
20
2.8872195
40
10.2035824
50
151.2774213
51
152.7078304
0
ARC
8
DEFAULT_255_2_778
10
9.557989
20
3.2048719
40
9.5098183
50
152.704726
51
154.4455573
0
ARC
8
DEFAULT_255_2_778
10
8.9233371
20
3.5080673
40
8.8064617
50
154.4440393
51
156.3665865
0
ARC
8
DEFAULT_255_2_778
10
8.3368713
20
3.7648751
40
8.1662334
50
156.3677421
51
158.2677579
0
ARC
8
DEFAULT_255_2_778
10
7.7995418
20
3.978856
40
7.5878643
50
158.2663638
51
160.3535355
0
ARC
8
DEFAULT_255_2_778
10
7.2922211
20
4.1599205
40
7.0492005
50
160.3531681
51
162.5594231
0
ARC
8
DEFAULT_255_2_778
10
6.8096446
20
4.3112229
40
6.5434611
50
162.5568895
51
165.0621967
0
ARC
8
DEFAULT_255_2_778
10
6.35915
20
4.4313999
40
6.0772123
50
165.0621173
51
167.6923513
0
ARC
8
DEFAULT_255_2_778
10
5.9458668
20
4.5213584
40
5.654252
50
167.6902756
51
170.6330609
0
ARC
8
DEFAULT_255_2_778
10
5.571222
20
4.583139
40
5.2745474
50
170.6328538
51
173.7722804
0
ARC
8
DEFAULT_255_2_778
10
5.2578278
20
4.617578
40
4.9592668
50
173.7750371
51
176.8500877
0
ARC
8
DEFAULT_255_2_778
10
5.0050256
20
4.6316053
40
4.7060759
50
176.8514884
51
179.9876525
0
ARC
8
DEFAULT_255_2_778
10
4.7461994
20
4.6303972
40
4.4472503
50
179.9713685
51
185.2877138
0
ARC
8
DEFAULT_255_2_778
10
4.5242599
20
4.6101913
40
4.2243929
50
185.2922362
51
191.207205
0
ARC
8
DEFAULT_255_2_778
10
4.4183313
20
4.5898819
40
4.116537
50
191.2164735
51
198.1861599
0
ARC
8
DEFAULT_255_2_778
10
4.465473
20
4.6070267
40
4.166675
50
198.2078209
51
205.8807319
0
ARC
8
DEFAULT_255_2_778
10
4.7074792
20
4.7274103
40
4.4369571
50
205.9152636
51
214.2340551
0
ARC
8
DEFAULT_255_2_778
10
5.1528633
20
5.0329285
40
4.977054
50
214.2573567
51
222.1523388
0
ARC
8
DEFAULT_255_2_778
10
5.6996156
20
5.5254562
40
5.7129337
50
222.1344283
51
228.3117776
0
ARC
8
DEFAULT_255_2_778
10
6.2014906
20
6.0845194
40
6.4642142
50
228.2854733
51
232.7629034
0
ARC
8
DEFAULT_255_2_778
10
6.4917246
20
6.4591991
40
6.9381374
50
232.7270451
51
234.0790392
0
ARC
8
DEFAULT_255_2_778
10
6.7071115
20
6.7593308
40
7.3075529
50
234.0919895
51
236.9232145
0
ARC
8
DEFAULT_255_2_778
10
6.9692578
20
7.1613088
40
7.7874558
50
236.9211672
51
239.5931912
0
ARC
8
DEFAULT_255_2_778
10
7.1586956
20
7.4825814
40
8.1604198
50
239.5877597
51
241.7229872
0
ARC
8
DEFAULT_255_2_778
10
7.2616137
20
7.6730203
40
8.3768892
50
241.7201207
51
243.5684273
0
ARC
8
DEFAULT_255_2_778
10
7.2858036
20
7.7209464
40
8.430573
50
243.5661986
51
245.1537002
0
ARC
8
DEFAULT_255_2_778
10
7.2387591
20
7.6188975
40
8.3182027
50
245.1523953
51
246.4375593
0
ARC
8
DEFAULT_255_2_778
10
7.1374528
20
7.3864102
40
8.0646021
50
246.4370158
51
247.4872509
0
ARC
8
DEFAULT_255_2_778
10
6.9999738
20
7.0547555
40
7.705582
50
247.4873647
51
248.3539631
0
ARC
8
DEFAULT_255_2_778
10
6.8386673
20
6.6483338
40
7.2683198
50
248.3540722
51
249.0754203
0
ARC
8
DEFAULT_255_2_778
10
6.6223163
20
6.0809465
40
6.6610838
50
249.0706638
51
249.967846
0
ARC
8
DEFAULT_255_2_778
10
6.317197
20
5.2431997
40
5.7695024
50
249.9647839
51
250.8225573
0
ARC
8
DEFAULT_255_2_778
10
5.9818956
20
4.2796153
40
4.7492466
50
250.8245072
51
251.4878674
0
ARC
8
DEFAULT_255_2_778
10
5.6089124
20
3.1640205
40
3.5729525
50
251.4794699
51
252.1875312
0
ARC
8
DEFAULT_255_2_778
10
5.1965957
20
1.8805592
40
2.224888
50
252.1859175
51
252.7456933
0
ARC
8
DEFAULT_255_2_778
10
4.7967098
20
0.5916138
40
0.8753367
50
252.7176577
51
253.2010184
0
LINE
8
DEFAULT_255_2_778
10
4.5543246
20
8.0721325
11
4.5440246
21
8.0742325
0
LINE
8
DEFAULT_255_2_778
10
4.5437246
20
-0.2463675
11
4.5543246
21
-0.2482675
0
ARC
8
DEFAULT_255_2_778
10
7.5126909
20
8.4455663
40
0.4558881
50
298.8563044
51
299.9041225
0
ARC
8
DEFAULT_255_2_778
10
7.2058279
20
8.9995837
40
1.0892121
50
297.8512782
51
298.9290995
0
ARC
8
DEFAULT_255_2_778
10
6.9348792
20
9.5121978
40
1.6690278
50
296.4789804
51
297.8540516
0
ARC
8
DEFAULT_255_2_778
10
6.698098
20
9.9869053
40
2.1995111
50
294.9407541
51
296.4863978
0
ARC
8
DEFAULT_255_2_778
10
6.5262054
20
10.3553898
40
2.6061163
50
293.4811719
51
294.9513012
0
ARC
8
DEFAULT_255_2_778
10
6.3998126
20
10.6463448
40
2.9233384
50
291.7202902
51
293.4810951
0
ARC
8
DEFAULT_255_2_778
10
6.3058387
20
10.8819174
40
3.1769632
50
289.7587402
51
291.7224938
0
ARC
8
DEFAULT_255_2_778
10
6.2544879
20
11.0235974
40
3.3276615
50
288.5205607
51
289.7661629
0
ARC
8
DEFAULT_255_2_778
10
6.2200743
20
11.1271506
40
3.4367829
50
286.1470197
51
288.5161946
0
ARC
8
DEFAULT_255_2_778
10
6.1963457
20
11.2086218
40
3.5216392
50
283.5646419
51
286.1492194
0
ARC
8
DEFAULT_255_2_778
10
6.1876024
20
11.244374
40
3.5584449
50
280.5437495
51
283.5664771
0
ARC
8
DEFAULT_255_2_778
10
6.1878365
20
11.242441
40
3.5565016
50
276.9348508
51
280.5457395
0
ARC
8
DEFAULT_255_2_778
10
6.191132
20
11.2146154
40
3.5284817
50
272.9280534
51
276.9362846
0
ARC
8
DEFAULT_255_2_778
10
6.1927621
20
11.1849608
40
3.4987826
50
270.001595
51
272.9262001
0
ARC
8
DEFAULT_255_2_778
10
6.1927132
20
11.1619092
40
3.475731
50
265.3960872
51
270.0024126
0
ARC
8
DEFAULT_255_2_778
10
6.1926632
20
11.1590262
40
3.4728533
50
260.4221464
51
265.3930907
0
ARC
8
DEFAULT_255_2_778
10
6.1996231
20
11.1986229
40
3.5130561
50
255.3644901
51
260.4176707
0
ARC
8
DEFAULT_255_2_778
10
6.2240401
20
11.2909366
40
3.6085438
50
250.3443626
51
255.3597276
0
ARC
8
DEFAULT_255_2_778
10
6.2759695
20
11.4358523
40
3.7624826
50
245.6914136
51
250.3419453
0
ARC
8
DEFAULT_255_2_778
10
6.3439715
20
11.5882632
40
3.9293742
50
242.9066982
51
245.7025978
0
ARC
8
DEFAULT_255_2_778
10
2.7698503
20
11.5429457
40
3.8801663
50
292.7110614
51
297.2100898
0
ARC
8
DEFAULT_255_2_778
10
2.8448381
20
11.363971
40
3.686117
50
287.8021572
51
292.709909
0
ARC
8
DEFAULT_255_2_778
10
2.8860753
20
11.2364315
40
3.5520769
50
282.7876053
51
287.7978029
0
ARC
8
DEFAULT_255_2_778
10
2.9028113
20
11.1639864
40
3.4777242
50
277.7742855
51
282.7828922
0
ARC
8
DEFAULT_255_2_778
10
2.9062346
20
11.1407124
40
3.4542011
50
272.8192204
51
277.7702464
0
ARC
8
DEFAULT_255_2_778
10
2.9058095
20
11.1500863
40
3.4635845
50
269.9989264
51
272.8186161
0
ARC
8
DEFAULT_255_2_778
10
2.905941
20
11.1738869
40
3.4873852
50
265.8721445
51
269.9967744
0
ARC
8
DEFAULT_255_2_778
10
2.9084364
20
11.2086338
40
3.5222217
50
261.9910193
51
265.8723436
0
ARC
8
DEFAULT_255_2_778
10
2.91153
20
11.2313287
40
3.5451262
50
258.5229877
51
261.9926127
0
ARC
8
DEFAULT_255_2_778
10
2.9101347
20
11.2250762
40
3.5387211
50
255.6788634
51
258.5249842
0
ARC
8
DEFAULT_255_2_778
10
2.8976968
20
11.17701
40
3.4890718
50
252.9408553
51
255.6815223
0
ARC
8
DEFAULT_255_2_778
10
2.873345
20
11.0971039
40
3.4055377
50
251.3976134
51
252.9381495
0
ARC
8
DEFAULT_255_2_778
10
2.8318872
20
10.9750802
40
3.2766641
50
249.1972322
51
251.4040225
0
ARC
8
DEFAULT_255_2_778
10
2.7510469
20
10.7627509
40
3.0494663
50
247.2116411
51
249.2002568
0
ARC
8
DEFAULT_255_2_778
10
2.6376434
20
10.4927233
40
2.7565921
50
245.6200337
51
247.2108533
0
ARC
8
DEFAULT_255_2_778
10
2.48278
20
10.1518172
40
2.3821598
50
244.0128617
51
245.6280347
0
ARC
8
DEFAULT_255_2_778
10
2.2710496
20
9.7178123
40
1.8992623
50
242.5994284
51
244.0175437
0
ARC
8
DEFAULT_255_2_778
10
2.0078146
20
9.2105749
40
1.3277885
50
241.3306411
51
242.610988
0
ARC
8
DEFAULT_255_2_778
10
1.6902955
20
8.6307439
40
0.6667121
50
240.2293239
51
241.3663648
0
ARC
8
DEFAULT_255_2_778
10
1.4333886
20
8.1812037
40
0.1489407
50
239.8024723
51
240.1485862
0
ARC
8
DEFAULT_255_2_778
10
10.3254571
20
2.8238519
40
10.3800425
50
149.7536581
51
153.3353857
0
ARC
8
DEFAULT_255_2_778
10
8.9142948
20
3.5312392
40
8.801507
50
153.3280458
51
157.4474371
0
ARC
8
DEFAULT_255_2_778
10
7.6628994
20
4.0493439
40
7.4470994
50
157.4361695
51
162.3222301
0
ARC
8
DEFAULT_255_2_778
10
6.5878801
20
4.3910713
40
6.3190731
50
162.3144939
51
167.9829151
0
ARC
8
DEFAULT_255_2_778
10
5.7119083
20
4.5768291
40
5.4236225
50
167.9755912
51
174.6478074
0
ARC
8
DEFAULT_255_2_778
10
5.3700785
20
4.6158478
40
5.0796481
50
174.726353
51
174.9467095
0
ARC
8
DEFAULT_255_2_778
10
3.4110038
20
4.5797857
40
5.3981657
50
5.1386064
51
11.9092253
0
ARC
8
DEFAULT_255_2_778
10
2.5304624
20
4.3948342
40
6.2979212
50
11.902498
51
17.6601782
0
ARC
8
DEFAULT_255_2_778
10
1.4456521
20
4.0506842
40
7.4360124
50
17.6511731
51
22.5684275
0
ARC
8
DEFAULT_255_2_778
10
0.2033262
20
3.5368167
40
8.7804189
50
22.5536046
51
26.5749877
0
ARC
8
DEFAULT_255_2_778
10
-1.2135233
20
2.8284509
40
10.3644785
50
26.5731782
51
30.2555638
0
LINE
8
DEFAULT_255_2_778
10
4.554374
20
8.0900747
11
4.544074
21
8.0921747
0
LINE
8
DEFAULT_255_2_778
10
0.310174
20
5.0632747
11
8.787474
21
5.0632747
0
LINE
8
DEFAULT_255_2_778
10
7.739174
20
8.0506747
11
7.739974
21
8.0503747
0
ARC
8
DEFAULT_255_2_778
10
4.9708966
20
4.6422501
40
4.6804006
50
178.454934
51
179.2261672
0
ARC
8
DEFAULT_255_2_778
10
4.9221511
20
4.6428954
40
4.6316508
50
179.2260047
51
179.9994676
0
ARC
8
DEFAULT_255_2_778
10
4.7269767
20
4.6400683
40
4.4364775
50
179.9629328
51
186.0826626
0
ARC
8
DEFAULT_255_2_778
10
4.4927557
20
4.6157287
40
4.200996
50
186.0910672
51
192.8941087
0
ARC
8
DEFAULT_255_2_778
10
4.4152376
20
4.5992487
40
4.1217554
50
192.9112585
51
200.9082212
0
ARC
8
DEFAULT_255_2_778
10
4.5453598
20
4.6519473
40
4.2621169
50
200.9457488
51
209.9238331
0
ARC
8
DEFAULT_255_2_778
10
4.9305903
20
4.8779895
40
4.7087543
50
209.9693017
51
219.1385871
0
ARC
8
DEFAULT_255_2_778
10
5.4998408
20
5.340218
40
5.4420351
50
219.1302114
51
226.5183767
0
ARC
8
DEFAULT_255_2_778
10
6.0768098
20
5.9438147
40
6.2770277
50
226.4882751
51
231.9426916
0
ARC
8
DEFAULT_255_2_778
10
6.4550143
20
6.4176463
40
6.8832665
50
231.8952197
51
234.0808999
0
ARC
8
DEFAULT_255_2_778
10
6.7464792
20
6.8234837
40
7.3829183
50
234.0967296
51
237.586878
0
ARC
8
DEFAULT_255_2_778
10
7.0372266
20
7.279034
40
7.9233429
50
237.5777209
51
240.3689787
0
ARC
8
DEFAULT_255_2_778
10
7.2156494
20
7.590954
40
8.2826867
50
240.3629407
51
242.6156413
0
ARC
8
DEFAULT_255_2_778
10
7.2891777
20
7.7316982
40
8.4414789
50
242.6118918
51
244.3924515
0
ARC
8
DEFAULT_255_2_778
10
7.2763502
20
7.7042609
40
8.4111926
50
244.3904696
51
245.8192406
0
ARC
8
DEFAULT_255_2_778
10
7.1862029
20
7.5025616
40
8.1902649
50
245.8165691
51
247.255322
0
ARC
8
DEFAULT_255_2_778
10
7.0404069
20
7.1555137
40
7.813836
50
247.2573818
51
248.1623616
0
ARC
8
DEFAULT_255_2_778
10
6.8404023
20
6.6547749
40
7.2746322
50
248.1575494
51
249.2714972
0
ARC
8
DEFAULT_255_2_778
10
6.5472735
20
5.8795867
40
6.4458733
50
249.2695751
51
250.2545784
0
ARC
8
DEFAULT_255_2_778
10
6.2059058
20
4.9284638
40
5.4353453
50
250.2542356
51
251.0800605
0
ARC
8
DEFAULT_255_2_778
10
5.8685307
20
3.9450644
40
4.3956837
50
251.0837583
51
251.6728907
0
ARC
8
DEFAULT_255_2_778
10
5.4722663
20
2.7453334
40
3.132205
50
251.6531201
51
252.434999
0
ARC
8
DEFAULT_255_2_778
10
4.9500042
20
1.092876
40
1.3991811
50
252.4030843
51
253.0989404
0
ARC
8
DEFAULT_255_2_778
10
4.5907004
20
-0.0884891
40
0.1643849
50
253.2169127
51
253.3127517
0
ARC
8
DEFAULT_255_2_778
10
4.2219479
20
0.8480591
40
1.1452432
50
286.8438046
51
287.4826535
0
ARC
8
DEFAULT_255_2_778
10
3.7299239
20
2.4165886
40
2.7891321
50
287.4432823
51
288.1484845
0
ARC
8
DEFAULT_255_2_778
10
3.3057561
20
3.713473
40
4.1536201
50
288.1362358
51
288.836582
0
ARC
8
DEFAULT_255_2_778
10
2.9580784
20
4.73413
40
5.2318689
50
288.8312996
51
289.5219712
0
ARC
8
DEFAULT_255_2_778
10
2.6788583
20
5.5224908
40
6.068216
50
289.5193608
51
290.1993166
0
ARC
8
DEFAULT_255_2_778
10
2.4054671
20
6.2641835
40
6.8586909
50
290.2033267
51
291.2152256
0
ARC
8
DEFAULT_255_2_778
10
2.1496039
20
6.9238658
40
7.5662549
50
291.2137264
51
292.3615195
0
ARC
8
DEFAULT_255_2_778
10
1.961922
20
7.3808495
40
8.0602777
50
292.3594536
51
293.6179149
0
ARC
8
DEFAULT_255_2_778
10
1.8445342
20
7.6498524
40
8.353778
50
293.6164265
51
295.1080574
0
ARC
8
DEFAULT_255_2_778
10
1.8038532
20
7.737425
40
8.4503378
50
295.1058715
51
296.7531491
0
ARC
8
DEFAULT_255_2_778
10
1.843225
20
7.6601818
40
8.36364
50
296.7505022
51
298.7095608
0
ARC
8
DEFAULT_255_2_778
10
1.9730611
20
7.4244609
40
8.0945276
50
298.7050193
51
301.1550564
0
ARC
8
DEFAULT_255_2_778
10
2.2119588
20
7.0314847
40
7.6346354
50
301.1465532
51
304.3217836
0
ARC
8
DEFAULT_255_2_778
10
2.4491613
20
6.6806604
40
7.2111512
50
304.3369362
51
305.9272908
0
ARC
8
DEFAULT_255_2_778
10
2.7700914
20
6.2458093
40
6.6707187
50
305.8867099
51
310.6978871
0
ARC
8
DEFAULT_255_2_778
10
3.3239809
20
5.6068149
40
5.8250856
50
310.6657565
51
317.3607153
0
ARC
8
DEFAULT_255_2_778
10
3.9346448
20
5.0473861
40
4.9969154
50
317.3364339
51
326.095017
0
ARC
8
DEFAULT_255_2_778
10
4.4232888
20
4.7161374
40
4.406583
50
326.1255773
51
335.5204499
0
ARC
8
DEFAULT_255_2_778
10
4.6577382
20
4.6056187
40
4.1474146
50
335.5679127
51
344.083866
0
ARC
8
DEFAULT_255_2_778
10
4.6530761
20
4.6049912
40
4.1517261
50
344.1098382
51
351.5522914
0
ARC
8
DEFAULT_255_2_778
10
4.4692325
20
4.6315609
40
4.3374782
50
351.561887
51
357.9316814
0
ARC
8
DEFAULT_255_2_778
10
4.2630813
20
4.6413053
40
4.5438475
50
357.9027064
51
0.004777
0
ARC
8
DEFAULT_255_2_778
10
4.1742726
20
4.6416234
40
4.6326561
50
0.0007513
51
0.7817465
0
ARC
8
DEFAULT_255_2_778
10
4.1189777
20
4.640867
40
4.6879563
50
0.7817695
51
1.5594853
0
LINE
8
DEFAULT_255_2_778
10
8.8053977
20
4.7684488
11
0.2921977
21
4.7684488
0
LINE
8
DEFAULT_255_2_778
10
4.5434977
20
-0.2459512
11
4.5537977
21
-0.2480512
0
LINE
8
DEFAULT_255_2_778
10
8.8051977
20
4.7684488
11
8.8053977
21
4.7684488
0
ARC
8
DEFAULT_255_2_778
10
2.2137224
20
5.9108356
40
0.2892276
50
290.5994768
51
295.8833738
0
ARC
8
DEFAULT_255_2_778
10
2.0971389
20
6.2388331
40
0.6373027
50
280.2641721
51
290.035697
0
ARC
8
DEFAULT_255_2_778
10
2.0192261
20
6.6383968
40
1.0443695
50
271.1998371
51
280.5642044
0
ARC
8
DEFAULT_255_2_778
10
2.0132185
20
6.755997
40
1.1620749
50
269.9982044
51
271.3745634
0
ARC
8
DEFAULT_255_2_778
10
2.0031788
20
6.4266399
40
0.8327779
50
252.174385
51
270.6882469
0
ARC
8
DEFAULT_255_2_778
10
1.9229981
20
6.1786554
40
0.5721537
50
185.2605648
51
252.2162656
0
ARC
8
DEFAULT_255_2_778
10
2.1564512
20
6.2307254
40
0.80997
50
179.9153506
51
187.4147952
0
ARC
8
DEFAULT_255_2_778
10
2.0903737
20
6.2413274
40
0.7439511
50
158.1116098
51
180.7243772
0
ARC
8
DEFAULT_255_2_778
10
1.9891906
20
6.2620707
40
0.6425945
50
92.5335162
51
156.4642691
0
ARC
8
DEFAULT_255_2_778
10
2.0405213
20
6.0190875
40
0.8885346
50
89.9702899
51
95.1485663
0
ARC
8
DEFAULT_255_2_778
10
2.0451347
20
5.9170321
40
0.9905986
50
80.0929966
51
90.2401886
0
ARC
8
DEFAULT_255_2_778
10
2.1127665
20
6.28764
40
0.6138876
50
69.4400165
51
80.3599604
0
ARC
8
DEFAULT_255_2_778
10
2.1984578
20
6.5294532
40
0.3574137
50
66.6504937
51
68.6883786
0
ARC
8
DEFAULT_255_2_778
10
2.2286607
20
6.5988602
40
0.2817204
50
63.5185349
51
66.6953725
0
ARC
8
DEFAULT_255_2_778
10
2.058046
20
6.046139
40
0.6233944
50
67.5822075
51
89.9999249
0
ARC
8
DEFAULT_255_2_778
10
2.0580145
20
6.0585725
40
0.6109609
50
89.996977
51
90.3500318
0
ARC
8
DEFAULT_255_2_778
10
2.0270128
20
6.2978267
40
0.3726943
50
85.8040341
51
162.6720237
0
ARC
8
DEFAULT_255_2_778
10
2.1845463
20
6.2548926
40
0.5358986
50
163.306513
51
180.6490517
0
ARC
8
DEFAULT_255_2_778
10
2.1185193
20
6.2369793
40
0.4699864
50
178.5561058
51
207.764287
0
ARC
8
DEFAULT_255_2_778
10
2.0139822
20
6.1959007
40
0.3585614
50
209.7377649
51
264.6421221
0
ARC
8
DEFAULT_255_2_778
10
2.0547959
20
6.3899927
40
0.5560723
50
262.3219495
51
270.1325188
0
ARC
8
DEFAULT_255_2_778
10
2.0564086
20
6.5434184
40
0.7094965
50
269.9736291
51
289.7176321
0
ARC
8
DEFAULT_255_2_778
10
4.045819
20
6.2534965
40
0.8226291
50
340.5795878
51
0.7261499
0
ARC
8
DEFAULT_255_2_778
10
4.2844637
20
6.1686862
40
0.5693635
50
272.6025148
51
340.6436178
0
ARC
8
DEFAULT_255_2_778
10
4.2439118
20
6.3892278
40
0.792106
50
269.9616852
51
274.80894
0
ARC
8
DEFAULT_255_2_778
10
4.2340976
20
6.2084479
40
0.6113964
50
243.0217063
51
270.8701075
0
ARC
8
DEFAULT_255_2_778
10
4.2430954
20
6.180628
40
0.591046
50
187.9722811
51
241.0205386
0
ARC
8
DEFAULT_255_2_778
10
4.4772199
20
6.2428008
40
0.8320397
50
179.8814707
51
189.9765867
0
ARC
8
DEFAULT_255_2_778
10
4.3974421
20
6.254937
40
0.7523321
50
153.0242285
51
180.7932041
0
ARC
8
DEFAULT_255_2_778
10
4.2414977
20
6.3311987
40
0.5787681
50
93.888165
51
152.7495917
0
ARC
8
DEFAULT_255_2_778
10
4.2641734
20
6.1966297
40
0.7146924
50
89.9672358
51
94.9703776
0
ARC
8
DEFAULT_255_2_778
10
4.2735109
20
6.2824966
40
0.6288888
50
65.1591867
51
90.8134971
0
ARC
8
DEFAULT_255_2_778
10
4.26134
20
6.3159416
40
0.6041726
50
2.6998
51
62.7786528
0
ARC
8
DEFAULT_255_2_778
10
4.0418368
20
6.2679831
40
0.8265453
50
359.9749718
51
5.3047609
0
ARC
8
DEFAULT_255_2_778
10
4.5515994
20
6.2363491
40
0.6028154
50
178.9665092
51
201.4314605
0
ARC
8
DEFAULT_255_2_778
10
4.2603872
20
6.1072006
40
0.2848848
50
198.6522698
51
269.6168323
0
ARC
8
DEFAULT_255_2_778
10
4.2508148
20
6.1101842
40
0.2879643
50
271.5257259
51
345.4830466
0
ARC
8
DEFAULT_255_2_778
10
3.9203874
20
6.2460725
40
0.6437515
50
341.1424281
51
0.760955
0
ARC
8
DEFAULT_255_2_778
10
4.0033661
20
6.2671266
40
0.5608554
50
358.7224563
51
27.919449
0
ARC
8
DEFAULT_255_2_778
10
4.2555819
20
6.4069377
40
0.2725864
50
26.7752658
51
89.76876
0
ARC
8
DEFAULT_255_2_778
10
4.2639264
20
6.3892344
40
0.290378
50
91.42955
51
166.0418644
0
ARC
8
DEFAULT_255_2_778
10
4.5953499
20
6.2554332
40
0.6462199
50
161.6125742
51
180.7280465
0
ARC
8
DEFAULT_255_2_778
10
6.0657355
20
6.1432431
40
0.5804649
50
178.8767523
51
195.4639423
0
ARC
8
DEFAULT_255_2_778
10
5.7072015
20
6.0289229
40
0.2049486
50
191.3830878
51
272.1756842
0
ARC
8
DEFAULT_255_2_778
10
5.7251529
20
6.033421
40
0.209546
50
267.2179055
51
351.4617379
0
ARC
8
DEFAULT_255_2_778
10
5.3391089
20
6.1448521
40
0.6101515
50
346.4898253
51
0.9174721
0
ARC
8
DEFAULT_255_2_778
10
5.3800237
20
6.1624323
40
0.8563355
50
345.0859755
51
0.7687754
0
ARC
8
DEFAULT_255_2_778
10
5.7579975
20
6.0551789
40
0.4635343
50
310.8603042
51
345.8723301
0
ARC
8
DEFAULT_255_2_778
10
5.7532798
20
6.0925937
40
0.4953593
50
274.4455057
51
308.4410982
0
ARC
8
DEFAULT_255_2_778
10
5.7073533
20
6.3857694
40
0.7915488
50
269.8862701
51
276.1152214
0
ARC
8
DEFAULT_255_2_778
10
5.6911165
20
6.1868038
40
0.5927633
50
246.9773887
51
271.4177035
0
ARC
8
DEFAULT_255_2_778
10
5.6316319
20
6.0159376
40
0.4124192
50
197.0700918
51
245.2991774
0
ARC
8
DEFAULT_255_2_778
10
5.9896767
20
6.1437642
40
0.7923977
50
182.3054184
51
198.3062303
0
ARC
8
DEFAULT_255_2_778
10
6.3941371
20
6.1764056
40
1.1979554
50
179.9561685
51
183.0871917
0
ARC
8
DEFAULT_255_2_778
10
6.943742
20
4.7860773
40
2.1079863
50
92.558807
51
98.6616219
0
ARC
8
DEFAULT_255_2_778
10
7.013017
20
3.6073528
40
3.2886701
50
89.9622796
51
92.8477034
0
ARC
8
DEFAULT_255_2_778
10
7.0278847
20
5.5034156
40
1.3926643
50
81.3945683
51
90.5226071
0
ARC
8
DEFAULT_255_2_778
10
7.1375093
20
6.1893666
40
0.6980562
50
61.7006299
51
81.8667119
0
ARC
8
DEFAULT_255_2_778
10
7.1885771
20
6.3010518
40
0.5755645
50
52.8850301
51
60.9058959
0
ARC
8
DEFAULT_255_2_778
10
7.2297306
20
6.3486698
40
0.5127762
50
13.3596099
51
53.3413013
0
ARC
8
DEFAULT_255_2_778
10
6.9999046
20
6.2864248
40
0.7508023
50
359.5342787
51
13.92865
0
ARC
8
DEFAULT_255_2_778
10
6.947067
20
6.2718927
40
0.8036593
50
343.1221714
51
0.6009665
0
ARC
8
DEFAULT_255_2_778
10
7.126082
20
6.2202206
40
0.6173582
50
313.8468739
51
342.8876123
0
ARC
8
DEFAULT_255_2_778
10
7.0969362
20
6.2486322
40
0.6580401
50
312.2737056
51
313.9633824
0
ARC
8
DEFAULT_255_2_778
10
7.1221686
20
6.2897295
40
0.673072
50
283.141635
51
308.3279446
0
ARC
8
DEFAULT_255_2_778
10
6.9722842
20
6.8724065
40
1.2746379
50
270.1362847
51
283.7476776
0
ARC
8
DEFAULT_255_2_778
10
6.9525312
20
7.3258921
40
1.7282701
50
269.9983722
51
270.7553902
0
ARC
8
DEFAULT_255_2_778
10
6.9334987
20
8.1864379
40
2.5888855
50
270.0000372
51
270.4201341
0
ARC
8
DEFAULT_255_2_778
10
6.9323602
20
8.1257198
40
2.5281675
50
263.0326032
51
270.0258381
0
ARC
8
DEFAULT_255_2_778
10
6.9815745
20
6.220331
40
0.394141
50
260.3023845
51
271.2822201
0
ARC
8
DEFAULT_255_2_778
10
7.0111581
20
8.9414403
40
3.115221
50
269.6181043
51
270.0740104
0
ARC
8
DEFAULT_255_2_778
10
7.0200157
20
6.5215653
40
0.6953601
50
269.6017211
51
269.999569
0
ARC
8
DEFAULT_255_2_778
10
7.0342388
20
6.3028654
40
0.4768724
50
268.2902213
51
298.1734906
0
ARC
8
DEFAULT_255_2_778
10
7.0783304
20
6.1905989
40
0.3573692
50
300.4407963
51
347.7183775
0
ARC
8
DEFAULT_255_2_778
10
6.8134497
20
6.2651619
40
0.6322643
50
346.2218958
51
0.5763634
0
ARC
8
DEFAULT_255_2_778
10
6.7787823
20
6.2760542
40
0.6669151
50
359.6106292
51
0.0019902
0
ARC
8
DEFAULT_255_2_778
10
6.9713414
20
6.2872734
40
0.4744884
50
358.6479296
51
24.4048918
0
ARC
8
DEFAULT_255_2_778
10
7.0917585
20
6.3277582
40
0.3483417
50
26.5250046
51
87.1543023
0
ARC
8
DEFAULT_255_2_778
10
7.0465426
20
6.0945564
40
0.5844664
50
83.8603628
51
90.0941587
0
ARC
8
DEFAULT_255_2_778
10
7.031895
20
6.0804895
40
0.598689
50
88.6900008
51
89.9449605
0
LINE
8
DEFAULT_255_2_778
10
7.0324701
20
6.6791783
11
7.0318789
21
6.6791786
0
ARC
8
DEFAULT_255_2_778
10
7.0323002
20
6.0642865
40
0.6148922
50
90.0392557
51
100.9801789
0
ARC
8
DEFAULT_255_2_778
10
3.9643012
20
2.1010342
40
1.5570312
50
94.2806239
51
105.0956291
0
ARC
8
DEFAULT_255_2_778
10
3.8351275
20
2.5719339
40
1.0687424
50
104.9841473
51
120.439295
0
ARC
8
DEFAULT_255_2_778
10
3.7019654
20
2.7982615
40
0.806147
50
120.4290173
51
145.2443402
0
ARC
8
DEFAULT_255_2_778
10
3.725278
20
2.7910173
40
0.8294627
50
145.7512367
51
167.7562688
0
ARC
8
DEFAULT_255_2_778
10
3.4478107
20
2.4596053
40
0.7264269
50
103.1260143
51
135.703406
0
ARC
8
DEFAULT_255_2_778
10
3.5268986
20
2.147506
40
1.0483503
50
89.536348
51
103.4619103
0
ARC
8
DEFAULT_255_2_778
10
3.5603347
20
2.3425662
40
0.8536206
50
24.9571277
51
91.675084
0
ARC
8
DEFAULT_255_2_778
10
3.4167804
20
2.2894648
40
1.0062528
50
4.1354611
51
24.2494469
0
ARC
8
DEFAULT_255_2_778
10
3.1901004
20
2.2631258
40
1.2342819
50
359.9626877
51
4.5961133
0
ARC
8
DEFAULT_255_2_778
10
3.3901109
20
2.2548726
40
1.034298
50
320.7563401
51
0.4126686
0
ARC
8
DEFAULT_255_2_778
10
3.407333
20
2.2503801
40
1.0181451
50
283.7398031
51
320.3390164
0
ARC
8
DEFAULT_255_2_778
10
3.3707615
20
2.3823464
40
1.1550287
50
269.8422832
51
283.9472192
0
ARC
8
DEFAULT_255_2_778
10
3.3579531
20
2.5174228
40
1.2901367
50
254.6567444
51
270.4276318
0
ARC
8
DEFAULT_255_2_778
10
3.2794091
20
2.2345744
40
0.996587
50
225.9845573
51
254.7086321
0
ARC
8
DEFAULT_255_2_778
10
3.4104088
20
2.3364398
40
1.1611056
50
192.8125963
51
224.8284379
0
ARC
8
DEFAULT_255_2_778
10
3.889279
20
2.4698727
40
1.6578154
50
179.7287186
51
193.6391464
0
ARC
8
DEFAULT_255_2_778
10
4.2325969
20
2.4851668
40
2.0011287
50
165.3312638
51
180.2131565
0
ARC
8
DEFAULT_255_2_778
10
3.9202091
20
2.5692437
40
1.6776336
50
146.63231
51
165.4074423
0
ARC
8
DEFAULT_255_2_778
10
3.7237323
20
2.6937829
40
1.4450521
50
133.017734
51
146.4715611
0
ARC
8
DEFAULT_255_2_778
10
3.7989207
20
2.571941
40
1.5856812
50
102.5374453
51
132.0005267
0
ARC
8
DEFAULT_255_2_778
10
3.9361871
20
2.0329191
40
2.1417146
50
92.483525
51
102.9917999
0
ARC
8
DEFAULT_255_2_778
10
4.0111732
20
2.2280949
40
1.9517529
50
90.9846825
51
94.931773
0
ARC
8
DEFAULT_255_2_778
10
4.0103479
20
2.2588078
40
1.9210303
50
90.0011025
51
90.9758134
0
ARC
8
DEFAULT_255_2_778
10
4.0104727
20
2.285285
40
1.8945531
50
86.9316741
51
90.0048939
0
ARC
8
DEFAULT_255_2_778
10
3.3519576
20
2.0843955
40
0.3634453
50
271.138987
51
343.4903682
0
ARC
8
DEFAULT_255_2_778
10
3.0450194
20
2.2192186
40
0.6973109
50
340.0339854
51
0.6740641
0
ARC
8
DEFAULT_255_2_778
10
3.1767207
20
2.2435463
40
0.5657912
50
358.3669286
51
33.9874217
0
ARC
8
DEFAULT_255_2_778
10
3.3361002
20
2.3372633
40
0.3814211
50
35.6984048
51
85.457422
0
ARC
8
DEFAULT_255_2_778
10
3.315821
20
2.2162081
40
0.5038142
50
84.248688
51
90.0612926
0
ARC
8
DEFAULT_255_2_778
10
3.3160883
20
2.2835911
40
0.4364316
50
90.1058461
51
155.5222702
0
ARC
8
DEFAULT_255_2_778
10
3.1766125
20
2.3514462
40
0.2814046
50
156.3298141
51
177.4600185
0
ARC
8
DEFAULT_255_2_778
10
3.6967505
20
2.3004491
40
0.8037757
50
175.4710804
51
180.2442932
0
ARC
8
DEFAULT_255_2_778
10
3.6868205
20
2.3139065
40
0.794018
50
181.2184612
51
208.399996
0
ARC
8
DEFAULT_255_2_778
10
3.3475806
20
2.1268909
40
0.4066692
50
207.9551636
51
270.5081655
0
ARC
8
DEFAULT_255_2_778
10
3.355203
20
2.2304924
40
0.5102704
50
269.5491025
51
269.9976506
0
ARC
8
DEFAULT_255_2_778
10
6.4117012
20
2.1010342
40
1.5570312
50
94.2806239
51
105.0956291
0
ARC
8
DEFAULT_255_2_778
10
6.2825275
20
2.5719339
40
1.0687424
50
104.9841473
51
120.439295
0
ARC
8
DEFAULT_255_2_778
10
6.1493654
20
2.7982615
40
0.806147
50
120.4290173
51
145.2443402
0
ARC
8
DEFAULT_255_2_778
10
6.172678
20
2.7910173
40
0.8294627
50
145.7512367
51
167.7562688
0
ARC
8
DEFAULT_255_2_778
10
5.8952107
20
2.4596053
40
0.7264269
50
103.1260143
51
135.703406
0
ARC
8
DEFAULT_255_2_778
10
5.9742986
20
2.147506
40
1.0483503
50
89.536348
51
103.4619103
0
ARC
8
DEFAULT_255_2_778
10
6.0076875
20
2.3425224
40
0.853663
50
24.9109308
51
91.6718276
0
ARC
8
DEFAULT_255_2_778
10
5.8639469
20
2.2893736
40
1.006493
50
4.1300794
51
24.2083982
0
ARC
8
DEFAULT_255_2_778
10
5.6377246
20
2.2631236
40
1.2340579
50
359.9627829
51
4.589222
0
ARC
8
DEFAULT_255_2_778
10
5.8375109
20
2.2548726
40
1.034298
50
320.7563401
51
0.4126686
0
ARC
8
DEFAULT_255_2_778
10
5.854733
20
2.2503801
40
1.0181451
50
283.7398031
51
320.3390164
0
ARC
8
DEFAULT_255_2_778
10
5.8181615
20
2.3823464
40
1.1550287
50
269.8422832
51
283.9472192
0
ARC
8
DEFAULT_255_2_778
10
5.8053127
20
2.5186689
40
1.2913831
50
254.6641476
51
270.4290129
0
ARC
8
DEFAULT_255_2_778
10
5.7264409
20
2.2344371
40
0.9964127
50
226.1496512
51
254.7153634
0
ARC
8
DEFAULT_255_2_778
10
5.8560822
20
2.3353041
40
1.1592062
50
192.8317533
51
224.9824728
0
ARC
8
DEFAULT_255_2_778
10
6.3378205
20
2.4697913
40
1.6589574
50
179.7260932
51
193.665505
0
ARC
8
DEFAULT_255_2_778
10
6.6799969
20
2.4851668
40
2.0011287
50
165.3312638
51
180.2131565
0
ARC
8
DEFAULT_255_2_778
10
6.3676091
20
2.5692437
40
1.6776336
50
146.63231
51
165.4074423
0
ARC
8
DEFAULT_255_2_778
10
6.1711323
20
2.6937829
40
1.4450521
50
133.017734
51
146.4715611
0
ARC
8
DEFAULT_255_2_778
10
6.2463207
20
2.571941
40
1.5856812
50
102.5374453
51
132.0005267
0
ARC
8
DEFAULT_255_2_778
10
6.3835871
20
2.0329191
40
2.1417146
50
92.483525
51
102.9917999
0
ARC
8
DEFAULT_255_2_778
10
6.4579563
20
2.2400051
40
1.9398339
50
90.1815391
51
94.9438646
0
ARC
8
DEFAULT_255_2_778
10
6.4576308
20
2.2547557
40
1.9250823
50
90.0000002
51
90.1732416
0
ARC
8
DEFAULT_255_2_778
10
6.4578205
20
2.283341
40
1.8964971
50
86.9332436
51
90.0057321
0
ARC
8
DEFAULT_255_2_778
10
5.7993576
20
2.0843955
40
0.3634453
50
271.138987
51
343.4903682
0
ARC
8
DEFAULT_255_2_778
10
5.4924194
20
2.2192186
40
0.6973109
50
340.0339854
51
0.6740641
0
ARC
8
DEFAULT_255_2_778
10
5.6241207
20
2.2435463
40
0.5657912
50
358.3669286
51
33.9874217
0
ARC
8
DEFAULT_255_2_778
10
5.7835002
20
2.3372633
40
0.3814211
50
35.6984048
51
85.457422
0
ARC
8
DEFAULT_255_2_778
10
5.763221
20
2.2162081
40
0.5038142
50
84.248688
51
90.0612926
0
ARC
8
DEFAULT_255_2_778
10
5.7634883
20
2.2835911
40
0.4364316
50
90.1058461
51
155.5222702
0
ARC
8
DEFAULT_255_2_778
10
5.618116
20
2.3526535
40
0.2755223
50
156.0674666
51
177.6570475
0
ARC
8
DEFAULT_255_2_778
10
6.159901
20
2.3005976
40
0.8195267
50
175.5687161
51
180.2499816
0
ARC
8
DEFAULT_255_2_778
10
6.1342205
20
2.3139065
40
0.794018
50
181.2184612
51
208.399996
0
ARC
8
DEFAULT_255_2_778
10
5.7949806
20
2.1268909
40
0.4066692
50
207.9551636
51
270.5081655
0
ARC
8
DEFAULT_255_2_778
10
5.802603
20
2.2304924
40
0.5102704
50
269.5491025
51
269.9976506
0
LINE
8
DEFAULT_255_2_778
10
2.3542821
20
6.851022
11
2.2957821
21
6.622422
0
LINE
8
DEFAULT_255_2_778
10
2.2957821
20
5.875522
11
2.3399821
21
5.650622
0
LINE
8
DEFAULT_255_2_778
10
2.6733821
20
6.887022
11
2.9622821
21
6.887022
0
LINE
8
DEFAULT_255_2_778
10
2.9622821
20
6.887022
11
2.9622821
21
5.856422
0
LINE
8
DEFAULT_255_2_778
10
2.9622821
20
5.856422
11
3.4678821
21
5.856422
0
LINE
8
DEFAULT_255_2_778
10
3.4678821
20
5.856422
11
3.4678821
21
5.614822
0
LINE
8
DEFAULT_255_2_778
10
3.4678821
20
5.614822
11
2.6696821
21
5.614822
0
LINE
8
DEFAULT_255_2_778
10
2.6696821
20
5.614822
11
2.6733821
21
6.887022
0
LINE
8
DEFAULT_255_2_778
10
4.8683821
20
6.267622
11
4.8683821
21
6.263922
0
LINE
8
DEFAULT_255_2_778
10
3.9491821
20
6.247222
11
3.9488821
21
6.247222
0
LINE
8
DEFAULT_255_2_778
10
5.4853821
20
6.887022
11
5.4853821
21
6.154622
0
LINE
8
DEFAULT_255_2_778
10
5.9491821
20
6.154622
11
5.9491821
21
6.887222
0
LINE
8
DEFAULT_255_2_778
10
5.9491821
20
6.887222
11
6.2362821
21
6.887222
0
LINE
8
DEFAULT_255_2_778
10
6.2362821
20
6.887222
11
6.2362821
21
6.173922
0
LINE
8
DEFAULT_255_2_778
10
5.1961821
20
6.177322
11
5.1961821
21
6.887222
0
LINE
8
DEFAULT_255_2_778
10
5.1961821
20
6.887222
11
5.4853821
21
6.887022
0
LINE
8
DEFAULT_255_2_778
10
6.6256821
20
5.616222
11
6.6262821
21
6.870022
0
LINE
8
DEFAULT_255_2_778
10
6.9151821
20
6.667922
11
6.9151821
21
5.831822
0
LINE
8
DEFAULT_255_2_778
10
4.1073821
20
3.662722
11
3.8480821
21
3.653722
0
LINE
8
DEFAULT_255_2_778
10
2.9146821
20
2.966922
11
2.9278821
21
2.966922
0
LINE
8
DEFAULT_255_2_778
10
4.1118821
20
4.177122
11
4.1073821
21
3.662722
0
LINE
8
DEFAULT_255_2_778
10
3.3551821
20
1.720222
11
3.3591821
21
1.721022
0
LINE
8
DEFAULT_255_2_778
10
6.5547821
20
3.662722
11
6.2954821
21
3.653722
0
LINE
8
DEFAULT_255_2_778
10
5.3620821
20
2.966922
11
5.3752821
21
2.966922
0
LINE
8
DEFAULT_255_2_778
10
6.5592821
20
4.177122
11
6.5547821
21
3.662722
0
LINE
8
DEFAULT_255_2_778
10
5.8025821
20
1.720222
11
5.8065821
21
1.721022
0
ARC
8
DEFAULT_255_2_778
10
11.0625601
20
3.6132201
40
0.4342324
50
188.2853351
51
236.789276
0
ARC
8
DEFAULT_255_2_778
10
11.2203186
20
3.8023171
40
0.6794445
50
234.3921355
51
238.0588572
0
ARC
8
DEFAULT_255_2_778
10
11.3027138
20
3.9530624
40
0.8510135
50
238.7207938
51
266.3512574
0
ARC
8
DEFAULT_255_2_778
10
11.3415942
20
4.2627256
40
1.1626802
50
265.4102429
51
270.0525181
0
ARC
8
DEFAULT_255_2_778
10
11.3551429
20
4.1718505
40
1.0718772
50
269.3327242
51
283.8264155
0
ARC
8
DEFAULT_255_2_778
10
11.4519775
20
3.7732271
40
0.6616638
50
283.9333376
51
302.7025712
0
ARC
8
DEFAULT_255_2_778
10
11.6059268
20
3.5525095
40
0.3928924
50
301.2007349
51
334.0135265
0
ARC
8
DEFAULT_255_2_778
10
11.6688356
20
3.5098559
40
0.3178375
50
335.9566704
51
0.5209944
0
ARC
8
DEFAULT_255_2_778
10
11.6947299
20
3.5209266
40
0.2920446
50
358.3948378
51
359.9999154
0
ARC
8
DEFAULT_255_2_778
10
11.6973103
20
3.5212241
40
0.2894644
50
359.9410294
51
58.4291869
0
ARC
8
DEFAULT_255_2_778
10
11.4591074
20
3.1520995
40
0.7287323
50
57.6671829
51
69.8256413
0
ARC
8
DEFAULT_255_2_778
10
11.0845289
20
2.1728451
40
1.7771451
50
69.3783438
51
75.9027867
0
ARC
8
DEFAULT_255_2_778
10
10.7277252
20
0.8195713
40
3.176612
50
75.6061863
51
78.287877
0
ARC
8
DEFAULT_255_2_778
10
11.2435314
20
6.1285208
40
2.1304948
50
249.5890668
51
259.5377542
0
ARC
8
DEFAULT_255_2_778
10
10.980399
20
5.433178
40
1.3870472
50
234.2682317
51
249.758854
0
ARC
8
DEFAULT_255_2_778
10
10.8039981
20
5.1748361
40
1.0743465
50
224.2590448
51
233.8589548
0
ARC
8
DEFAULT_255_2_778
10
10.7415554
20
5.1067244
40
0.9821039
50
183.9032231
51
223.9555538
0
ARC
8
DEFAULT_255_2_778
10
11.1164813
20
5.1617381
40
1.360222
50
179.9364863
51
185.1402155
0
ARC
8
DEFAULT_255_2_778
10
10.9481274
20
5.1778395
40
1.1919568
50
158.4675644
51
180.701513
0
ARC
8
DEFAULT_255_2_778
10
10.8625444
20
5.1913564
40
1.1075458
50
128.107213
51
157.4929962
0
ARC
8
DEFAULT_255_2_778
10
11.0443401
20
4.9926759
40
1.3762234
50
128.1423829
51
128.9579906
0
ARC
8
DEFAULT_255_2_778
10
11.1417445
20
4.8533326
40
1.5460016
50
103.334063
51
127.7919921
0
ARC
8
DEFAULT_255_2_778
10
11.2921831
20
4.2605142
40
2.1575559
50
91.5741387
51
103.5906578
0
ARC
8
DEFAULT_255_2_778
10
11.32233
20
3.7354984
40
2.6832476
50
89.9886834
51
91.9096637
0
ARC
8
DEFAULT_255_2_778
10
11.3352652
20
3.7244953
40
2.6942792
50
81.5844912
51
90.263808
0
ARC
8
DEFAULT_255_2_778
10
11.4648655
20
4.5705554
40
1.8383671
50
68.5538449
51
81.7211024
0
ARC
8
DEFAULT_255_2_778
10
11.6383595
20
5.0180789
40
1.358397
50
52.0915949
51
68.4633733
0
ARC
8
DEFAULT_255_2_778
10
11.8219187
20
5.2342568
40
1.075122
50
4.6279376
51
52.7314984
0
ARC
8
DEFAULT_255_2_778
10
11.4825061
20
5.1816895
40
1.4178901
50
0.7943264
51
5.6386429
0
ARC
8
DEFAULT_255_2_778
10
11.5551497
20
5.1833634
40
0.4226929
50
2.4382595
51
56.8713959
0
ARC
8
DEFAULT_255_2_778
10
11.3972028
20
4.9569304
40
0.6986916
50
56.1725508
51
83.8104224
0
ARC
8
DEFAULT_255_2_778
10
11.3364006
20
4.5786125
40
1.0815383
50
82.7689524
51
90.171675
0
ARC
8
DEFAULT_255_2_778
10
11.3203589
20
4.7382198
40
0.922015
50
89.2044925
51
105.2893692
0
ARC
8
DEFAULT_255_2_778
10
11.2297148
20
5.0811284
40
0.5673487
50
105.5910327
51
124.0606151
0
ARC
8
DEFAULT_255_2_778
10
11.0891653
20
5.2644773
40
0.3370172
50
121.7224513
51
180.481367
0
ARC
8
DEFAULT_255_2_778
10
11.0499332
20
5.2578273
40
0.2977977
50
179.2652717
51
237.5076076
0
ARC
8
DEFAULT_255_2_778
10
11.289663
20
5.6024426
40
0.7174512
50
236.1434629
51
249.8813322
0
ARC
8
DEFAULT_255_2_778
10
11.6124753
20
6.4447998
40
1.6195011
50
249.4082049
51
256.8683037
0
ARC
8
DEFAULT_255_2_778
10
11.8474478
20
7.3795287
40
2.5832231
50
256.503066
51
258.6476287
0
ARC
8
DEFAULT_255_2_778
10
11.32597
20
2.068416
40
2.7335051
50
71.7378046
51
78.9612925
0
ARC
8
DEFAULT_255_2_778
10
11.6707586
20
3.098567
40
1.6472017
50
60.5951558
51
71.8980956
0
ARC
8
DEFAULT_255_2_778
10
11.9677913
20
3.6252452
40
1.0425379
50
45.094512
51
60.6050242
0
ARC
8
DEFAULT_255_2_778
10
12.0393076
20
3.7132833
40
0.929768
50
8.1324466
51
44.3860336
0
ARC
8
DEFAULT_255_2_778
10
11.6079105
20
3.6294607
40
1.3688606
50
359.7691698
51
9.0513793
0
ARC
8
DEFAULT_255_2_778
10
11.7350659
20
3.6097623
40
1.2417751
50
340.070214
51
0.6544519
0
ARC
8
DEFAULT_255_2_778
10
11.8648449
20
3.5809831
40
1.1100913
50
307.6559722
51
339.1833549
0
ARC
8
DEFAULT_255_2_778
10
11.6856704
20
3.7784915
40
1.3760816
50
307.662036
51
308.5382795
0
ARC
8
DEFAULT_255_2_778
10
11.5940985
20
3.9150438
40
1.5401699
50
286.666489
51
307.2549482
0
ARC
8
DEFAULT_255_2_778
10
11.4034275
20
4.5255332
40
2.1797106
50
275.3641715
51
286.8655398
0
ARC
8
DEFAULT_255_2_778
10
11.3177574
20
5.3130832
40
2.9718433
50
269.8843725
51
275.5891681
0
ARC
8
DEFAULT_255_2_778
10
11.2989254
20
5.3101515
40
2.9689333
50
262.1052856
51
270.2476882
0
ARC
8
DEFAULT_255_2_778
10
11.1654667
20
4.3745615
40
2.0238831
50
250.526752
51
262.2096792
0
ARC
8
DEFAULT_255_2_778
10
10.9668396
20
3.8166446
40
1.4316655
50
233.8679179
51
250.5777447
0
ARC
8
DEFAULT_255_2_778
10
10.7310305
20
3.5136639
40
1.047982
50
185.5930524
51
234.5131402
0
ARC
8
DEFAULT_255_2_778
10
11.0583549
20
3.5678618
40
1.3792063
50
180.7276745
51
186.5086134
0
ARC
8
DEFAULT_255_2_778
10
17.0527935
20
27.5557053
40
26.2569606
50
269.7036417
51
270.017602
0
ARC
8
DEFAULT_255_2_778
10
16.9647353
20
11.7155656
40
10.4165792
50
269.0919146
51
269.737334
0
ARC
8
DEFAULT_255_2_778
10
16.8268062
20
3.4750679
40
2.1749428
50
267.3825179
51
269.2845638
0
ARC
8
DEFAULT_255_2_778
10
16.7336301
20
1.4805339
40
0.1782458
50
261.9470319
51
268.0231326
0
ARC
8
DEFAULT_255_2_778
10
16.7382705
20
2.2966166
40
0.2602606
50
263.4671531
51
270.1148829
0
ARC
8
DEFAULT_255_2_778
10
16.8117105
20
5.3081484
40
3.2726042
50
268.7232658
51
269.6986679
0
ARC
8
DEFAULT_255_2_778
10
16.8712971
20
14.0473408
40
12.0119968
50
269.6336808
51
270.0322582
0
ARC
8
DEFAULT_255_2_778
10
16.889971
20
3.2523645
40
1.2170768
50
269.4392579
51
279.5256944
0
ARC
8
DEFAULT_255_2_778
10
17.0063755
20
2.596633
40
0.5511589
50
278.8725855
51
298.5575149
0
ARC
8
DEFAULT_255_2_778
10
17.1434105
20
2.349554
40
0.2686412
50
298.0778073
51
349.9872156
0
ARC
8
DEFAULT_255_2_778
10
16.289027
20
3.1536069
40
2.4584344
50
333.9171833
51
342.5685207
0
ARC
8
DEFAULT_255_2_778
10
17.0563873
20
2.7730263
40
1.6018989
50
320.8169765
51
334.075881
0
ARC
8
DEFAULT_255_2_778
10
17.4184338
20
2.4815269
40
1.1370993
50
305.5129488
51
320.6763706
0
ARC
8
DEFAULT_255_2_778
10
17.3776508
20
2.5705131
40
1.2333617
50
286.5561648
51
304.6537702
0
ARC
8
DEFAULT_255_2_778
10
17.1780638
20
3.2147354
40
1.9077642
50
276.0396552
51
286.7885555
0
ARC
8
DEFAULT_255_2_778
10
17.0711778
20
4.1373999
40
2.8365683
50
269.8178475
51
276.2257471
0
ARC
8
DEFAULT_255_2_778
10
21.1054479
20
4.2042759
40
0.6607629
50
4.6241467
51
30.1028812
0
ARC
8
DEFAULT_255_2_778
10
21.2312346
20
4.2669769
40
0.5205687
50
31.0764029
51
45.089016
0
ARC
8
DEFAULT_255_2_778
10
21.2554181
20
4.28762
40
0.4888821
50
45.3881836
51
92.1872215
0
ARC
8
DEFAULT_255_2_778
10
21.2209356
20
4.2980288
40
0.478379
50
88.1043576
51
89.9986575
0
ARC
8
DEFAULT_255_2_778
10
21.2209878
20
4.3000996
40
0.4763081
50
90.0049375
51
147.7953
0
ARC
8
DEFAULT_255_2_778
10
21.4666004
20
4.1174999
40
0.7818053
50
146.0648568
51
167.8564078
0
ARC
8
DEFAULT_255_2_778
10
22.1120127
20
3.9660254
40
1.4446926
50
167.3680121
51
178.5390326
0
ARC
8
DEFAULT_255_2_778
10
22.7563631
20
3.9311648
40
2.0898035
50
178.033983
51
180.0224503
0
ARC
8
DEFAULT_255_2_778
10
22.3624862
20
3.9185378
40
1.6959673
50
179.6010768
51
189.0616259
0
ARC
8
DEFAULT_255_2_778
10
21.6430485
20
3.7984105
40
0.9666035
50
188.7463411
51
204.8794939
0
ARC
8
DEFAULT_255_2_778
10
21.3733925
20
3.6817741
40
0.672946
50
205.5295906
51
214.1769811
0
ARC
8
DEFAULT_255_2_778
10
21.220253
20
3.5641983
40
0.4803361
50
212.8355376
51
271.9693838
0
ARC
8
DEFAULT_255_2_778
10
21.2518314
20
3.6213988
40
0.5374642
50
268.3931191
51
301.5244605
0
ARC
8
DEFAULT_255_2_778
10
21.2715649
20
3.5718821
40
0.4850222
50
302.5958673
51
312.4229491
0
ARC
8
DEFAULT_255_2_778
10
21.2430083
20
3.5866601
40
0.5153151
50
313.6584136
51
350.2003338
0
ARC
8
DEFAULT_255_2_778
10
20.8726244
20
3.683241
40
0.8973085
50
348.14824
51
353.441072
0
ARC
8
DEFAULT_255_2_778
10
21.2180071
20
3.6217255
40
1.4367374
50
341.6806255
51
358.3655496
0
ARC
8
DEFAULT_255_2_778
10
21.5196786
20
3.5270693
40
1.1206141
50
310.5942488
51
341.4270037
0
ARC
8
DEFAULT_255_2_778
10
21.4006326
20
3.6708554
40
1.307263
50
283.4633541
51
310.4555123
0
ARC
8
DEFAULT_255_2_778
10
21.2553301
20
4.230839
40
1.8857191
50
271.155789
51
283.7955205
0
ARC
8
DEFAULT_255_2_778
10
21.2296779
20
4.7099279
40
2.3652819
50
269.9922993
51
271.5429673
0
ARC
8
DEFAULT_255_2_778
10
21.2162851
20
4.3244425
40
1.9798398
50
257.9746757
51
270.378384
0
ARC
8
DEFAULT_255_2_778
10
21.0859007
20
3.747157
40
1.3880766
50
232.3958085
51
258.2739043
0
ARC
8
DEFAULT_255_2_778
10
21.0564187
20
3.6932325
40
1.3273995
50
224.2042141
51
231.9836801
0
ARC
8
DEFAULT_255_2_778
10
21.107454
20
3.7323747
40
1.3912956
50
194.6520647
51
223.8943891
0
ARC
8
DEFAULT_255_2_778
10
21.6754922
20
3.8940428
40
1.9817954
50
182.1780445
51
195.0199951
0
ARC
8
DEFAULT_255_2_778
10
22.2004003
20
3.9299719
40
2.5077405
50
179.9800301
51
182.5425576
0
ARC
8
DEFAULT_255_2_778
10
21.8431509
20
3.9436423
40
2.150529
50
168.8859483
51
180.3409321
0
ARC
8
DEFAULT_255_2_778
10
21.2202279
20
4.0716416
40
1.5146253
50
148.6724481
51
169.0948523
0
ARC
8
DEFAULT_255_2_778
10
21.0743921
20
4.1486755
40
1.3500361
50
135.9021825
51
148.2471375
0
ARC
8
DEFAULT_255_2_778
10
21.0779402
20
4.140392
40
1.3583529
50
101.3385495
51
135.7554029
0
ARC
8
DEFAULT_255_2_778
10
21.2118503
20
3.5629986
40
1.9508856
50
89.6414121
51
101.8606703
0
ARC
8
DEFAULT_255_2_778
10
21.2371711
20
3.6006244
40
1.9132665
50
77.7544932
51
90.3926359
0
ARC
8
DEFAULT_255_2_778
10
21.3670016
20
4.1651623
40
1.3340549
50
51.5818366
51
78.0610399
0
ARC
8
DEFAULT_255_2_778
10
21.4045365
20
4.2263868
40
1.2627913
50
48.3621718
51
51.1899887
0
ARC
8
DEFAULT_255_2_778
10
21.4483942
20
4.2730996
40
1.1987413
50
5.9261142
51
48.4453671
0
ARC
8
DEFAULT_255_2_778
10
21.0253009
20
4.1950026
40
1.6279917
50
2.2298758
51
7.1226939
0
ARC
8
DEFAULT_255_2_778
10
23.914121
20
3.5487642
40
1.1798018
50
249.7610376
51
270.681803
0
ARC
8
DEFAULT_255_2_778
10
23.8675042
20
3.3924474
40
1.0170624
50
228.8212636
51
249.1786953
0
ARC
8
DEFAULT_255_2_778
10
23.7382747
20
3.2661254
40
0.8370176
50
178.458231
51
229.7860789
0
ARC
8
DEFAULT_255_2_778
10
23.7848998
20
3.3024452
40
0.8834476
50
158.6672113
51
180.8949836
0
ARC
8
DEFAULT_255_2_778
10
23.6551279
20
3.3380771
40
0.7497358
50
125.7627148
51
157.595838
0
ARC
8
DEFAULT_255_2_778
10
23.9001826
20
3.0068486
40
1.1617385
50
109.1387117
51
126.022551
0
ARC
8
DEFAULT_255_2_778
10
24.1411074
20
2.3381003
40
1.8725309
50
99.2692062
51
109.3943584
0
ARC
8
DEFAULT_255_2_778
10
24.3047794
20
1.394119
40
2.8305651
50
93.4861619
51
99.4611927
0
ARC
8
DEFAULT_255_2_778
10
24.4842332
20
4.4532659
40
0.3610477
50
357.5839734
51
38.240712
0
ARC
8
DEFAULT_255_2_778
10
24.5168067
20
4.4675609
40
0.326738
50
39.8076077
51
50.7670884
0
ARC
8
DEFAULT_255_2_778
10
24.4436484
20
4.3622683
40
0.4546746
50
52.0182514
51
85.2341437
0
ARC
8
DEFAULT_255_2_778
10
24.3964867
20
4.0627066
40
0.7574418
50
83.5614331
51
90.1457502
0
ARC
8
DEFAULT_255_2_778
10
24.3810453
20
4.2413156
40
0.5789881
50
88.6624928
51
113.7465795
0
ARC
8
DEFAULT_255_2_778
10
24.3281703
20
4.3830037
40
0.4280912
50
114.9054846
51
126.1796607
0
ARC
8
DEFAULT_255_2_778
10
24.2730788
20
4.4412327
40
0.348715
50
124.5208433
51
171.5382218
0
ARC
8
DEFAULT_255_2_778
10
23.9877536
20
4.4727249
40
0.9308048
50
125.1659433
51
178.7798195
0
ARC
8
DEFAULT_255_2_778
10
24.2408952
20
4.1532944
40
1.3379281
50
104.319323
51
126.1494571
0
ARC
8
DEFAULT_255_2_778
10
24.3962345
20
3.5799401
40
1.9319088
50
92.9097424
51
104.5775809
0
ARC
8
DEFAULT_255_2_778
10
24.4395485
20
3.0052627
40
2.5080836
50
89.9631876
51
93.2315308
0
ARC
8
DEFAULT_255_2_778
10
24.4541239
20
3.3879193
40
2.1254662
50
79.4767715
51
90.3494686
0
ARC
8
DEFAULT_255_2_778
10
24.5832897
20
4.0574276
40
1.443636
50
61.7025866
51
79.6640325
0
ARC
8
DEFAULT_255_2_778
10
24.6866317
20
4.268895
40
1.2084857
50
52.741704
51
61.2638733
0
ARC
8
DEFAULT_255_2_778
10
24.9031677
20
4.5092329
40
0.8865106
50
0.0068073
51
54.4767414
0
ARC
8
DEFAULT_255_2_778
10
24.9005631
20
4.5093518
40
0.8891151
50
358.7300244
51
359.9991286
0
ARC
8
DEFAULT_255_2_778
10
24.114002
20
3.2369008
40
0.8161929
50
296.4872549
51
331.6435821
0
ARC
8
DEFAULT_255_2_778
10
23.9643209
20
3.4760929
40
1.0973747
50
297.0024249
51
297.9122718
0
ARC
8
DEFAULT_255_2_778
10
23.9294936
20
3.5343354
40
1.1650897
50
270.0045936
51
297.2279958
0
LINE
8
DEFAULT_255_2_778
10
23.929587
20
2.3692458
11
23.92896
21
2.3692459
0
ARC
8
DEFAULT_255_2_778
10
24.2850301
20
3.7063713
40
0.6660074
50
268.6604005
51
300.3987968
0
ARC
8
DEFAULT_255_2_778
10
24.31089
20
3.6442794
40
0.5994353
50
301.270031
51
307.7240449
0
ARC
8
DEFAULT_255_2_778
10
24.4427944
20
3.4973023
40
0.402732
50
305.6745647
51
359.987807
0
ARC
8
DEFAULT_255_2_778
10
24.4405213
20
3.4972124
40
0.4050051
50
0.0005996
51
1.0375342
0
ARC
8
DEFAULT_255_2_778
10
24.3225747
20
2.9312233
40
0.7460267
50
92.820879
51
108.9276783
0
ARC
8
DEFAULT_255_2_778
10
24.217089
20
3.2485423
40
0.4116605
50
109.3658615
51
126.8060267
0
ARC
8
DEFAULT_255_2_778
10
24.1276406
20
3.3612398
40
0.2678694
50
125.9289099
51
181.4747318
0
ARC
8
DEFAULT_255_2_778
10
24.1338805
20
3.3450971
40
0.2741766
50
178.066864
51
233.413113
0
ARC
8
DEFAULT_255_2_778
10
24.2220557
20
3.4726004
40
0.4291434
50
234.1069342
51
265.6122036
0
ARC
8
DEFAULT_255_2_778
10
24.2673678
20
3.7746563
40
0.7341126
50
263.8894303
51
270.1398713
0
ARC
8
DEFAULT_255_2_778
10
28.1917944
20
4.1878584
40
1.3008569
50
73.2381763
51
90.5917256
0
ARC
8
DEFAULT_255_2_778
10
28.2657681
20
4.4589807
40
1.0199471
50
37.4618304
51
72.8247596
0
ARC
8
DEFAULT_255_2_778
10
28.0071131
20
4.2562471
40
1.3485707
50
17.7180052
51
37.6147431
0
ARC
8
DEFAULT_255_2_778
10
27.3914877
20
4.0512451
40
1.997399
50
6.544936
51
17.9452832
0
ARC
8
DEFAULT_255_2_778
10
26.4983354
20
3.9398574
40
2.8974402
50
359.8119137
51
6.7201015
0
ARC
8
DEFAULT_255_2_778
10
26.5018543
20
3.917922
40
2.8939324
50
352.5005045
51
0.2459763
0
ARC
8
DEFAULT_255_2_778
10
27.4644314
20
3.7864013
40
1.9224294
50
340.7797623
51
352.6424476
0
ARC
8
DEFAULT_255_2_778
10
28.0376991
20
3.5839577
40
1.3144732
50
322.301331
51
340.8861
0
ARC
8
DEFAULT_255_2_778
10
28.2491662
20
3.412648
40
1.0424138
50
274.3258895
51
322.6439125
0
ARC
8
DEFAULT_255_2_778
10
28.1910524
20
3.7953029
40
1.4286581
50
269.9281141
51
275.4924052
0
ARC
8
DEFAULT_255_2_778
10
28.1782845
20
3.5518473
40
1.1852522
50
251.1086894
51
270.5305674
0
ARC
8
DEFAULT_255_2_778
10
28.116666
20
3.3507793
40
0.975088
50
239.1165549
51
250.709048
0
ARC
8
DEFAULT_255_2_778
10
28.0684774
20
3.2672863
40
0.8786995
50
202.8375343
51
239.0187287
0
ARC
8
DEFAULT_255_2_778
10
28.0848602
20
4.5767787
40
0.8964311
50
121.7639581
51
157.6854281
0
ARC
8
DEFAULT_255_2_778
10
28.139177
20
4.4907966
40
0.9981291
50
91.6337423
51
121.8166942
0
ARC
8
DEFAULT_255_2_778
10
28.1801987
20
4.0909115
40
1.3993345
50
89.9770201
51
92.8459766
0
ARC
8
DEFAULT_255_2_778
10
27.8065402
20
3.6274403
40
0.4998042
50
214.6255828
51
269.9912166
0
ARC
8
DEFAULT_255_2_778
10
27.8064573
20
3.6289934
40
0.5013572
50
270.0007151
51
271.657609
0
ARC
8
DEFAULT_255_2_778
10
27.8345471
20
3.6288692
40
0.5012074
50
268.4465851
51
269.9995228
0
ARC
8
DEFAULT_255_2_778
10
27.8343962
20
3.6278469
40
0.5001852
50
270.0168086
51
325.5704471
0
ARC
8
DEFAULT_255_2_778
10
27.5996339
20
3.8045625
40
0.7938429
50
324.630249
51
349.0640737
0
ARC
8
DEFAULT_255_2_778
10
27.0757029
20
3.9163532
40
1.3295076
50
348.617383
51
0.4996019
0
ARC
8
DEFAULT_255_2_778
10
27.1427054
20
3.9406667
40
1.2625186
50
359.4226957
51
13.0992516
0
ARC
8
DEFAULT_255_2_778
10
27.6128414
20
4.0527699
40
0.7792136
50
12.9054818
51
35.7337564
0
ARC
8
DEFAULT_255_2_778
10
27.8318603
20
4.2233456
40
0.5019187
50
34.5291526
51
91.2444143
0
ARC
8
DEFAULT_255_2_778
10
27.8100135
20
4.2242605
40
0.501005
50
88.7480464
51
90.0012141
0
ARC
8
DEFAULT_255_2_778
10
27.8100311
20
4.2250895
40
0.5001761
50
90.0032361
51
145.7562557
0
ARC
8
DEFAULT_255_2_778
10
28.0527951
20
4.0400826
40
0.805129
50
144.5941218
51
169.5090408
0
ARC
8
DEFAULT_255_2_778
10
28.5501758
20
3.9346846
40
1.3134513
50
168.9387673
51
180.4204667
0
ARC
8
DEFAULT_255_2_778
10
28.5302586
20
3.9122015
40
1.2935624
50
179.4310734
51
192.6482353
0
ARC
8
DEFAULT_255_2_778
10
28.0276555
20
3.795541
40
0.7776205
50
192.3699328
51
215.5478527
0
LINE
8
DEFAULT_255_2_778
10
9.68036
20
3.5506459
11
10.63286
21
3.5506459
0
LINE
8
DEFAULT_255_2_778
10
11.37256
20
3.9300459
11
10.85666
21
4.0334459
0
LINE
8
DEFAULT_255_2_778
10
12.90026
20
5.2013459
11
11.97746
21
5.2013459
0
LINE
8
DEFAULT_255_2_778
10
11.33896
20
4.8468459
11
11.84936
21
4.7513459
0
LINE
8
DEFAULT_255_2_778
10
9.67926
20
3.5503459
11
9.68036
21
3.5506459
0
LINE
8
DEFAULT_255_2_778
10
14.39416
20
4.2845459
11
15.28656
21
5.4476459
0
LINE
8
DEFAULT_255_2_778
10
15.28656
20
5.4476459
11
16.36736
21
5.4476459
0
LINE
8
DEFAULT_255_2_778
10
16.36736
20
5.4476459
11
15.27576
21
4.1456459
0
LINE
8
DEFAULT_255_2_778
10
15.27576
20
4.1456459
11
16.43036
21
2.4097459
0
LINE
8
DEFAULT_255_2_778
10
16.43036
20
2.4097459
11
15.31886
21
2.4097459
0
LINE
8
DEFAULT_255_2_778
10
15.31886
20
2.4097459
11
14.56296
21
3.5670459
0
LINE
8
DEFAULT_255_2_778
10
14.56296
20
3.5670459
11
14.37746
21
3.3513459
0
LINE
8
DEFAULT_255_2_778
10
14.37746
20
3.3513459
11
14.37746
21
2.4097459
0
LINE
8
DEFAULT_255_2_778
10
14.37746
20
2.4097459
11
13.41116
21
2.4097459
0
LINE
8
DEFAULT_255_2_778
10
13.41116
20
2.4097459
11
13.41116
21
6.5454459
0
LINE
8
DEFAULT_255_2_778
10
13.41116
20
6.5454459
11
14.37746
21
6.5454459
0
LINE
8
DEFAULT_255_2_778
10
14.37746
20
6.5454459
11
14.37746
21
4.2853459
0
LINE
8
DEFAULT_255_2_778
10
14.37746
20
4.2853459
11
14.39656
21
4.2853459
0
LINE
8
DEFAULT_255_2_778
10
14.39656
20
4.2853459
11
14.39416
21
4.2845459
0
LINE
8
DEFAULT_255_2_778
10
16.70866
20
1.3040459
11
16.70866
21
2.0380459
0
LINE
8
DEFAULT_255_2_778
10
17.40796
20
2.3028459
11
17.42176
21
2.3872459
0
LINE
8
DEFAULT_255_2_778
10
17.42176
20
2.3872459
11
16.38456
21
5.4495459
0
LINE
8
DEFAULT_255_2_778
10
16.38456
20
5.4495459
11
17.45216
21
5.4495459
0
LINE
8
DEFAULT_255_2_778
10
17.45216
20
5.4495459
11
18.01176
21
3.1431459
0
LINE
8
DEFAULT_255_2_778
10
18.01176
20
3.1431459
11
18.03086
21
3.1431459
0
LINE
8
DEFAULT_255_2_778
10
18.03086
20
3.1431459
11
18.59066
21
5.4495459
0
LINE
8
DEFAULT_255_2_778
10
18.59066
20
5.4495459
11
19.61176
21
5.4495459
0
LINE
8
DEFAULT_255_2_778
10
19.61176
20
5.4495459
11
18.63456
21
2.4171459
0
LINE
8
DEFAULT_255_2_778
10
17.06216
20
1.3008459
11
17.06086
21
1.2987459
0
LINE
8
DEFAULT_255_2_778
10
22.65126
20
4.2575459
11
21.76406
21
4.2575459
0
LINE
8
DEFAULT_255_2_778
10
21.76406
20
3.5807459
11
22.65416
21
3.5807459
0
LINE
8
DEFAULT_255_2_778
10
22.65206
20
4.2583459
11
22.65126
21
4.2575459
0
LINE
8
DEFAULT_255_2_778
10
24.13266
20
4.2194459
11
24.84496
21
4.2634459
0
LINE
8
DEFAULT_255_2_778
10
24.84496
20
4.2634459
11
24.84496
21
4.4380459
0
LINE
8
DEFAULT_255_2_778
10
23.92816
20
4.4925459
11
23.05716
21
4.4925459
0
LINE
8
DEFAULT_255_2_778
10
25.78946
20
4.4896459
11
25.78946
21
2.4097459
0
LINE
8
DEFAULT_255_2_778
10
25.78946
20
2.4097459
11
24.85126
21
2.4097459
0
LINE
8
DEFAULT_255_2_778
10
24.85126
20
2.4097459
11
24.85126
21
2.8492459
0
LINE
8
DEFAULT_255_2_778
10
24.85126
20
2.8492459
11
24.83226
21
2.8492459
0
LINE
8
DEFAULT_255_2_778
10
23.92896
20
2.3692459
11
23.92816
21
2.3690459
0
LINE
8
DEFAULT_255_2_778
10
24.84546
20
3.5045459
11
24.84546
21
3.7146459
0
LINE
8
DEFAULT_255_2_778
10
24.84546
20
3.7146459
11
24.28586
21
3.6763459
0
LINE
8
DEFAULT_255_2_778
10
24.26916
20
3.0405459
11
24.26946
21
3.0405459
0
LINE
8
DEFAULT_255_2_778
10
27.25866
20
2.9262459
11
27.23966
21
2.9262459
0
LINE
8
DEFAULT_255_2_778
10
27.23966
20
2.9262459
11
27.23966
21
1.4823459
0
LINE
8
DEFAULT_255_2_778
10
27.23966
20
1.4823459
11
26.27336
21
1.4823459
0
LINE
8
DEFAULT_255_2_778
10
26.27336
20
1.4823459
11
26.27336
21
5.4498459
0
LINE
8
DEFAULT_255_2_778
10
26.27336
20
5.4498459
11
27.23646
21
5.4498459
0
LINE
8
DEFAULT_255_2_778
10
27.23646
20
5.4498459
11
27.23646
21
4.9171459
0
LINE
8
DEFAULT_255_2_778
10
27.23646
20
4.9171459
11
27.25556
21
4.9171459
0
LINE
8
DEFAULT_255_2_778
10
28.18076
20
5.4902459
11
28.17836
21
5.4886459
0
LINE
8
DEFAULT_255_2_778
10
27.39496
20
3.3434459
11
27.39526
21
3.3434459
0
ENDSEC
0
EOF