0
SECTION
2
HEADER
9
$MEASUREMENT
70
1
0
ENDSEC
0
SECTION
2
TABLES
0
TABLE
2
LTYPE
0
LTYPE
72
65
70
64
2
CONTINUOUS
3
______
73
0
40
0
0
ENDTAB
0
TABLE
2
LAYER
0
LAYER
2
DEFAULT_255_2_778
70
0
62
255
6
CONTINUOUS
0
ENDTAB
0
ENDSEC
0
SECTION
2
ENTITIES
0
ARC
8
DEFAULT_255_2_778
10
2.3848163
20
14.6877505
40
2.1202856
50
157.5383779
51
180.0941479
0
ARC
8
DEFAULT_255_2_778
10
2.3763011
20
14.6888032
40
2.1120155
50
100.3425508
51
157.476512
0
ARC
8
DEFAULT_255_2_778
10
2.380128
20
14.6555565
40
2.1454102
50
89.970475
51
100.2836865
0
ARC
8
DEFAULT_255_2_778
10
15.0847099
20
14.6809326
40
2.1200367
50
67.5370438
51
90.093952
0
ARC
8
DEFAULT_255_2_778
10
15.085647
20
14.6892019
40
2.1120381
50
10.3423567
51
67.4748233
0
ARC
8
DEFAULT_255_2_778
10
15.0523991
20
14.6853709
40
2.1454347
50
359.9705048
51
10.2835977
0
ARC
8
DEFAULT_255_2_778
10
15.0777707
20
1.9807919
40
2.1200657
50
337.537312
51
0.0939001
0
ARC
8
DEFAULT_255_2_778
10
15.0860835
20
1.9798163
40
2.112012
50
280.3440181
51
337.4756066
0
ARC
8
DEFAULT_255_2_778
10
15.0823364
20
2.0127852
40
2.145119
50
269.9705448
51
280.2843594
0
ARC
8
DEFAULT_255_2_778
10
2.3777514
20
1.9879782
40
2.1203146
50
247.5386461
51
270.094096
0
ARC
8
DEFAULT_255_2_778
10
2.3766602
20
1.9794195
40
2.1119895
50
190.3442122
51
247.4772953
0
ARC
8
DEFAULT_255_2_778
10
2.4096278
20
1.9831625
40
2.1450945
50
179.970515
51
190.2844482
0
LINE
8
DEFAULT_255_2_778
10
2.3812336
20
16.8009664
11
15.0812336
21
16.8009664
0
LINE
8
DEFAULT_255_2_778
10
17.1978336
20
14.6842664
11
17.1978336
21
1.9842664
0
LINE
8
DEFAULT_255_2_778
10
15.0812336
20
-0.1323336
11
2.3812336
21
-0.1323336
0
LINE
8
DEFAULT_255_2_778
10
0.2645336
20
1.9842664
11
0.2645336
21
14.6842664
0
ARC
8
DEFAULT_255_2_778
10
12.0209675
20
3.8124726
40
2.0754094
50
359.9285135
51
24.0516707
0
ARC
8
DEFAULT_255_2_778
10
11.9983586
20
3.7994371
40
2.1013699
50
24.1249954
51
78.7512273
0
ARC
8
DEFAULT_255_2_778
10
11.9993168
20
3.7869764
40
2.113407
50
78.8426041
51
90.0282353
0
ARC
8
DEFAULT_255_2_778
10
11.9954871
20
3.804029
40
2.0963561
50
89.9237949
51
113.4949986
0
ARC
8
DEFAULT_255_2_778
10
11.9945633
20
3.8046591
40
2.0954098
50
113.4787031
51
171.1714439
0
ARC
8
DEFAULT_255_2_778
10
11.9968299
20
3.8105471
40
2.0967548
50
171.33994
51
180.0181439
0
ARC
8
DEFAULT_255_2_778
10
11.9764274
20
3.807243
40
2.0763537
50
179.9271478
51
203.6847983
0
ARC
8
DEFAULT_255_2_778
10
11.9969176
20
3.8194283
40
2.1000149
50
203.7646804
51
258.7120472
0
ARC
8
DEFAULT_255_2_778
10
11.9971822
20
3.8361518
40
2.1164689
50
258.7936389
51
270.029591
0
ARC
8
DEFAULT_255_2_778
10
12.0012744
20
3.8192423
40
2.0995613
50
269.9181556
51
293.1582917
0
ARC
8
DEFAULT_255_2_778
10
12.0041417
20
3.8133089
40
2.0929784
50
293.1500029
51
351.0646904
0
ARC
8
DEFAULT_255_2_778
10
11.9952501
20
3.809164
40
2.1011254
50
351.2140055
51
0.0196092
0
LINE
8
DEFAULT_255_2_778
10
3.3659753
20
1.8249831
11
9.2090753
21
14.9488831
0
LINE
8
DEFAULT_255_2_778
10
9.2090753
20
14.9488831
11
11.7386753
21
14.9488831
0
LINE
8
DEFAULT_255_2_778
10
11.7386753
20
14.9488831
11
5.8972753
21
1.8249831
0
LINE
8
DEFAULT_255_2_778
10
5.8972753
20
1.8249831
11
3.3659753
21
1.8249831
0
LINE
8
DEFAULT_255_2_778
10
14.0963753
20
3.8098831
11
14.0963753
21
3.8098831
0
ENDSEC
0
EOF