0
SECTION
2
HEADER
9
$MEASUREMENT
70
1
0
ENDSEC
0
SECTION
2
TABLES
0
TABLE
2
LTYPE
0
LTYPE
72
65
70
64
2
CONTINUOUS
3
______
73
0
40
0
0
ENDTAB
0
TABLE
2
LAYER
0
LAYER
2
DEFAULT_255_2_778
70
0
62
255
6
CONTINUOUS
0
ENDTAB
0
ENDSEC
0
SECTION
2
ENTITIES
0
ARC
8
DEFAULT_255_2_778
10
4.8121168
20
0.5344445
40
0.798941
50
270.0320519
51
270.1602587
0
LINE
8
DEFAULT_255_2_778
10
4.8125637
20
-0.2644964
11
4.8120898
21
-0.2644966
0
ARC
8
DEFAULT_255_2_778
10
4.8122932
20
0.5254936
40
0.7899902
50
231.4108583
51
269.9852507
0
ARC
8
DEFAULT_255_2_778
10
4.8125282
20
0.5307203
40
0.7942282
50
193.0190831
51
231.6327877
0
ARC
8
DEFAULT_255_2_778
10
4.8174512
20
0.5324735
40
0.7994197
50
180.0046068
51
193.0620194
0
ARC
8
DEFAULT_255_2_778
10
4.8148693
20
0.5324111
40
0.7968379
50
177.3353244
51
180.0001365
0
ARC
8
DEFAULT_255_2_778
10
4.8110702
20
0.5327249
40
0.7930284
50
151.4818218
51
177.3452156
0
ARC
8
DEFAULT_255_2_778
10
4.8223212
20
0.5271001
40
0.8055999
50
148.7846921
51
151.5123548
0
ARC
8
DEFAULT_255_2_778
10
1.0738877
20
2.7836496
40
3.5696494
50
328.9899339
51
329.2379632
0
ARC
8
DEFAULT_255_2_778
10
-2.6152309
20
4.9814105
40
7.8638021
50
329.2259642
51
329.4650211
0
ARC
8
DEFAULT_255_2_778
10
-6.0180093
20
6.9889166
40
11.8146225
50
329.4636959
51
329.7377013
0
ARC
8
DEFAULT_255_2_778
10
-9.2293358
20
8.8630217
40
15.5328058
50
329.7364557
51
330.023939
0
ARC
8
DEFAULT_255_2_778
10
-12.0573851
20
10.4945725
40
18.797744
50
330.0230126
51
330.3229934
0
ARC
8
DEFAULT_255_2_778
10
-14.4743576
20
11.8723855
40
21.5798519
50
330.3218828
51
330.6136299
0
ARC
8
DEFAULT_255_2_778
10
-16.433243
20
12.9758592
40
23.8281591
50
330.6129755
51
330.896435
0
ARC
8
DEFAULT_255_2_778
10
-18.0286223
20
13.8641694
40
25.6541739
50
330.896038
51
331.1709272
0
ARC
8
DEFAULT_255_2_778
10
-19.3136047
20
14.5717201
40
27.1210782
50
331.1704157
51
331.4366387
0
ARC
8
DEFAULT_255_2_778
10
-20.5971687
20
15.2701949
40
28.5823803
50
331.4371363
51
331.8257842
0
ARC
8
DEFAULT_255_2_778
10
-21.8324707
20
15.9319311
40
29.9837603
50
331.825635
51
332.2558405
0
ARC
8
DEFAULT_255_2_778
10
-22.7579755
20
16.4188469
40
31.0295357
50
332.2556696
51
332.715774
0
ARC
8
DEFAULT_255_2_778
10
-23.3559081
20
16.7275195
40
31.7024416
50
332.7153482
51
333.1375307
0
ARC
8
DEFAULT_255_2_778
10
-23.6502477
20
16.8767481
40
32.032449
50
333.1373011
51
333.5229612
0
ARC
8
DEFAULT_255_2_778
10
-23.7894388
20
16.9461243
40
32.1879714
50
333.5228851
51
334.0531131
0
ARC
8
DEFAULT_255_2_778
10
-23.686768
20
16.8963535
40
32.0738733
50
334.0528122
51
334.6608762
0
ARC
8
DEFAULT_255_2_778
10
-23.3035319
20
16.7152432
40
31.6499974
50
334.6602793
51
335.3897696
0
ARC
8
DEFAULT_255_2_778
10
-22.69173
20
16.434975
40
30.9770549
50
335.3898221
51
336.0379678
0
ARC
8
DEFAULT_255_2_778
10
-21.9498169
20
16.1054081
40
30.1652364
50
336.0376812
51
336.7258499
0
ARC
8
DEFAULT_255_2_778
10
-21.0289079
20
15.7096148
40
29.1628762
50
336.7252718
51
337.5007855
0
ARC
8
DEFAULT_255_2_778
10
-19.8262097
20
15.2124419
40
27.8614681
50
337.4989203
51
338.507841
0
ARC
8
DEFAULT_255_2_778
10
-18.2806074
20
14.6048491
40
26.2007291
50
338.5058228
51
339.7102738
0
ARC
8
DEFAULT_255_2_778
10
-16.3585432
20
13.8964419
40
24.1522744
50
339.7053918
51
341.2834859
0
ARC
8
DEFAULT_255_2_778
10
-13.7726829
20
13.0265615
40
21.4240282
50
341.2677414
51
343.6929176
0
ARC
8
DEFAULT_255_2_778
10
-9.7383474
20
11.8732344
40
17.2281737
50
343.6069386
51
348.6667595
0
ARC
8
DEFAULT_255_2_778
10
-6.4969423
20
11.1966946
40
13.917048
50
348.7752949
51
351.0979104
0
ARC
8
DEFAULT_255_2_778
10
-4.8925411
20
10.945354
40
12.2930789
50
351.0980859
51
353.5360439
0
ARC
8
DEFAULT_255_2_778
10
-3.5710469
20
10.7944372
40
10.9629959
50
353.5422427
51
355.7695174
0
ARC
8
DEFAULT_255_2_778
10
-2.4403478
20
10.711437
40
9.8292546
50
355.7658084
51
358.3186157
0
ARC
8
DEFAULT_255_2_778
10
-1.587963
20
10.6840696
40
8.9764343
50
358.3335865
51
359.9904618
0
ARC
8
DEFAULT_255_2_778
10
-0.7013928
20
10.6884588
40
8.0898661
50
359.9583298
51
3.6097142
0
ARC
8
DEFAULT_255_2_778
10
0.3480899
20
10.755239
40
7.038261
50
3.6050531
51
7.767897
0
ARC
8
DEFAULT_255_2_778
10
1.2549121
20
10.8797835
40
6.1229269
50
7.7600817
51
12.6786257
0
ARC
8
DEFAULT_255_2_778
10
2.0358861
20
11.0569528
40
5.3221105
50
12.6631309
51
18.9011295
0
ARC
8
DEFAULT_255_2_778
10
2.7967143
20
11.327638
40
4.5146327
50
18.7789151
51
31.6725159
0
ARC
8
DEFAULT_255_2_778
10
2.4026521
20
11.0804346
40
4.9798031
50
31.712533
51
37.4771911
0
ARC
8
DEFAULT_255_2_778
10
3.4962329
20
11.9225745
40
3.5995471
50
37.4304869
51
44.9355613
0
ARC
8
DEFAULT_255_2_778
10
4.221015
20
12.6499794
40
2.5727003
50
44.8685372
51
55.0522543
0
ARC
8
DEFAULT_255_2_778
10
4.6331663
20
13.2481685
40
1.8462938
50
54.9023646
51
71.2597861
0
ARC
8
DEFAULT_255_2_778
10
4.7382285
20
13.5345354
40
1.5413726
50
71.5381675
51
87.0798896
0
ARC
8
DEFAULT_255_2_778
10
4.7413274
20
13.3874985
40
1.688094
50
87.4391712
51
90.0084739
0
ARC
8
DEFAULT_255_2_778
10
4.7447036
20
13.2137779
40
1.8618183
50
90.1115835
51
98.3016293
0
ARC
8
DEFAULT_255_2_778
10
4.7746172
20
12.9830998
40
2.0944016
50
98.200243
51
100.658955
0
ARC
8
DEFAULT_255_2_778
10
4.8922073
20
12.4600888
40
2.6302054
50
101.0690087
51
113.2151196
0
ARC
8
DEFAULT_255_2_778
10
5.7197895
20
10.6485154
40
4.6215519
50
113.791364
51
128.6014562
0
ARC
8
DEFAULT_255_2_778
10
6.9699045
20
8.9556511
40
6.7249456
50
127.9266105
51
131.500887
0
ARC
8
DEFAULT_255_2_778
10
7.3447843
20
8.5267272
40
7.2945942
50
131.4737572
51
133.6031626
0
ARC
8
DEFAULT_255_2_778
10
7.4118632
20
8.4549933
40
7.3928006
50
133.5962046
51
135.5973835
0
ARC
8
DEFAULT_255_2_778
10
7.1916509
20
8.6699502
40
7.0850675
50
135.5932778
51
137.1682389
0
ARC
8
DEFAULT_255_2_778
10
6.716086
20
9.1100855
40
6.4370854
50
137.1634572
51
138.648848
0
ARC
8
DEFAULT_255_2_778
10
5.9934006
20
9.7452338
40
5.474959
50
138.6418524
51
140.1504192
0
ARC
8
DEFAULT_255_2_778
10
5.0692972
20
10.5154307
40
4.2719754
50
140.1391671
51
141.7728904
0
ARC
8
DEFAULT_255_2_778
10
4.3858033
20
11.0566373
40
3.4001598
50
141.8103007
51
142.4259797
0
ARC
8
DEFAULT_255_2_778
10
1.0597454
20
13.6156652
40
0.7964203
50
270.0078069
51
322.4248276
0
ARC
8
DEFAULT_255_2_778
10
1.0598981
20
13.6167619
40
0.7975171
50
262.4239183
51
269.9968229
0
ARC
8
DEFAULT_255_2_778
10
1.0597937
20
13.6157722
40
0.7965222
50
202.433812
51
262.4219816
0
ARC
8
DEFAULT_255_2_778
10
1.0591329
20
13.61573
40
0.7958954
50
182.2499276
51
202.4491537
0
ARC
8
DEFAULT_255_2_778
10
1.0596315
20
13.6157559
40
0.7963948
50
179.9995574
51
182.2503801
0
ARC
8
DEFAULT_255_2_778
10
1.0591331
20
13.6159555
40
0.7958964
50
142.4237357
51
180.013929
0
ARC
8
DEFAULT_255_2_778
10
2.2475109
20
12.7076962
40
2.2916133
50
142.0375214
51
142.5452182
0
ARC
8
DEFAULT_255_2_778
10
3.3698407
20
11.832906
40
3.7145967
50
141.5312872
51
142.0483076
0
ARC
8
DEFAULT_255_2_778
10
4.4929166
20
10.9399003
40
5.1494342
50
140.7514095
51
141.5254362
0
ARC
8
DEFAULT_255_2_778
10
5.4896624
20
10.1266085
40
6.4358807
50
140.0079017
51
140.7585991
0
ARC
8
DEFAULT_255_2_778
10
6.2808916
20
9.4628516
40
7.4686522
50
139.0675349
51
140.0077681
0
ARC
8
DEFAULT_255_2_778
10
6.8602536
20
8.961133
40
8.2350604
50
138.1544998
51
139.0712949
0
ARC
8
DEFAULT_255_2_778
10
7.2100363
20
8.6483534
40
8.7042926
50
137.3004882
51
138.1567676
0
ARC
8
DEFAULT_255_2_778
10
7.431032
20
8.4443759
40
9.0050349
50
136.0921157
51
137.3002446
0
ARC
8
DEFAULT_255_2_778
10
7.5211556
20
8.3580059
40
9.1298626
50
134.6644025
51
136.093842
0
ARC
8
DEFAULT_255_2_778
10
7.4523118
20
8.4283258
40
9.0314547
50
132.8894967
51
134.6673673
0
ARC
8
DEFAULT_255_2_778
10
7.2306754
20
8.6677663
40
8.7051817
50
130.8207848
51
132.8932757
0
ARC
8
DEFAULT_255_2_778
10
6.977526
20
8.9597616
40
8.3187294
50
129.449219
51
130.815985
0
ARC
8
DEFAULT_255_2_778
10
6.6071052
20
9.4153002
40
7.7316055
50
126.0351924
51
129.4745042
0
ARC
8
DEFAULT_255_2_778
10
6.0083647
20
10.2459981
40
6.7076301
50
120.848054
51
126.0737136
0
ARC
8
DEFAULT_255_2_778
10
5.2824125
20
11.493375
40
5.2645034
50
110.4403401
51
121.0260743
0
ARC
8
DEFAULT_255_2_778
10
4.7954723
20
12.8241532
40
3.8474701
50
94.0013012
51
110.5664654
0
ARC
8
DEFAULT_255_2_778
10
4.7372765
20
13.3376316
40
3.3312565
50
90.0093218
51
93.6190613
0
ARC
8
DEFAULT_255_2_778
10
4.7369214
20
13.4134676
40
3.2554204
50
87.5856477
51
90.0032884
0
ARC
8
DEFAULT_255_2_778
10
4.7382656
20
13.4488716
40
3.2199911
50
87.232245
51
87.583007
0
ARC
8
DEFAULT_255_2_778
10
4.7348663
20
13.4524871
40
3.2165461
50
55.4602507
51
87.168655
0
ARC
8
DEFAULT_255_2_778
10
4.2747261
20
12.7418103
40
4.0629138
50
45.7960421
51
55.7973688
0
ARC
8
DEFAULT_255_2_778
10
3.5481011
20
11.9899347
40
5.1085197
50
38.2985933
51
45.8333727
0
ARC
8
DEFAULT_255_2_778
10
2.5020503
20
11.1590025
40
6.444431
50
32.5015441
51
38.3324531
0
ARC
8
DEFAULT_255_2_778
10
1.7449959
20
10.6604203
40
7.3508253
50
31.8451916
51
32.6084105
0
ARC
8
DEFAULT_255_2_778
10
2.7029753
20
11.2970978
40
6.2012174
50
12.9295797
51
31.5182252
0
ARC
8
DEFAULT_255_2_778
10
1.1124614
20
10.8900607
40
7.8425873
50
6.0061302
51
13.2279045
0
ARC
8
DEFAULT_255_2_778
10
-0.475204
20
10.7199026
40
9.4393425
50
0.2638329
51
6.02494
0
ARC
8
DEFAULT_255_2_778
10
-1.4603895
20
10.6995085
40
10.4246237
50
359.9995289
51
0.3509886
0
ARC
8
DEFAULT_255_2_778
10
-2.193504
20
10.70601
40
11.1577401
50
356.7050021
51
359.9661737
0
ARC
8
DEFAULT_255_2_778
10
-3.6635988
20
10.7905218
40
12.630262
50
353.6714821
51
356.7055667
0
ARC
8
DEFAULT_255_2_778
10
-4.9683994
20
10.9301233
40
13.9425006
50
352.031439
51
353.6923419
0
ARC
8
DEFAULT_255_2_778
10
-8.8221429
20
11.5624644
40
17.8469318
50
343.471465
51
351.7361065
0
ARC
8
DEFAULT_255_2_778
10
-13.9568384
20
12.9893812
40
23.1755857
50
341.1916755
51
343.7009645
0
ARC
8
DEFAULT_255_2_778
10
-16.4841456
20
13.8444483
40
25.8436179
50
339.396651
51
341.203655
0
ARC
8
DEFAULT_255_2_778
10
-18.3827588
20
14.5552165
40
27.8709107
50
338.05047
51
339.4024241
0
ARC
8
DEFAULT_255_2_778
10
-19.8495648
20
15.1453774
40
29.4519891
50
336.8585947
51
338.0522109
0
ARC
8
DEFAULT_255_2_778
10
-20.1454766
20
15.2693011
40
29.7727936
50
336.8258517
51
336.8631002
0
ARC
8
DEFAULT_255_2_778
10
-20.8172522
20
15.5567853
40
30.5034986
50
336.7336238
51
336.8259907
0
ARC
8
DEFAULT_255_2_778
10
18.9472693
20
-13.4206665
40
20.6018302
50
122.1500397
51
124.7454013
0
ARC
8
DEFAULT_255_2_778
10
15.7291114
20
-8.0921204
40
14.3782992
50
111.8838507
51
122.5917499
0
ARC
8
DEFAULT_255_2_778
10
13.7972092
20
-3.5203325
40
9.416295
50
106.8649667
51
111.3443291
0
ARC
8
DEFAULT_255_2_778
10
13.3394952
20
-2.0264683
40
7.8538909
50
103.115676
51
106.8311701
0
ARC
8
DEFAULT_255_2_778
10
13.0874553
20
-0.9428542
40
6.7413517
50
98.9444638
51
103.1192978
0
ARC
8
DEFAULT_255_2_778
10
12.9452453
20
-0.0731012
40
5.8600672
50
98.8176768
51
98.8930938
0
ARC
8
DEFAULT_255_2_778
10
12.1694666
20
4.8981939
40
0.82862
50
90.021475
51
98.5026127
0
ARC
8
DEFAULT_255_2_778
10
12.1727391
20
4.9333209
40
0.793501
50
8.9162914
51
90.2587219
0
ARC
8
DEFAULT_255_2_778
10
12.1604297
20
4.9342392
40
0.8055244
50
0.0146833
51
8.7160579
0
ARC
8
DEFAULT_255_2_778
10
12.1666955
20
4.9354758
40
0.7992593
50
279.2486156
51
359.9261566
0
ARC
8
DEFAULT_255_2_778
10
13.1118783
20
-1.0607015
40
5.2709678
50
98.9137907
51
102.2830766
0
ARC
8
DEFAULT_255_2_778
10
13.2774284
20
-1.8205986
40
6.048689
50
102.2840103
51
105.4694934
0
ARC
8
DEFAULT_255_2_778
10
13.5229371
20
-2.708317
40
6.9697311
50
105.4681587
51
108.397699
0
ARC
8
DEFAULT_255_2_778
10
13.8461899
20
-3.6827723
40
7.9964028
50
108.3918391
51
110.9038737
0
ARC
8
DEFAULT_255_2_778
10
14.1018326
20
-4.3625857
40
8.7226857
50
110.8792949
51
111.6559214
0
ARC
8
DEFAULT_255_2_778
10
14.5906809
20
-5.5583869
40
10.0144923
50
111.7306135
51
115.6303061
0
ARC
8
DEFAULT_255_2_778
10
16.5402658
20
-9.4820312
40
14.39551
50
115.8712272
51
122.9891965
0
ARC
8
DEFAULT_255_2_778
10
19.0841991
20
-13.5439224
40
19.1877967
50
122.7567648
51
124.6428144
0
ARC
8
DEFAULT_255_2_778
10
20.05936
20
-14.965336
40
20.9115498
50
124.6270913
51
125.3966564
0
ARC
8
DEFAULT_255_2_778
10
20.9383207
20
-16.1967019
40
22.4244359
50
125.4049515
51
126.8907093
0
ARC
8
DEFAULT_255_2_778
10
21.9314901
20
-17.5230375
40
24.0814057
50
126.8862656
51
128.055369
0
ARC
8
DEFAULT_255_2_778
10
22.5821657
20
-18.3559948
40
25.1383804
50
128.0528577
51
128.9904517
0
ARC
8
DEFAULT_255_2_778
10
22.8996863
20
-18.749216
40
25.6437929
50
128.9890708
51
129.7527403
0
ARC
8
DEFAULT_255_2_778
10
22.9052697
20
-18.756494
40
25.6529587
50
129.7519328
51
130.4575632
0
ARC
8
DEFAULT_255_2_778
10
22.5869195
20
-18.3835436
40
25.1626131
50
130.4570471
51
131.0410635
0
ARC
8
DEFAULT_255_2_778
10
21.9970328
20
-17.7060658
40
24.2643133
50
131.0408654
51
131.5207983
0
ARC
8
DEFAULT_255_2_778
10
21.20793
20
-16.8147142
40
23.0738549
50
131.5209386
51
131.9191377
0
ARC
8
DEFAULT_255_2_778
10
20.2651211
20
-15.7646287
40
21.6626257
50
131.9191617
51
132.2526267
0
ARC
8
DEFAULT_255_2_778
10
18.9955426
20
-14.3682973
40
19.7754135
50
132.2502172
51
132.6677068
0
ARC
8
DEFAULT_255_2_778
10
17.1464204
20
-12.362765
40
17.0475182
50
132.6663179
51
133.0696581
0
ARC
8
DEFAULT_255_2_778
10
15.0206171
20
-10.0883566
40
13.9343246
50
133.0705365
51
133.3878442
0
ARC
8
DEFAULT_255_2_778
10
12.5779658
20
-7.5054852
40
10.3793607
50
133.383074
51
133.7320257
0
ARC
8
DEFAULT_255_2_778
10
9.6682055
20
-4.4644884
40
6.1705169
50
133.7288936
51
134.0324694
0
ARC
8
DEFAULT_255_2_778
10
6.4586981
20
-1.1473267
40
1.5548384
50
133.9655288
51
134.4713845
0
ARC
8
DEFAULT_255_2_778
10
4.8130567
20
0.5316396
40
0.7961338
50
270.0030316
51
314.3364844
0
ARC
8
DEFAULT_255_2_778
10
4.8128121
20
0.2842608
40
0.548755
50
269.9101363
51
270.0299392
0
LINE
8
DEFAULT_255_2_778
10
4.8119514
20
-0.2644933
11
4.8143514
21
-0.2644933
0
ENDSEC
0
EOF