0
SECTION
2
HEADER
9
$MEASUREMENT
70
1
0
ENDSEC
0
SECTION
2
TABLES
0
TABLE
2
LTYPE
0
LTYPE
72
65
70
64
2
CONTINUOUS
3
______
73
0
40
0
0
ENDTAB
0
TABLE
2
LAYER
0
LAYER
2
DEFAULT_255_2_778
70
0
62
255
6
CONTINUOUS
0
ENDTAB
0
ENDSEC
0
SECTION
2
ENTITIES
0
ARC
8
DEFAULT_255_2_778
10
6.8495334
20
9.0976906
40
6.782967
50
88.9170365
51
90.0000311
0
ARC
8
DEFAULT_255_2_778
10
6.8495887
20
9.0968061
40
6.7838516
50
90.000498
51
104.3109082
0
ARC
8
DEFAULT_255_2_778
10
6.3162698
20
11.0720522
40
4.7381583
50
103.9660174
51
105.9134736
0
ARC
8
DEFAULT_255_2_778
10
6.3720729
20
10.8767116
40
4.9413132
50
105.9146914
51
108.0826068
0
ARC
8
DEFAULT_255_2_778
10
6.417856
20
10.7347299
40
5.0904929
50
108.0764446
51
109.0422714
0
ARC
8
DEFAULT_255_2_778
10
6.5483625
20
10.3791765
40
5.4691744
50
109.1193767
51
116.9251529
0
ARC
8
DEFAULT_255_2_778
10
6.7507776
20
9.9753984
40
5.9208419
50
116.9022351
51
126.3297569
0
ARC
8
DEFAULT_255_2_778
10
6.6664973
20
10.0699781
40
5.7947284
50
126.2124314
51
141.0669435
0
ARC
8
DEFAULT_255_2_778
10
6.0175283
20
10.5774927
40
4.9709968
50
140.9167129
51
160.5105034
0
ARC
8
DEFAULT_255_2_778
10
5.5306801
20
10.7697079
40
4.4479538
50
160.7523224
51
173.1838384
0
ARC
8
DEFAULT_255_2_778
10
5.4957949
20
10.776893
40
4.4124634
50
173.2227145
51
180.0099818
0
ARC
8
DEFAULT_255_2_778
10
5.611872
20
10.7774676
40
4.5285408
50
180.0169964
51
186.0340347
0
ARC
8
DEFAULT_255_2_778
10
5.8201695
20
10.7996756
40
4.7380188
50
186.0363193
51
191.3300985
0
ARC
8
DEFAULT_255_2_778
10
6.100578
20
10.8558719
40
5.024003
50
191.3302318
51
196.0353283
0
ARC
8
DEFAULT_255_2_778
10
6.4345238
20
10.9516326
40
5.3714074
50
196.0330767
51
200.1348342
0
ARC
8
DEFAULT_255_2_778
10
6.8232418
20
11.0943223
40
5.7854873
50
200.1364246
51
204.0675902
0
ARC
8
DEFAULT_255_2_778
10
7.2689868
20
11.293183
40
6.2735796
50
204.065688
51
207.6119587
0
ARC
8
DEFAULT_255_2_778
10
7.751195
20
11.5450738
40
6.8176142
50
207.6095033
51
210.7909983
0
ARC
8
DEFAULT_255_2_778
10
8.2612596
20
11.8486523
40
7.4111844
50
210.7885247
51
213.6463194
0
ARC
8
DEFAULT_255_2_778
10
8.7986074
20
12.206042
40
8.0565294
50
213.6448406
51
216.2783411
0
ARC
8
DEFAULT_255_2_778
10
9.3661731
20
12.6223662
40
8.7604161
50
216.2769488
51
218.7064514
0
ARC
8
DEFAULT_255_2_778
10
9.7640004
20
12.9380653
40
9.2682813
50
218.6915248
51
219.4773101
0
ARC
8
DEFAULT_255_2_778
10
6.1354324
20
4.5622033
40
1.1432604
50
221.5341409
51
235.9009266
0
ARC
8
DEFAULT_255_2_778
10
6.0470593
20
4.4312048
40
0.9852401
50
235.8856859
51
259.4396086
0
ARC
8
DEFAULT_255_2_778
10
6.0442178
20
4.4281787
40
0.9817471
50
259.5702664
51
270.0343053
0
ARC
8
DEFAULT_255_2_778
10
6.0445233
20
4.4656451
40
1.0192135
50
270.0158695
51
275.7617022
0
ARC
8
DEFAULT_255_2_778
10
6.0289343
20
4.5705067
40
1.1251212
50
276.0154586
51
295.1132967
0
ARC
8
DEFAULT_255_2_778
10
5.9413199
20
4.7629041
40
1.3365178
50
295.0137063
51
308.7667735
0
ARC
8
DEFAULT_255_2_778
10
5.8689097
20
4.8604311
40
1.4579068
50
308.5856632
51
309.4735215
0
ARC
8
DEFAULT_255_2_778
10
5.972916
20
4.7413485
40
1.2998737
50
309.2716044
51
328.984236
0
ARC
8
DEFAULT_255_2_778
10
6.1604344
20
4.6358445
40
1.08482
50
328.6565794
51
359.194093
0
ARC
8
DEFAULT_255_2_778
10
6.2475684
20
4.6250975
40
0.9975888
50
359.7408951
51
359.9974342
0
ARC
8
DEFAULT_255_2_778
10
6.085267
20
4.624812
40
1.1598901
50
0.011897
51
0.0594848
0
ARC
8
DEFAULT_255_2_778
10
6.2891999
20
4.6262771
40
0.9559568
50
359.9843597
51
25.4222866
0
ARC
8
DEFAULT_255_2_778
10
6.2207409
20
4.5922448
40
1.0323974
50
25.4971159
51
39.6595378
0
ARC
8
DEFAULT_255_2_778
10
8.0455323
20
10.5565136
40
4.1583766
50
214.8967739
51
219.4806264
0
ARC
8
DEFAULT_255_2_778
10
7.7596906
20
10.3579206
40
3.8103189
50
209.2462761
51
214.9065045
0
ARC
8
DEFAULT_255_2_778
10
7.4927049
20
10.2086257
40
3.5044264
50
202.7343322
51
209.2491504
0
ARC
8
DEFAULT_255_2_778
10
7.2727949
20
10.1164456
40
3.2659781
50
195.1928574
51
202.733768
0
ARC
8
DEFAULT_255_2_778
10
7.1296125
20
10.0767931
40
3.1174082
50
187.5061485
51
195.1792015
0
ARC
8
DEFAULT_255_2_778
10
7.0775109
20
10.0691443
40
3.064754
50
181.3994315
51
187.4916206
0
ARC
8
DEFAULT_255_2_778
10
7.0766807
20
10.0690637
40
3.0639222
50
179.9995474
51
181.3983044
0
ARC
8
DEFAULT_255_2_778
10
7.2315788
20
10.0567846
40
3.2188438
50
157.0971152
51
179.7809998
0
ARC
8
DEFAULT_255_2_778
10
7.7222458
20
9.8614597
40
3.7468603
50
145.671378
51
157.2657266
0
ARC
8
DEFAULT_255_2_778
10
8.1642751
20
9.5625871
40
4.2804419
50
136.4580352
51
145.7043538
0
ARC
8
DEFAULT_255_2_778
10
8.5681482
20
9.1811884
40
4.8359377
50
128.6145599
51
136.4788619
0
ARC
8
DEFAULT_255_2_778
10
8.9094538
20
8.7570003
40
5.3803839
50
122.0999106
51
128.6353966
0
ARC
8
DEFAULT_255_2_778
10
7.9379468
20
10.2917351
40
3.5640269
50
113.426302
51
121.9804352
0
ARC
8
DEFAULT_255_2_778
10
8.2111467
20
9.6650706
40
4.2476529
50
105.9719315
51
113.4470498
0
ARC
8
DEFAULT_255_2_778
10
8.4071968
20
8.9824662
40
4.9578529
50
98.6422497
51
105.9794678
0
ARC
8
DEFAULT_255_2_778
10
8.5053299
20
8.3389991
40
5.6087598
50
90.2050872
51
98.6456073
0
ARC
8
DEFAULT_255_2_778
10
8.5122239
20
8.1005568
40
5.8472283
50
90.0003966
51
90.2642761
0
ARC
8
DEFAULT_255_2_778
10
8.5119376
20
8.0762073
40
5.8715778
50
87.3255133
51
89.9976019
0
ARC
8
DEFAULT_255_2_778
10
8.5339366
20
8.2675752
40
5.6794069
50
71.9102304
51
87.4571206
0
ARC
8
DEFAULT_255_2_778
10
8.8428359
20
9.2304514
40
4.6682124
50
61.1183252
51
71.8445816
0
ARC
8
DEFAULT_255_2_778
10
9.3005243
20
10.0531148
40
3.7268095
50
48.333926
51
61.1707866
0
ARC
8
DEFAULT_255_2_778
10
9.7980518
20
10.6105077
40
2.979669
50
31.7385788
51
48.3554761
0
ARC
8
DEFAULT_255_2_778
10
7.3388289
20
10.4373288
40
5.2879892
50
19.2180586
51
51.9374655
0
ARC
8
DEFAULT_255_2_778
10
6.994351
20
10.0442956
40
5.8098891
50
51.6523869
51
67.1143212
0
ARC
8
DEFAULT_255_2_778
10
6.8862334
20
9.7949689
40
6.0816364
50
67.0893994
51
79.6272709
0
ARC
8
DEFAULT_255_2_778
10
6.8401067
20
9.5521661
40
6.3287766
50
79.612279
51
88.7539454
0
ARC
8
DEFAULT_255_2_778
10
7.3874693
20
10.2450704
40
1.1870102
50
89.5625247
51
90.0011899
0
ARC
8
DEFAULT_255_2_778
10
7.3876511
20
10.2387754
40
1.1933052
50
90.0099139
51
130.7231952
0
ARC
8
DEFAULT_255_2_778
10
7.4356756
20
10.133498
40
1.3048228
50
129.3052938
51
148.4254575
0
ARC
8
DEFAULT_255_2_778
10
7.2517535
20
10.2403279
40
1.0922043
50
148.1480443
51
177.1322999
0
ARC
8
DEFAULT_255_2_778
10
7.1471972
20
10.2540534
40
0.9871288
50
177.624354
51
179.998237
0
ARC
8
DEFAULT_255_2_778
10
7.1761488
20
10.2543092
40
1.0160804
50
180.0127098
51
180.063549
0
ARC
8
DEFAULT_255_2_778
10
7.1197611
20
10.2530727
40
0.9596923
50
179.9934601
51
205.3638717
0
ARC
8
DEFAULT_255_2_778
10
7.1911399
20
10.2881937
40
1.0392359
50
205.4277888
51
219.508026
0
ARC
8
DEFAULT_255_2_778
10
5.4055621
20
4.2754829
40
4.1690808
50
34.9443084
51
39.4804397
0
ARC
8
DEFAULT_255_2_778
10
5.693284
20
4.4757436
40
3.8185272
50
29.3565498
51
34.953998
0
ARC
8
DEFAULT_255_2_778
10
5.963175
20
4.6273243
40
3.5089827
50
22.9032984
51
29.3597603
0
ARC
8
DEFAULT_255_2_778
10
6.1871666
20
4.7219726
40
3.2658149
50
15.4219938
51
22.9030493
0
ARC
8
DEFAULT_255_2_778
10
6.3352794
20
4.7635874
40
3.1119689
50
7.7870705
51
15.4085665
0
ARC
8
DEFAULT_255_2_778
10
6.3918731
20
4.7721383
40
3.0547387
50
1.9370664
51
7.7719896
0
ARC
8
DEFAULT_255_2_778
10
6.3941692
20
4.7723312
40
3.0524374
50
359.9998303
51
1.9349035
0
ARC
8
DEFAULT_255_2_778
10
6.2410284
20
4.7846166
40
3.2056017
50
337.0492151
51
359.7802528
0
ARC
8
DEFAULT_255_2_778
10
5.7474358
20
4.9815635
40
3.7369355
50
325.6527089
51
337.2196351
0
ARC
8
DEFAULT_255_2_778
10
5.2997638
20
5.2845696
40
4.2775072
50
316.4311696
51
325.6849658
0
ARC
8
DEFAULT_255_2_778
10
4.8882996
20
5.673493
40
4.8436886
50
308.5953464
51
316.4524423
0
ARC
8
DEFAULT_255_2_778
10
4.5398298
20
6.1068648
40
5.3997808
50
302.0970806
51
308.6166705
0
ARC
8
DEFAULT_255_2_778
10
5.521397
20
4.5553263
40
3.5638425
50
293.4280137
51
301.9826884
0
ARC
8
DEFAULT_255_2_778
10
5.2482437
20
5.181828
40
4.2473008
50
285.9730331
51
293.4487838
0
ARC
8
DEFAULT_255_2_778
10
5.0521948
20
5.8643804
40
4.9574503
50
278.6427796
51
285.9805636
0
ARC
8
DEFAULT_255_2_778
10
4.9540552
20
6.5078385
40
5.6083495
50
270.2050734
51
278.6461556
0
ARC
8
DEFAULT_255_2_778
10
4.9471586
20
6.7465649
40
5.8471021
50
270.0003966
51
270.2642801
0
ARC
8
DEFAULT_255_2_778
10
4.9474407
20
6.770696
40
5.8712331
50
267.3252257
51
269.997642
0
ARC
8
DEFAULT_255_2_778
10
4.9254575
20
6.5795198
40
5.6792542
50
251.9094182
51
267.4567587
0
ARC
8
DEFAULT_255_2_778
10
4.6166084
20
5.6168528
40
4.6682741
50
241.1176316
51
251.8438061
0
ARC
8
DEFAULT_255_2_778
10
4.1589349
20
4.7942368
40
3.7269198
50
228.3334997
51
241.1700674
0
ARC
8
DEFAULT_255_2_778
10
3.6613839
20
4.2368287
40
2.9797525
50
211.7385919
51
228.3550867
0
ARC
8
DEFAULT_255_2_778
10
6.141399
20
4.39802
40
5.3037892
50
199.0220427
51
233.1028842
0
ARC
8
DEFAULT_255_2_778
10
6.4591515
20
4.7720644
40
5.7937657
50
232.8107295
51
246.8899191
0
ARC
8
DEFAULT_255_2_778
10
6.5630075
20
5.010532
40
6.0538605
50
246.8717144
51
258.475819
0
ARC
8
DEFAULT_255_2_778
10
6.6150783
20
5.2628141
40
6.3114595
50
258.4701919
51
268.2352136
0
ARC
8
DEFAULT_255_2_778
10
6.6247268
20
5.4446859
40
6.4935435
50
268.1995415
51
270.0014664
0
ARC
8
DEFAULT_255_2_778
10
6.6241676
20
5.5463861
40
6.5952439
50
270.0063019
51
273.5499876
0
ARC
8
DEFAULT_255_2_778
10
6.6142694
20
5.7037617
40
6.7529303
50
273.5511297
51
277.1883798
0
ARC
8
DEFAULT_255_2_778
10
6.5913477
20
5.8855031
40
6.9361114
50
277.1883788
51
280.6381032
0
ARC
8
DEFAULT_255_2_778
10
6.5533167
20
6.0878561
40
7.1420071
50
280.6382793
51
283.9531135
0
ARC
8
DEFAULT_255_2_778
10
6.5127448
20
6.2551759
40
7.314173
50
283.9455094
51
284.0511022
0
ARC
8
DEFAULT_255_2_778
10
7.1388194
20
3.7722731
40
4.7535591
50
283.99656
51
286.0190536
0
ARC
8
DEFAULT_255_2_778
10
7.0822957
20
3.9691314
40
4.9583715
50
286.0191055
51
288.0656125
0
ARC
8
DEFAULT_255_2_778
10
7.0340989
20
4.1182482
40
5.1150832
50
288.0608938
51
289.2633658
0
ARC
8
DEFAULT_255_2_778
10
6.8975681
20
4.4869477
40
5.5081877
50
289.3387669
51
297.0839877
0
ARC
8
DEFAULT_255_2_778
10
6.6949649
20
4.888488
40
5.9579402
50
297.0605805
51
306.4224639
0
ARC
8
DEFAULT_255_2_778
10
6.7957278
20
4.7739888
40
5.8059954
50
306.2932094
51
321.6341359
0
ARC
8
DEFAULT_255_2_778
10
7.4863824
20
4.2434353
40
4.9351903
50
321.4868277
51
341.4027495
0
ARC
8
DEFAULT_255_2_778
10
7.9741315
20
4.0584413
40
4.4139569
50
341.6595629
51
354.0977221
0
ARC
8
DEFAULT_255_2_778
10
8.0017809
20
4.0529381
40
4.3858889
50
354.1320905
51
0.0074993
0
ARC
8
DEFAULT_255_2_778
10
7.8950445
20
4.0522074
40
4.4926254
50
0.01664
51
6.0754545
0
ARC
8
DEFAULT_255_2_778
10
7.6910908
20
4.0302932
40
4.697753
50
6.0779552
51
11.4109085
0
ARC
8
DEFAULT_255_2_778
10
7.4141033
20
3.9743703
40
4.9803295
50
11.4111057
51
16.15199
0
ARC
8
DEFAULT_255_2_778
10
7.0825714
20
3.8785704
40
5.325425
50
16.1497391
51
20.2825528
0
ARC
8
DEFAULT_255_2_778
10
6.7003054
20
3.7372485
40
5.7329776
50
20.2830193
51
24.1605695
0
ARC
8
DEFAULT_255_2_778
10
6.2607019
20
3.5401253
40
6.2147543
50
24.1599053
51
27.7514003
0
ARC
8
DEFAULT_255_2_778
10
5.778182
20
3.2865744
40
6.7598352
50
27.7489234
51
30.9693769
0
ARC
8
DEFAULT_255_2_778
10
5.2670771
20
2.9802228
40
7.3557206
50
30.9668421
51
33.8579994
0
ARC
8
DEFAULT_255_2_778
10
4.7278522
20
2.6186969
40
8.0049235
50
33.8565454
51
36.5190942
0
ARC
8
DEFAULT_255_2_778
10
4.1582456
20
2.1971963
40
8.713524
50
36.5176146
51
38.9724384
0
ARC
8
DEFAULT_255_2_778
10
3.7598337
20
1.8780717
40
9.2239813
50
38.9570533
51
39.750815
0
ARC
8
DEFAULT_255_2_778
10
7.367451
20
10.4334604
40
0.9845827
50
39.4859727
51
88.1793314
0
LINE
8
DEFAULT_255_2_778
10
2.6100325
20
7.045546
11
4.6933325
21
4.522446
0
LINE
8
DEFAULT_255_2_778
10
4.6933325
20
4.522446
11
5.2796325
21
3.804146
0
LINE
8
DEFAULT_255_2_778
10
7.0155325
20
5.251146
11
6.7769325
21
5.540046
0
LINE
8
DEFAULT_255_2_778
10
6.7769325
20
5.540046
11
6.7875325
21
5.540046
0
LINE
8
DEFAULT_255_2_778
10
6.7875325
20
5.540046
11
6.4483325
21
5.958846
0
LINE
8
DEFAULT_255_2_778
10
6.4483325
20
5.958846
11
4.8359325
21
7.912546
0
LINE
8
DEFAULT_255_2_778
10
6.9777325
20
15.879446
11
6.9777325
21
15.879446
0
LINE
8
DEFAULT_255_2_778
10
6.3893325
20
9.627046
11
6.5192325
21
9.468046
0
LINE
8
DEFAULT_255_2_778
10
6.5192325
20
9.468046
11
8.6234325
21
6.926246
0
LINE
8
DEFAULT_255_2_778
10
10.8515325
20
7.776346
11
8.4057325
21
10.709746
0
LINE
8
DEFAULT_255_2_778
10
8.4057325
20
10.709746
11
8.1273325
21
11.059546
0
LINE
8
DEFAULT_255_2_778
10
7.3987325
20
11.417546
11
7.3965325
21
11.432046
0
ENDSEC
0
EOF