0
SECTION
2
HEADER
9
$MEASUREMENT
70
1
0
ENDSEC
0
SECTION
2
TABLES
0
TABLE
2
LTYPE
0
LTYPE
72
65
70
64
2
CONTINUOUS
3
______
73
0
40
0
0
ENDTAB
0
TABLE
2
LAYER
0
LAYER
2
DEFAULT_255_2_778
70
0
62
255
6
CONTINUOUS
0
ENDTAB
0
ENDSEC
0
SECTION
2
ENTITIES
0
ARC
8
DEFAULT_255_2_778
10
0.928408
20
1.858606
40
1.003352
50
218.8467469
51
219.7018029
0
ARC
8
DEFAULT_255_2_778
10
1.8972642
20
2.6599854
40
2.260686
50
219.6426814
51
220.5574718
0
ARC
8
DEFAULT_255_2_778
10
2.6518695
20
3.3058603
40
3.2539551
50
220.5584195
51
221.9032017
0
ARC
8
DEFAULT_255_2_778
10
3.1579815
20
3.7591427
40
3.933377
50
221.8936934
51
223.5689708
0
ARC
8
DEFAULT_255_2_778
10
3.3515009
20
3.942244
40
4.199789
50
223.5592349
51
225.7774151
0
ARC
8
DEFAULT_255_2_778
10
3.2442724
20
3.82976
40
4.044393
50
225.7546359
51
229.1706113
0
ARC
8
DEFAULT_255_2_778
10
3.0365724
20
3.5918974
40
3.7286162
50
229.1958377
51
230.538813
0
ARC
8
DEFAULT_255_2_778
10
2.7810566
20
3.2762374
40
3.3225164
50
230.4810929
51
234.8314399
0
ARC
8
DEFAULT_255_2_778
10
2.4095938
20
2.7462707
40
2.675333
50
234.7972626
51
240.4181316
0
ARC
8
DEFAULT_255_2_778
10
2.5129557
20
2.9290645
40
2.8853263
50
240.4250888
51
244.1618068
0
ARC
8
DEFAULT_255_2_778
10
2.1707179
20
2.2204034
40
2.0983535
50
244.139066
51
249.3676668
0
ARC
8
DEFAULT_255_2_778
10
2.019887
20
1.8200549
40
1.6705347
50
249.3706189
51
257.6403426
0
ARC
8
DEFAULT_255_2_778
10
2.0137749
20
1.7995767
40
1.6492236
50
257.6954807
51
259.1812128
0
ARC
8
DEFAULT_255_2_778
10
2.0846085
20
2.2541201
40
2.1090424
50
259.6089505
51
268.4802956
0
ARC
8
DEFAULT_255_2_778
10
2.1824806
20
4.7184892
40
4.5752558
50
268.0735358
51
270.121901
0
ARC
8
DEFAULT_255_2_778
10
2.1827721
20
10.4427404
40
10.299501
50
270.0525296
51
270.7371167
0
ARC
8
DEFAULT_255_2_778
10
1.8182092
20
39.7184574
40
39.5774871
50
270.7196108
51
270.8861157
0
ARC
8
DEFAULT_255_2_778
10
5.056969
20
-175.5163883
40
175.6817291
50
90.8511229
51
90.8566858
0
ARC
8
DEFAULT_255_2_778
10
3.2364119
20
-52.6683899
40
52.8202416
50
90.7926679
51
90.8559726
0
ARC
8
DEFAULT_255_2_778
10
2.9373219
20
-31.2841305
40
31.4338913
50
90.750536
51
90.7867864
0
ARC
8
DEFAULT_255_2_778
10
2.5275027
20
4.4247658
40
4.2777022
50
269.9741255
51
272.0842619
0
ARC
8
DEFAULT_255_2_778
10
2.6708524
20
2.6343713
40
2.4845078
50
270.28197
51
299.3002833
0
ARC
8
DEFAULT_255_2_778
10
2.9049646
20
2.1069946
40
1.9107898
50
300.9176028
51
311.5391957
0
ARC
8
DEFAULT_255_2_778
10
-4.0935387
20
10.028775
40
12.4812023
50
311.4712893
51
312.124595
0
ARC
8
DEFAULT_255_2_778
10
0.9060477
20
4.5078846
40
5.032979
50
312.0674098
51
313.7908145
0
ARC
8
DEFAULT_255_2_778
10
2.7843798
20
2.5531331
40
2.3220449
50
313.7125435
51
317.2886255
0
ARC
8
DEFAULT_255_2_778
10
3.6233353
20
1.782839
40
1.1831065
50
317.139883
51
324.4074615
0
ARC
8
DEFAULT_255_2_778
10
3.8574851
20
1.608235
40
0.891097
50
324.7742607
51
325.3714742
0
ARC
8
DEFAULT_255_2_778
10
3.982908
20
1.524884
40
0.7405328
50
325.1636322
51
352.779414
0
ARC
8
DEFAULT_255_2_778
10
3.1850879
20
1.6508539
40
1.548056
50
351.8654438
51
357.8991146
0
ARC
8
DEFAULT_255_2_778
10
1.6630882
20
1.7182586
40
3.0715254
50
357.6833985
51
0.12304
0
ARC
8
DEFAULT_255_2_778
10
0.2398226
20
1.7246738
40
4.4947839
50
0.0023042
51
0.2280509
0
ARC
8
DEFAULT_255_2_778
10
2.8863816
20
1.7302855
40
1.8482301
50
0.3806424
51
3.9143759
0
ARC
8
DEFAULT_255_2_778
10
2.4049327
20
1.6994018
40
2.330665
50
3.8638638
51
7.7234356
0
ARC
8
DEFAULT_255_2_778
10
2.3775054
20
1.6981742
40
2.3580097
50
7.6634297
51
13.6260239
0
ARC
8
DEFAULT_255_2_778
10
2.6551848
20
1.7652113
40
2.0723528
50
13.6333892
51
18.3473998
0
ARC
8
DEFAULT_255_2_778
10
3.2591975
20
1.9904922
40
1.4283282
50
17.3966959
51
39.3205371
0
ARC
8
DEFAULT_255_2_778
10
3.1039828
20
1.8040732
40
1.6671612
50
40.8969263
51
54.5525427
0
ARC
8
DEFAULT_255_2_778
10
2.8055586
20
1.4162254
40
2.15627
50
54.0695707
51
55.5776056
0
ARC
8
DEFAULT_255_2_778
10
2.6240446
20
1.1428118
40
2.4844194
50
55.6889557
51
61.7914162
0
ARC
8
DEFAULT_255_2_778
10
2.4742964
20
0.8714165
40
2.7943677
50
61.7159802
51
65.2656515
0
ARC
8
DEFAULT_255_2_778
10
2.5203114
20
0.974201
40
2.6817599
50
65.2397402
51
67.7471036
0
ARC
8
DEFAULT_255_2_778
10
2.7281693
20
1.4842683
40
2.130967
50
67.726046
51
69.5967691
0
ARC
8
DEFAULT_255_2_778
10
3.0615964
20
2.3825028
40
1.1728448
50
69.5655901
51
70.9095527
0
ARC
8
DEFAULT_255_2_778
10
3.3528618
20
3.2228116
40
0.2834891
50
70.9934442
51
71.3812964
0
ARC
8
DEFAULT_255_2_778
10
3.796249
20
4.88891
40
1.4413112
50
255.4069217
51
255.8281401
0
ARC
8
DEFAULT_255_2_778
10
4.3229678
20
6.9164516
40
3.5361518
50
254.8429928
51
255.425027
0
ARC
8
DEFAULT_255_2_778
10
4.7277699
20
8.4146165
40
5.0880417
50
254.2392878
51
254.8542245
0
ARC
8
DEFAULT_255_2_778
10
4.9666989
20
9.2634072
40
5.9698198
50
253.646006
51
254.2450703
0
ARC
8
DEFAULT_255_2_778
10
5.1139515
20
9.7649899
40
6.4925707
50
252.6014037
51
253.6454443
0
ARC
8
DEFAULT_255_2_778
10
5.117022
20
9.7774845
40
6.5054119
50
251.2136067
51
252.6085039
0
ARC
8
DEFAULT_255_2_778
10
4.9090747
20
9.1725046
40
5.8656948
50
249.0527185
51
251.2335407
0
ARC
8
DEFAULT_255_2_778
10
4.5501103
20
8.2348942
40
4.8617184
50
246.8621388
51
249.0531474
0
ARC
8
DEFAULT_255_2_778
10
3.8307585
20
6.6097027
40
3.0846733
50
238.812377
51
247.2870856
0
ARC
8
DEFAULT_255_2_778
10
3.0319282
20
5.2774208
40
1.5312837
50
230.0459327
51
238.5679865
0
ARC
8
DEFAULT_255_2_778
10
2.5770525
20
4.7379165
40
0.8256156
50
217.5601573
51
230.2009751
0
ARC
8
DEFAULT_255_2_778
10
2.2575999
20
4.4977766
40
0.4260156
50
193.3109947
51
218.148459
0
ARC
8
DEFAULT_255_2_778
10
2.1470301
20
4.4650872
40
0.310955
50
180.0603306
51
192.1401547
0
ARC
8
DEFAULT_255_2_778
10
2.1436477
20
4.4645733
40
0.3075723
50
168.5020224
51
179.9652537
0
ARC
8
DEFAULT_255_2_778
10
2.1641335
20
4.4606301
40
0.3284331
50
163.4720015
51
168.5403083
0
ARC
8
DEFAULT_255_2_778
10
2.1971199
20
4.4336084
40
0.3681147
50
116.1154139
51
160.8996856
0
ARC
8
DEFAULT_255_2_778
10
2.3983153
20
4.0759465
40
0.7781714
50
99.5494864
51
117.8252804
0
ARC
8
DEFAULT_255_2_778
10
2.4820039
20
3.6516032
40
1.2105789
50
89.781782
51
100.123628
0
ARC
8
DEFAULT_255_2_778
10
2.4843278
20
3.4015953
40
1.4605799
50
80.8641917
51
89.910295
0
ARC
8
DEFAULT_255_2_778
10
2.476448
20
3.3434276
40
1.5192614
50
80.6329091
51
80.9190921
0
ARC
8
DEFAULT_255_2_778
10
2.4789446
20
3.3588095
40
1.5036782
50
80.0264889
51
80.6313761
0
ARC
8
DEFAULT_255_2_778
10
2.4068219
20
2.9550089
40
1.913868
50
79.4759813
51
79.9936363
0
ARC
8
DEFAULT_255_2_778
10
2.2433307
20
2.2177603
40
2.6687037
50
68.989396
51
78.9159552
0
ARC
8
DEFAULT_255_2_778
10
1.8967572
20
1.2447517
40
3.7013683
50
67.067323
51
69.3815286
0
ARC
8
DEFAULT_255_2_778
10
1.7392086
20
0.8722415
40
4.1058253
50
64.4386847
51
67.0680466
0
ARC
8
DEFAULT_255_2_778
10
1.7094699
20
0.8072804
40
4.1772602
50
62.8454918
51
64.4551611
0
ARC
8
DEFAULT_255_2_778
10
1.8486004
20
1.0781845
40
3.8727174
50
61.7994675
51
62.8478145
0
ARC
8
DEFAULT_255_2_778
10
2.1490966
20
1.6372567
40
3.2380056
50
60.7682246
51
61.8106583
0
ARC
8
DEFAULT_255_2_778
10
2.6494999
20
2.5311091
40
2.2136152
50
59.9979302
51
60.7726377
0
ARC
8
DEFAULT_255_2_778
10
3.2866239
20
3.6333235
40
0.9405077
50
59.4007304
51
60.0352354
0
ARC
8
DEFAULT_255_2_778
10
3.8815556
20
4.6281713
40
0.7978786
50
40.7092273
51
42.1096929
0
ARC
8
DEFAULT_255_2_778
10
3.1167462
20
3.9401786
40
1.8265985
50
42.0328833
51
43.8026615
0
ARC
8
DEFAULT_255_2_778
10
2.597585
20
3.443567
40
2.5450348
50
43.7816644
51
45.9764617
0
ARC
8
DEFAULT_255_2_778
10
2.3142537
20
3.1513595
40
2.9520501
50
45.9636533
51
48.8375382
0
ARC
8
DEFAULT_255_2_778
10
2.2468715
20
3.0757847
40
3.0532972
50
48.8190476
51
52.7635162
0
ARC
8
DEFAULT_255_2_778
10
2.3040755
20
3.1507527
40
2.9589974
50
52.766982
51
54.8411186
0
ARC
8
DEFAULT_255_2_778
10
2.3903267
20
3.2744957
40
2.8081631
50
54.8259901
51
58.4294987
0
ARC
8
DEFAULT_255_2_778
10
2.5175517
20
3.4829833
40
2.5639242
50
58.4125635
51
63.1484749
0
ARC
8
DEFAULT_255_2_778
10
2.5909072
20
3.6239151
40
2.4050551
50
63.1911232
51
63.9348552
0
ARC
8
DEFAULT_255_2_778
10
2.7496918
20
3.9087975
40
2.079451
50
64.4159458
51
74.0727033
0
ARC
8
DEFAULT_255_2_778
10
2.4941241
20
3.0678311
40
2.9583033
50
73.7825569
51
78.1205314
0
ARC
8
DEFAULT_255_2_778
10
2.3675492
20
2.4623704
40
3.5768526
50
78.1329008
51
84.0753349
0
ARC
8
DEFAULT_255_2_778
10
2.3783141
20
2.6137659
40
3.4251581
50
83.9930376
51
87.8249432
0
ARC
8
DEFAULT_255_2_778
10
2.4047274
20
3.2557755
40
2.7826093
50
87.8667052
51
89.7787818
0
ARC
8
DEFAULT_255_2_778
10
2.4111136
20
4.7199118
40
1.3184594
50
89.810645
51
90.0000433
0
ARC
8
DEFAULT_255_2_778
10
2.4151307
20
4.5696173
40
1.4687595
50
90.1567434
51
98.6364756
0
ARC
8
DEFAULT_255_2_778
10
2.4641663
20
4.2417199
40
1.8003025
50
98.6123194
51
106.0588894
0
ARC
8
DEFAULT_255_2_778
10
2.6436736
20
3.695489
40
2.3749711
50
106.5751989
51
137.990234
0
ARC
8
DEFAULT_255_2_778
10
2.0777265
20
4.208219
40
1.6113082
50
138.0688149
51
154.6734825
0
ARC
8
DEFAULT_255_2_778
10
1.6112039
20
4.4343117
40
1.0929191
50
154.92483
51
170.4059759
0
ARC
8
DEFAULT_255_2_778
10
2.1849775
20
4.3468061
40
1.6732779
50
170.7260281
51
176.9576398
0
ARC
8
DEFAULT_255_2_778
10
2.0511068
20
4.3552928
40
1.5391459
50
177.0086271
51
179.9881023
0
ARC
8
DEFAULT_255_2_778
10
1.8483292
20
4.3452207
40
1.3364087
50
179.5544707
51
224.4014717
0
ARC
8
DEFAULT_255_2_778
10
2.0913399
20
4.5525041
40
1.6552065
50
223.6421395
51
229.1394785
0
ARC
8
DEFAULT_255_2_778
10
3.0413716
20
5.6230115
40
3.0864191
50
228.8022461
51
234.0004023
0
ARC
8
DEFAULT_255_2_778
10
2.7137052
20
5.1715658
40
2.5285944
50
233.9944764
51
239.3003364
0
ARC
8
DEFAULT_255_2_778
10
2.4550117
20
4.7345377
40
2.0207409
50
239.2810444
51
244.7956627
0
ARC
8
DEFAULT_255_2_778
10
2.2473235
20
4.2921994
40
1.532072
50
244.7786995
51
250.0213749
0
ARC
8
DEFAULT_255_2_778
10
2.0804562
20
3.8311449
40
1.0417505
50
249.9827111
51
254.804136
0
ARC
8
DEFAULT_255_2_778
10
1.9449222
20
3.3275943
40
0.5202814
50
254.6724986
51
258.9672567
0
ARC
8
DEFAULT_255_2_778
10
1.8679694
20
2.9366167
40
0.1218055
50
259.3008708
51
260.5502175
0
ARC
8
DEFAULT_255_2_778
10
1.4457898
20
1.2640917
40
1.6036239
50
75.1063312
51
75.4754266
0
ARC
8
DEFAULT_255_2_778
10
0.8263375
20
-1.0688443
40
4.0173993
50
74.5760795
51
75.1203616
0
ARC
8
DEFAULT_255_2_778
10
0.3695038
20
-2.7294906
40
5.7397353
50
74.0503542
51
74.5888822
0
ARC
8
DEFAULT_255_2_778
10
0.0685123
20
-3.7827598
40
6.8351675
50
73.2460691
51
74.050573
0
ARC
8
DEFAULT_255_2_778
10
-0.0616114
20
-4.2174078
40
7.2888752
50
72.2235856
51
73.2515109
0
ARC
8
DEFAULT_255_2_778
10
0.0236599
20
-3.9549633
40
7.0129275
50
70.8220766
51
72.2323668
0
ARC
8
DEFAULT_255_2_778
10
0.4015886
20
-2.8822888
40
5.8756344
50
68.116369
51
70.8667214
0
ARC
8
DEFAULT_255_2_778
10
0.7549415
20
-1.9863632
40
4.9125678
50
67.5577919
51
68.0459185
0
ARC
8
DEFAULT_255_2_778
10
1.3715713
20
-0.5556543
40
3.3548983
50
60.6131805
51
67.9634764
0
ARC
8
DEFAULT_255_2_778
10
2.2160359
20
0.9547686
40
1.6244538
50
52.7591275
51
60.4239553
0
ARC
8
DEFAULT_255_2_778
10
2.692298
20
1.5780976
40
0.8400066
50
41.7225497
51
52.8909913
0
ARC
8
DEFAULT_255_2_778
10
3.0179177
20
1.863396
40
0.4071165
50
21.4405582
51
42.2528226
0
ARC
8
DEFAULT_255_2_778
10
3.1651534
20
1.925154
40
0.2475222
50
0.349533
51
20.5923144
0
ARC
8
DEFAULT_255_2_778
10
2.7161271
20
1.9150466
40
0.6966407
50
339.8989776
51
0.95553
0
ARC
8
DEFAULT_255_2_778
10
2.843792
20
1.8878404
40
0.5676978
50
290.0282355
51
338.0490364
0
ARC
8
DEFAULT_255_2_778
10
2.5852969
20
2.4757241
40
1.2092721
50
278.4665117
51
291.9959536
0
ARC
8
DEFAULT_255_2_778
10
2.4155513
20
3.548239
40
2.2951125
50
270.5426998
51
278.7158529
0
ARC
8
DEFAULT_255_2_778
10
2.3861434
20
4.3900675
40
3.1372548
50
270.7255651
51
270.9341345
0
ARC
8
DEFAULT_255_2_778
10
2.4163439
20
2.0069041
40
0.7539003
50
269.9980695
51
270.72407
0
ARC
8
DEFAULT_255_2_778
10
2.4218904
20
2.1760071
40
0.9230202
50
259.4140477
51
269.6541242
0
ARC
8
DEFAULT_255_2_778
10
2.5039296
20
2.6209643
40
1.3754764
50
251.6208219
51
259.4598822
0
ARC
8
DEFAULT_255_2_778
10
2.6312796
20
3.025873
40
1.7998978
50
249.4044864
51
251.8377762
0
ARC
8
DEFAULT_255_2_778
10
3.0396952
20
4.0094025
40
2.8644653
50
238.1311475
51
248.677625
0
ARC
8
DEFAULT_255_2_778
10
3.6590414
20
5.0779696
40
4.0991337
50
237.6514977
51
238.665004
0
ARC
8
DEFAULT_255_2_778
10
3.91905
20
5.4841312
40
4.5813855
50
234.9872656
51
237.622311
0
ARC
8
DEFAULT_255_2_778
10
4.1425581
20
5.8063906
40
4.9735638
50
233.2474893
51
235.0084689
0
ARC
8
DEFAULT_255_2_778
10
4.0847162
20
5.7299988
40
4.8777463
50
232.0429599
51
233.2549447
0
ARC
8
DEFAULT_255_2_778
10
3.8005431
20
5.3657329
40
4.4157462
50
231.241069
51
232.0431334
0
ARC
8
DEFAULT_255_2_778
10
3.3030528
20
4.7469681
40
3.6217903
50
230.4420536
51
231.2499564
0
ARC
8
DEFAULT_255_2_778
10
2.5463022
20
3.8310772
40
2.4337131
50
229.8381263
51
230.4455269
0
ARC
8
DEFAULT_255_2_778
10
1.6350481
20
2.7521035
40
1.0214215
50
229.3658296
51
229.8673049
0
ARC
8
DEFAULT_255_2_778
10
13.5377513
20
1.468974
40
0.6463928
50
196.6224801
51
198.5160489
0
ARC
8
DEFAULT_255_2_778
10
14.2538198
20
1.7062516
40
1.4007483
50
198.4175844
51
201.0270902
0
ARC
8
DEFAULT_255_2_778
10
14.6340576
20
1.8512142
40
1.8076807
50
200.991491
51
204.5425142
0
ARC
8
DEFAULT_255_2_778
10
14.6962823
20
1.8780237
40
1.8754199
50
204.4979463
51
210.1151913
0
ARC
8
DEFAULT_255_2_778
10
14.5462777
20
1.7903128
40
1.7016552
50
210.0947105
51
215.73261
0
ARC
8
DEFAULT_255_2_778
10
14.3580587
20
1.654107
40
1.4693236
50
215.7074725
51
222.6192253
0
ARC
8
DEFAULT_255_2_778
10
14.2409304
20
1.5489177
40
1.3119077
50
222.7024052
51
225.6082073
0
ARC
8
DEFAULT_255_2_778
10
14.7289803
20
2.0476715
40
2.0097243
50
225.612811
51
227.433509
0
ARC
8
DEFAULT_255_2_778
10
14.7242218
20
2.0423009
40
2.00255
50
227.4298364
51
235.9863421
0
ARC
8
DEFAULT_255_2_778
10
14.7017386
20
2.0081726
40
1.961684
50
235.9730645
51
242.4629294
0
ARC
8
DEFAULT_255_2_778
10
14.6316843
20
1.8721754
40
1.8087061
50
242.4389612
51
247.6099095
0
ARC
8
DEFAULT_255_2_778
10
14.5017981
20
1.5543397
40
1.4653567
50
247.5718804
51
251.7407037
0
ARC
8
DEFAULT_255_2_778
10
14.3195662
20
0.9983768
40
0.8802917
50
251.666709
51
254.9029656
0
ARC
8
DEFAULT_255_2_778
10
14.1588551
20
0.4048348
40
0.2653777
50
255.0268203
51
256.2483247
0
ARC
8
DEFAULT_255_2_778
10
14.6836317
20
1.3391816
40
0.0300391
50
271.1077857
51
272.1735286
0
ARC
8
DEFAULT_255_2_778
10
14.6826387
20
1.3863494
40
0.0772172
50
269.9418374
51
271.1678264
0
ARC
8
DEFAULT_255_2_778
10
14.6866839
20
1.5518876
40
0.2427902
50
259.370413
51
269.0268308
0
ARC
8
DEFAULT_255_2_778
10
14.7165879
20
1.7210234
40
0.4145436
50
246.5951299
51
259.6202637
0
ARC
8
DEFAULT_255_2_778
10
14.7730655
20
1.8517195
40
0.5569205
50
231.9288513
51
246.6039054
0
ARC
8
DEFAULT_255_2_778
10
14.858836
20
1.9667272
40
0.7003575
50
225.422187
51
232.2066625
0
ARC
8
DEFAULT_255_2_778
10
14.7411343
20
1.8559943
40
0.5389053
50
215.9564285
51
226.0726281
0
ARC
8
DEFAULT_255_2_778
10
14.7421557
20
1.8566383
40
0.5401102
50
212.6774694
51
215.9481056
0
ARC
8
DEFAULT_255_2_778
10
14.7629705
20
1.8686346
40
0.5641086
50
196.5084817
51
212.5616284
0
ARC
8
DEFAULT_255_2_778
10
14.7748277
20
1.8736517
40
0.5769044
50
187.1056009
51
196.6515927
0
ARC
8
DEFAULT_255_2_778
10
14.6354704
20
1.8573942
40
0.4366076
50
181.3091579
51
187.2506996
0
ARC
8
DEFAULT_255_2_778
10
14.4305479
20
1.8514008
40
0.2316055
50
180.0291762
51
180.9850883
0
ARC
8
DEFAULT_255_2_778
10
14.3453263
20
1.8513917
40
0.1463839
50
179.2007766
51
180.0426044
0
ARC
8
DEFAULT_255_2_778
10
14.2600278
20
1.852612
40
0.0610766
50
178.5438606
51
179.2292777
0
ARC
8
DEFAULT_255_2_778
10
8.8349907
20
1.8229405
40
3.768931
50
77.5726408
51
79.0019485
0
ARC
8
DEFAULT_255_2_778
10
8.8373527
20
1.8388643
40
3.752849
50
78.990967
51
86.4291598
0
ARC
8
DEFAULT_255_2_778
10
8.8472319
20
1.985857
40
3.6055265
50
86.4403622
51
89.9870398
0
ARC
8
DEFAULT_255_2_778
10
8.8415753
20
2.320415
40
3.2709748
50
89.8866299
51
98.5392496
0
ARC
8
DEFAULT_255_2_778
10
8.7438093
20
2.9557981
40
2.6281194
50
98.4883198
51
107.7373347
0
ARC
8
DEFAULT_255_2_778
10
8.5390461
20
3.5901973
40
1.9614966
50
107.6860025
51
118.2726951
0
ARC
8
DEFAULT_255_2_778
10
8.3868922
20
3.8903633
40
1.6250894
50
118.5609871
51
120.2926013
0
ARC
8
DEFAULT_255_2_778
10
9.5863239
20
2.7025579
40
3.4579873
50
207.5723704
51
214.6078824
0
ARC
8
DEFAULT_255_2_778
10
8.5158407
20
1.954045
40
2.1518093
50
214.3927036
51
229.0695663
0
ARC
8
DEFAULT_255_2_778
10
8.3927896
20
1.8456736
40
1.9894393
50
229.7022295
51
247.3105572
0
ARC
8
DEFAULT_255_2_778
10
8.7763316
20
2.7376725
40
2.9603678
50
247.1212101
51
255.2177843
0
ARC
8
DEFAULT_255_2_778
10
9.0901005
20
3.85382
40
4.1196726
50
254.9590446
51
257.2667062
0
ARC
8
DEFAULT_255_2_778
10
8.7870916
20
2.5002685
40
2.7326238
50
257.2083432
51
261.9433095
0
ARC
8
DEFAULT_255_2_778
10
8.7711606
20
2.3873331
40
2.6185704
50
261.9421192
51
267.4572638
0
ARC
8
DEFAULT_255_2_778
10
8.7676907
20
2.3237119
40
2.5548578
50
267.4717056
51
269.9971691
0
ARC
8
DEFAULT_255_2_778
10
8.7547885
20
2.3333173
40
2.564495
50
270.285439
51
313.0004013
0
ARC
8
DEFAULT_255_2_778
10
8.4083423
20
2.7479449
40
3.1041494
50
312.4576534
51
328.4187068
0
ARC
8
DEFAULT_255_2_778
10
8.0480714
20
2.9739849
40
3.5294444
50
328.3556174
51
341.0861789
0
ARC
8
DEFAULT_255_2_778
10
7.7560542
20
3.0803054
40
3.8401626
50
340.9977938
51
347.4162685
0
ARC
8
DEFAULT_255_2_778
10
9.0141572
20
2.7997844
40
2.5511649
50
347.4091834
51
354.7067264
0
ARC
8
DEFAULT_255_2_778
10
8.9551179
20
2.8062985
40
2.6105536
50
354.683905
51
355.6958501
0
ARC
8
DEFAULT_255_2_778
10
8.9088089
20
2.8093134
40
2.6569582
50
355.7059679
51
0.0106439
0
ARC
8
DEFAULT_255_2_778
10
8.5778856
20
2.7842842
40
2.9879905
50
0.4894138
51
30.2950042
0
ARC
8
DEFAULT_255_2_778
10
8.6368608
20
2.8447111
40
2.906673
50
29.8529683
51
47.1174802
0
ARC
8
DEFAULT_255_2_778
10
9.0462783
20
3.2937127
40
2.299066
50
46.9793284
51
65.4986282
0
ARC
8
DEFAULT_255_2_778
10
9.2436762
20
3.7017871
40
1.8459034
50
65.8210617
51
77.4183374
0
LINE
8
DEFAULT_255_2_778
10
0.972471
20
1.976664
11
0.146971
21
1.229264
0
LINE
8
DEFAULT_255_2_778
10
3.765371
20
4.442864
11
4.486371
21
5.148564
0
LINE
8
DEFAULT_255_2_778
10
0.969871
20
1.976964
11
0.972471
21
1.976664
0
LINE
8
DEFAULT_255_2_778
10
12.251671
20
5.773964
11
12.264071
21
4.640564
0
LINE
8
DEFAULT_255_2_778
10
12.264071
20
4.640564
11
12.911771
21
4.640564
0
LINE
8
DEFAULT_255_2_778
10
12.911771
20
4.640564
11
12.918371
21
1.284064
0
LINE
8
DEFAULT_255_2_778
10
14.095771
20
0.147064
11
15.366371
21
0.147064
0
LINE
8
DEFAULT_255_2_778
10
15.366371
20
0.147064
11
15.372671
21
1.302864
0
LINE
8
DEFAULT_255_2_778
10
15.372671
20
1.302864
11
14.684771
21
1.309164
0
LINE
8
DEFAULT_255_2_778
10
14.198971
20
1.854164
11
14.211471
21
4.650864
0
LINE
8
DEFAULT_255_2_778
10
14.211471
20
4.650864
11
15.457071
21
4.650864
0
LINE
8
DEFAULT_255_2_778
10
15.457071
20
4.650864
11
15.463471
21
5.784364
0
LINE
8
DEFAULT_255_2_778
10
15.463471
20
5.784364
11
14.217771
21
5.790664
0
LINE
8
DEFAULT_255_2_778
10
14.217771
20
5.790664
11
14.205371
21
7.982964
0
LINE
8
DEFAULT_255_2_778
10
14.205371
20
7.982964
11
12.909971
21
7.982964
0
LINE
8
DEFAULT_255_2_778
10
12.909971
20
7.982964
11
12.922371
21
5.778264
0
LINE
8
DEFAULT_255_2_778
10
12.922371
20
5.778264
11
12.251671
21
5.778264
0
LINE
8
DEFAULT_255_2_778
10
12.251671
20
5.778264
11
12.251671
21
5.773964
0
LINE
8
DEFAULT_255_2_778
10
7.567171
20
5.293564
11
8.228671
21
7.979564
0
LINE
8
DEFAULT_255_2_778
10
8.228671
20
7.979564
11
6.908971
21
8.302364
0
LINE
8
DEFAULT_255_2_778
10
6.908971
20
8.302364
11
5.032471
21
0.738764
0
LINE
8
DEFAULT_255_2_778
10
5.032471
20
0.738764
11
6.340571
21
0.361164
0
LINE
8
DEFAULT_255_2_778
10
6.340571
20
0.361164
11
6.521071
21
1.101964
0
LINE
8
DEFAULT_255_2_778
10
9.645771
20
5.503364
11
9.646071
21
5.503564
0
LINE
8
DEFAULT_255_2_778
10
10.025171
20
1.314164
11
8.147171
21
0.797164
0
LINE
8
DEFAULT_255_2_778
10
8.147171
20
0.797164
11
6.746471
21
2.215864
0
LINE
8
DEFAULT_255_2_778
10
6.746471
20
2.215864
11
7.224071
21
4.151564
0
LINE
8
DEFAULT_255_2_778
10
7.224071
20
4.151564
11
9.102571
21
4.668564
0
LINE
8
DEFAULT_255_2_778
10
9.102571
20
4.668564
11
10.505371
21
3.249864
0
LINE
8
DEFAULT_255_2_778
10
10.505371
20
3.249864
11
10.025171
21
1.314164
0
ENDSEC
0
EOF