0
SECTION
2
HEADER
9
$MEASUREMENT
70
1
0
ENDSEC
0
SECTION
2
TABLES
0
TABLE
2
LTYPE
0
LTYPE
72
65
70
64
2
CONTINUOUS
3
______
73
0
40
0
0
ENDTAB
0
TABLE
2
LAYER
0
LAYER
2
DEFAULT_255_2_778
70
0
62
255
6
CONTINUOUS
0
ENDTAB
0
ENDSEC
0
SECTION
2
ENTITIES
0
ARC
8
DEFAULT_255_2_778
10
-0.5095121
20
3.6583694
40
6.5303196
50
84.207397
51
84.2698365
0
ARC
8
DEFAULT_255_2_778
10
-1.4118433
20
-5.2442831
40
15.4785835
50
84.1356367
51
84.2103657
0
ARC
8
DEFAULT_255_2_778
10
-2.5320042
20
-16.1466361
40
26.4383308
50
84.022557
51
84.1348491
0
ARC
8
DEFAULT_255_2_778
10
-3.6611797
20
-26.9372999
40
37.2879143
50
83.9111758
51
84.023587
0
ARC
8
DEFAULT_255_2_778
10
-4.6755281
20
-36.4460085
40
46.8505731
50
83.7799585
51
83.9111315
0
ARC
8
DEFAULT_255_2_778
10
-5.5707746
20
-44.663846
40
55.1170306
50
83.6400556
51
83.7803769
0
ARC
8
DEFAULT_255_2_778
10
-6.3314069
20
-51.4918256
40
61.9872466
50
83.491909
51
83.640437
0
ARC
8
DEFAULT_255_2_778
10
-6.9109282
20
-56.5766165
40
67.1049555
50
83.3453875
51
83.4923712
0
ARC
8
DEFAULT_255_2_778
10
-7.3436585
20
-60.2890921
40
70.8425657
50
83.200843
51
83.3457121
0
ARC
8
DEFAULT_255_2_778
10
-7.6311743
20
-62.7029683
40
73.2735047
50
83.0583185
51
83.2010647
0
ARC
8
DEFAULT_255_2_778
10
-7.8571819
20
-64.5586053
40
75.1428543
50
82.8455506
51
83.0582572
0
ARC
8
DEFAULT_255_2_778
10
-7.9596815
20
-65.3777047
40
75.9683421
50
82.6038343
51
82.8457865
0
ARC
8
DEFAULT_255_2_778
10
-7.8949028
20
-64.8823364
40
75.4687565
50
82.3377616
51
82.604192
0
ARC
8
DEFAULT_255_2_778
10
-7.6940243
20
-63.3902891
40
73.9632474
50
82.0861752
51
82.3378745
0
ARC
8
DEFAULT_255_2_778
10
-7.3224244
20
-60.724249
40
71.2714348
50
81.7266377
51
82.0869719
0
ARC
8
DEFAULT_255_2_778
10
-6.711447
20
-56.5303459
40
67.0332613
50
81.292875
51
81.7276056
0
ARC
8
DEFAULT_255_2_778
10
-5.761808
20
-50.3556025
40
60.7859216
50
80.6419716
51
81.2965876
0
ARC
8
DEFAULT_255_2_778
10
-4.247997
20
-41.2224105
40
51.5281283
50
79.6302036
51
80.6515098
0
ARC
8
DEFAULT_255_2_778
10
-2.0042953
20
-29.061445
40
39.1619306
50
77.9630797
51
79.656645
0
ARC
8
DEFAULT_255_2_778
10
0.1920567
20
-18.7087248
40
28.5788019
50
76.5161117
51
77.9411977
0
ARC
8
DEFAULT_255_2_778
10
1.7710431
20
-12.1183121
40
21.8018751
50
75.0370215
51
76.5128615
0
ARC
8
DEFAULT_255_2_778
10
3.0938463
20
-7.1700085
40
16.6798133
50
73.4050653
51
75.038135
0
ARC
8
DEFAULT_255_2_778
10
4.2277638
20
-3.3658143
40
12.7102212
50
71.6048783
51
73.4059471
0
ARC
8
DEFAULT_255_2_778
10
5.216961
20
-0.3952241
40
9.5792603
50
69.4767084
51
71.6122243
0
ARC
8
DEFAULT_255_2_778
10
6.0924236
20
1.9405534
40
7.0848084
50
66.9610399
51
69.4848029
0
ARC
8
DEFAULT_255_2_778
10
6.8659186
20
3.7551994
40
5.1121879
50
63.8155723
51
66.979262
0
ARC
8
DEFAULT_255_2_778
10
7.5406992
20
5.1247297
40
3.5854462
50
59.920477
51
63.8349381
0
ARC
8
DEFAULT_255_2_778
10
8.1223467
20
6.1250207
40
2.428342
50
54.7154172
51
59.9669576
0
ARC
8
DEFAULT_255_2_778
10
8.6198723
20
6.8245555
40
1.5699282
50
47.5028178
51
54.7901917
0
ARC
8
DEFAULT_255_2_778
10
9.0256877
20
7.2641627
40
0.9716537
50
36.9066244
51
47.6345236
0
ARC
8
DEFAULT_255_2_778
10
9.3382812
20
7.4951048
40
0.5830236
50
18.7650847
51
37.2065201
0
ARC
8
DEFAULT_255_2_778
10
9.4881676
20
7.5497747
40
0.4235325
50
0.1600771
51
18.2852102
0
ARC
8
DEFAULT_255_2_778
10
9.8055401
20
11.4542236
40
0.1062467
50
2.338036
51
12.0664795
0
ARC
8
DEFAULT_255_2_778
10
9.633546
20
11.4199272
40
0.2816207
50
11.5749163
51
22.5140965
0
ARC
8
DEFAULT_255_2_778
10
9.4279459
20
11.3361964
40
0.5036145
50
22.3574207
51
32.3766625
0
ARC
8
DEFAULT_255_2_778
10
9.1687286
20
11.1736581
40
0.8095734
50
32.2679998
51
40.5463427
0
ARC
8
DEFAULT_255_2_778
10
8.8516805
20
10.9048187
40
1.2252559
50
40.4614512
51
46.9951216
0
ARC
8
DEFAULT_255_2_778
10
8.4693259
20
10.4965701
40
1.7845957
50
46.9577512
51
52.4376701
0
ARC
8
DEFAULT_255_2_778
10
8.0277134
20
9.9257697
40
2.5062823
50
52.3899274
51
56.6681418
0
ARC
8
DEFAULT_255_2_778
10
7.5293117
20
9.1696332
40
3.4119015
50
56.6525573
51
60.3524016
0
ARC
8
DEFAULT_255_2_778
10
6.9789065
20
8.2065399
40
4.5211768
50
60.3278055
51
63.2925976
0
ARC
8
DEFAULT_255_2_778
10
6.3855502
20
7.029131
40
5.8396465
50
63.2839141
51
65.8836006
0
ARC
8
DEFAULT_255_2_778
10
5.7406319
20
5.5916199
40
7.4151961
50
65.8737646
51
68.097484
0
ARC
8
DEFAULT_255_2_778
10
5.043244
20
3.8588499
40
9.2830401
50
68.0933015
51
70.0995413
0
ARC
8
DEFAULT_255_2_778
10
4.2954445
20
1.7967544
40
11.4765397
50
70.0933793
51
71.8361653
0
ARC
8
DEFAULT_255_2_778
10
3.5473274
20
-0.4772574
40
13.87045
50
71.8281181
51
73.2499347
0
ARC
8
DEFAULT_255_2_778
10
2.8911868
20
-2.6478094
40
16.1380058
50
73.2401571
51
74.2318319
0
ARC
8
DEFAULT_255_2_778
10
2.2048824
20
-5.0858834
40
18.6708332
50
74.2381469
51
75.4515888
0
ARC
8
DEFAULT_255_2_778
10
1.4034181
20
-8.1706443
40
21.8580096
50
75.4492811
51
76.5335438
0
ARC
8
DEFAULT_255_2_778
10
0.8626222
20
-10.4069458
40
24.158766
50
76.5213382
51
76.8656646
0
ARC
8
DEFAULT_255_2_778
10
0.4603578
20
-12.1373862
40
25.9353466
50
76.8689241
51
77.4891731
0
ARC
8
DEFAULT_255_2_778
10
-0.0571731
20
-14.4680912
40
28.3228189
50
77.4884542
51
78.0454299
0
ARC
8
DEFAULT_255_2_778
10
-0.5494601
20
-16.7918318
40
30.698133
50
78.0449076
51
78.5470204
0
ARC
8
DEFAULT_255_2_778
10
-1.02283
20
-19.1268486
40
33.0806491
50
78.5465101
51
79.0003022
0
ARC
8
DEFAULT_255_2_778
10
-1.4717391
20
-21.4352082
40
35.4322535
50
78.9999496
51
79.4113458
0
ARC
8
DEFAULT_255_2_778
10
-1.8991409
20
-23.7203244
40
37.756996
50
79.4110144
51
79.7848821
0
ARC
8
DEFAULT_255_2_778
10
-2.3050753
20
-25.9719945
40
40.0449647
50
79.7846263
51
80.1251574
0
ARC
8
DEFAULT_255_2_778
10
-2.7836089
20
-28.7274967
40
42.8417101
50
80.1266488
51
80.5899298
0
ARC
8
DEFAULT_255_2_778
10
-3.3241029
20
-31.9856974
40
46.1444372
50
80.5893
51
80.9940655
0
ARC
8
DEFAULT_255_2_778
10
-3.8780895
20
-35.4843837
40
49.6867115
50
80.9946605
51
81.436794
0
ARC
8
DEFAULT_255_2_778
10
-4.454324
20
-39.3089375
40
53.5544314
50
81.4364373
51
81.8376938
0
ARC
8
DEFAULT_255_2_778
10
-4.9843408
20
-43.0001943
40
57.2835459
50
81.8371224
51
82.1767268
0
ARC
8
DEFAULT_255_2_778
10
-5.4455154
20
-46.3531804
40
60.6680987
50
82.1762729
51
82.465203
0
ARC
8
DEFAULT_255_2_778
10
-5.9508366
20
-50.1802681
40
64.528403
50
82.4659857
51
82.8338324
0
ARC
8
DEFAULT_255_2_778
10
-6.5138037
20
-54.6548352
40
69.0382457
50
82.8335179
51
83.1706981
0
ARC
8
DEFAULT_255_2_778
10
-7.0321591
20
-58.9789748
40
73.3933434
50
83.1703183
51
83.4623775
0
ARC
8
DEFAULT_255_2_778
10
-7.5502943
20
-63.5047644
40
77.9486957
50
83.4627601
51
83.7817001
0
ARC
8
DEFAULT_255_2_778
10
-8.0525984
20
-68.1079154
40
82.5791718
50
83.7811798
51
84.0394835
0
ARC
8
DEFAULT_255_2_778
10
-8.5082981
20
-72.471786
40
86.9667714
50
84.039432
51
84.2912082
0
LINE
8
DEFAULT_255_2_778
10
9.9116984
20
7.550958
11
9.9116984
21
11.458558
0
LINE
8
DEFAULT_255_2_778
10
0.1424984
20
14.063658
11
0.1424984
21
10.156058
0
ARC
8
DEFAULT_255_2_778
10
-0.5095134
20
-1.5518398
40
6.530333
50
84.207397
51
84.2698365
0
ARC
8
DEFAULT_255_2_778
10
-1.4278546
20
-10.6083378
40
15.6332724
50
84.1348769
51
84.2088666
0
ARC
8
DEFAULT_255_2_778
10
-2.5245195
20
-21.279762
40
26.3608989
50
84.0212921
51
84.1339142
0
ARC
8
DEFAULT_255_2_778
10
-3.6519094
20
-32.0530421
40
37.1930071
50
83.9099419
51
84.0226402
0
ARC
8
DEFAULT_255_2_778
10
-4.6713079
20
-41.6081684
40
46.8023574
50
83.7787224
51
83.9100308
0
ARC
8
DEFAULT_255_2_778
10
-5.5801133
20
-49.949872
40
55.1934211
50
83.63914
51
83.7792674
0
ARC
8
DEFAULT_255_2_778
10
-6.3395706
20
-56.764837
40
62.0505722
50
83.4909925
51
83.6393693
0
ARC
8
DEFAULT_255_2_778
10
-6.9186803
20
-61.8431973
40
67.161845
50
83.3443916
51
83.4912511
0
ARC
8
DEFAULT_255_2_778
10
-7.3503487
20
-65.5452881
40
70.8890174
50
83.1998738
51
83.3446483
0
ARC
8
DEFAULT_255_2_778
10
-7.6370776
20
-67.9515124
40
73.312265
50
83.057359
51
83.20003
0
ARC
8
DEFAULT_255_2_778
10
-7.8623038
20
-69.7997894
40
75.1742141
50
82.8446163
51
83.0572347
0
ARC
8
DEFAULT_255_2_778
10
-7.9638138
20
-70.6106496
40
75.9914035
50
82.6029495
51
82.8448288
0
ARC
8
DEFAULT_255_2_778
10
-7.9032822
20
-70.1465213
40
75.5233445
50
82.3369189
51
82.6031573
0
ARC
8
DEFAULT_255_2_778
10
-7.6969626
20
-68.6133514
40
73.9763546
50
82.0852887
51
82.336944
0
ARC
8
DEFAULT_255_2_778
10
-7.3247467
20
-65.9432163
40
71.2804012
50
81.7257994
51
82.0860891
0
ARC
8
DEFAULT_255_2_778
10
-6.7152567
20
-61.7595809
40
67.0526025
50
81.2921128
51
81.7267189
0
ARC
8
DEFAULT_255_2_778
10
-5.7630279
20
-55.5684679
40
60.7886899
50
80.6412363
51
81.2958238
0
ARC
8
DEFAULT_255_2_778
10
-4.2495498
20
-46.4382533
40
51.5338886
50
79.6296206
51
80.6508146
0
ARC
8
DEFAULT_255_2_778
10
-2.0056392
20
-34.276872
40
39.1672441
50
77.9627271
51
79.6560653
0
ARC
8
DEFAULT_255_2_778
10
0.1911205
20
-23.9225345
40
28.5824487
50
76.5159346
51
77.9408403
0
ARC
8
DEFAULT_255_2_778
10
1.7704488
20
-17.3308186
40
21.8041749
50
75.0370199
51
76.5127049
0
ARC
8
DEFAULT_255_2_778
10
3.0936083
20
-12.3812594
40
16.6808081
50
73.4052305
51
75.0382019
0
ARC
8
DEFAULT_255_2_778
10
4.2273341
20
-8.577662
40
12.7118426
50
71.6052683
51
73.4061042
0
ARC
8
DEFAULT_255_2_778
10
5.2166492
20
-5.6066603
40
9.5804542
50
69.4773898
51
71.6126324
0
ARC
8
DEFAULT_255_2_778
10
6.0923365
20
-3.2702019
40
7.0852859
50
66.9619165
51
69.4854952
0
ARC
8
DEFAULT_255_2_778
10
6.8657798
20
-1.4556113
40
5.1127368
50
63.8168636
51
66.9801855
0
ARC
8
DEFAULT_255_2_778
10
7.5406908
20
-0.0857415
40
3.5856329
50
59.9220503
51
63.836254
0
ARC
8
DEFAULT_255_2_778
10
8.1223281
20
0.9145861
40
2.4285022
50
54.7175531
51
59.9686371
0
ARC
8
DEFAULT_255_2_778
10
8.6198962
20
1.6142373
40
1.5699689
50
47.5053556
51
54.7923048
0
ARC
8
DEFAULT_255_2_778
10
9.0257438
20
2.0539167
40
0.9716193
50
36.9094238
51
47.6371557
0
ARC
8
DEFAULT_255_2_778
10
9.338358
20
2.2848969
40
0.5829498
50
18.7671776
51
37.2094388
0
ARC
8
DEFAULT_255_2_778
10
9.4882611
20
2.3395782
40
0.423439
50
0.16018
51
18.2872569
0
ARC
8
DEFAULT_255_2_778
10
9.8055401
20
6.2440277
40
0.1062467
50
2.338036
51
12.0664795
0
ARC
8
DEFAULT_255_2_778
10
9.633546
20
6.2097313
40
0.2816207
50
11.5749163
51
22.5140965
0
ARC
8
DEFAULT_255_2_778
10
9.4279459
20
6.1260004
40
0.5036145
50
22.3574207
51
32.3766625
0
ARC
8
DEFAULT_255_2_778
10
9.1687286
20
5.9634621
40
0.8095734
50
32.2679998
51
40.5463427
0
ARC
8
DEFAULT_255_2_778
10
8.8516805
20
5.6946227
40
1.2252559
50
40.4614512
51
46.9951216
0
ARC
8
DEFAULT_255_2_778
10
8.4693259
20
5.2863742
40
1.7845957
50
46.9577512
51
52.4376701
0
ARC
8
DEFAULT_255_2_778
10
8.0277134
20
4.7155738
40
2.5062823
50
52.3899274
51
56.6681418
0
ARC
8
DEFAULT_255_2_778
10
7.5293117
20
3.9594372
40
3.4119015
50
56.6525573
51
60.3524016
0
ARC
8
DEFAULT_255_2_778
10
6.9789065
20
2.9963439
40
4.5211768
50
60.3278055
51
63.2925976
0
ARC
8
DEFAULT_255_2_778
10
6.3855502
20
1.818935
40
5.8396465
50
63.2839141
51
65.8836006
0
ARC
8
DEFAULT_255_2_778
10
5.7406319
20
0.3814239
40
7.4151961
50
65.8737646
51
68.097484
0
ARC
8
DEFAULT_255_2_778
10
5.043244
20
-1.351346
40
9.2830401
50
68.0933015
51
70.0995413
0
ARC
8
DEFAULT_255_2_778
10
4.2954445
20
-3.4134415
40
11.4765397
50
70.0933793
51
71.8361653
0
ARC
8
DEFAULT_255_2_778
10
3.5473274
20
-5.6874534
40
13.87045
50
71.8281181
51
73.2499347
0
ARC
8
DEFAULT_255_2_778
10
2.8911868
20
-7.8580053
40
16.1380058
50
73.2401571
51
74.2318319
0
ARC
8
DEFAULT_255_2_778
10
2.2048824
20
-10.2960794
40
18.6708332
50
74.2381469
51
75.4515888
0
ARC
8
DEFAULT_255_2_778
10
1.4034181
20
-13.3808403
40
21.8580096
50
75.4492811
51
76.5335438
0
ARC
8
DEFAULT_255_2_778
10
0.8626222
20
-15.6171417
40
24.158766
50
76.5213382
51
76.8656646
0
ARC
8
DEFAULT_255_2_778
10
0.4603578
20
-17.3475821
40
25.9353466
50
76.8689241
51
77.4891731
0
ARC
8
DEFAULT_255_2_778
10
-0.0571731
20
-19.6782872
40
28.3228189
50
77.4884542
51
78.0454299
0
ARC
8
DEFAULT_255_2_778
10
-0.5494601
20
-22.0020278
40
30.698133
50
78.0449076
51
78.5470204
0
ARC
8
DEFAULT_255_2_778
10
-1.02283
20
-24.3370446
40
33.0806491
50
78.5465101
51
79.0003022
0
ARC
8
DEFAULT_255_2_778
10
-1.4717391
20
-26.6454041
40
35.4322535
50
78.9999496
51
79.4113458
0
ARC
8
DEFAULT_255_2_778
10
-1.8991409
20
-28.9305203
40
37.756996
50
79.4110144
51
79.7848821
0
ARC
8
DEFAULT_255_2_778
10
-2.3050753
20
-31.1821905
40
40.0449647
50
79.7846263
51
80.1251574
0
ARC
8
DEFAULT_255_2_778
10
-2.7836089
20
-33.9376927
40
42.8417101
50
80.1266488
51
80.5899298
0
ARC
8
DEFAULT_255_2_778
10
-3.3241029
20
-37.1958934
40
46.1444372
50
80.5893
51
80.9940655
0
ARC
8
DEFAULT_255_2_778
10
-3.8780895
20
-40.6945797
40
49.6867115
50
80.9946605
51
81.436794
0
ARC
8
DEFAULT_255_2_778
10
-4.454324
20
-44.5191334
40
53.5544314
50
81.4364373
51
81.8376938
0
ARC
8
DEFAULT_255_2_778
10
-4.9843408
20
-48.2103902
40
57.2835459
50
81.8371224
51
82.1767268
0
ARC
8
DEFAULT_255_2_778
10
-5.4455154
20
-51.5633764
40
60.6680987
50
82.1762729
51
82.465203
0
ARC
8
DEFAULT_255_2_778
10
-5.9508366
20
-55.3904641
40
64.528403
50
82.4659857
51
82.8338324
0
ARC
8
DEFAULT_255_2_778
10
-6.5138037
20
-59.8650311
40
69.0382457
50
82.8335179
51
83.1706981
0
ARC
8
DEFAULT_255_2_778
10
-7.0321591
20
-64.1891708
40
73.3933434
50
83.1703183
51
83.4623775
0
ARC
8
DEFAULT_255_2_778
10
-7.5502943
20
-68.7149604
40
77.9486957
50
83.4627601
51
83.7817001
0
ARC
8
DEFAULT_255_2_778
10
-8.0525984
20
-73.3181114
40
82.5791718
50
83.7811798
51
84.0394835
0
ARC
8
DEFAULT_255_2_778
10
-8.5082981
20
-77.6819819
40
86.9667714
50
84.039432
51
84.2912082
0
LINE
8
DEFAULT_255_2_778
10
9.9116984
20
2.340762
11
9.9116984
21
6.248362
0
LINE
8
DEFAULT_255_2_778
10
0.1424984
20
8.853462
11
0.1424984
21
4.945862
0
ARC
8
DEFAULT_255_2_778
10
9.8055401
20
12.7654923
40
0.1062467
50
347.9335205
51
357.661964
0
ARC
8
DEFAULT_255_2_778
10
9.633546
20
12.7997888
40
0.2816207
50
337.4859035
51
348.4250837
0
ARC
8
DEFAULT_255_2_778
10
9.4279459
20
12.8835196
40
0.5036145
50
327.6233375
51
337.6425793
0
ARC
8
DEFAULT_255_2_778
10
9.1687286
20
13.0460579
40
0.8095734
50
319.4536573
51
327.7320002
0
ARC
8
DEFAULT_255_2_778
10
8.8516805
20
13.3148973
40
1.2252559
50
313.0048784
51
319.5385488
0
ARC
8
DEFAULT_255_2_778
10
8.4693259
20
13.7231459
40
1.7845957
50
307.5623299
51
313.0422488
0
ARC
8
DEFAULT_255_2_778
10
8.0277134
20
14.2939462
40
2.5062823
50
303.3318582
51
307.6100726
0
ARC
8
DEFAULT_255_2_778
10
7.5293117
20
15.0500828
40
3.4119015
50
299.6475984
51
303.3474427
0
ARC
8
DEFAULT_255_2_778
10
6.9789065
20
16.0131761
40
4.5211768
50
296.7074024
51
299.6721945
0
ARC
8
DEFAULT_255_2_778
10
6.3855502
20
17.190585
40
5.8396465
50
294.1163994
51
296.7160859
0
ARC
8
DEFAULT_255_2_778
10
5.7406319
20
18.6280961
40
7.4151961
50
291.902516
51
294.1262354
0
ARC
8
DEFAULT_255_2_778
10
5.043244
20
20.360866
40
9.2830401
50
289.9004587
51
291.9066985
0
ARC
8
DEFAULT_255_2_778
10
4.2954445
20
22.4229616
40
11.4765397
50
288.1638347
51
289.9066207
0
ARC
8
DEFAULT_255_2_778
10
3.5473274
20
24.6969734
40
13.87045
50
286.7500653
51
288.1718819
0
ARC
8
DEFAULT_255_2_778
10
2.8911868
20
26.8675254
40
16.1380058
50
285.7681681
51
286.7598429
0
ARC
8
DEFAULT_255_2_778
10
2.2048824
20
29.3055994
40
18.6708332
50
284.5484112
51
285.7618531
0
ARC
8
DEFAULT_255_2_778
10
1.4034181
20
32.3903603
40
21.8580096
50
283.4664562
51
284.5507189
0
ARC
8
DEFAULT_255_2_778
10
0.8626222
20
34.6266617
40
24.158766
50
283.1343354
51
283.4786618
0
ARC
8
DEFAULT_255_2_778
10
0.4603578
20
36.3571021
40
25.9353466
50
282.5108269
51
283.1310759
0
ARC
8
DEFAULT_255_2_778
10
-0.0571731
20
38.6878072
40
28.3228189
50
281.9545701
51
282.5115458
0
ARC
8
DEFAULT_255_2_778
10
-0.5494601
20
41.0115478
40
30.698133
50
281.4529796
51
281.9550924
0
ARC
8
DEFAULT_255_2_778
10
-1.02283
20
43.3465646
40
33.0806491
50
280.9996978
51
281.4534899
0
ARC
8
DEFAULT_255_2_778
10
-1.4717391
20
45.6549241
40
35.4322535
50
280.5886542
51
281.0000504
0
ARC
8
DEFAULT_255_2_778
10
-1.8991409
20
47.9400404
40
37.756996
50
280.2151179
51
280.5889856
0
ARC
8
DEFAULT_255_2_778
10
-2.3050753
20
50.1917105
40
40.0449647
50
279.8748426
51
280.2153737
0
ARC
8
DEFAULT_255_2_778
10
-2.7836089
20
52.9472127
40
42.8417101
50
279.4100702
51
279.8733512
0
ARC
8
DEFAULT_255_2_778
10
-3.3241029
20
56.2054134
40
46.1444372
50
279.0059345
51
279.4107
0
ARC
8
DEFAULT_255_2_778
10
-3.8780895
20
59.7040997
40
49.6867115
50
278.563206
51
279.0053395
0
ARC
8
DEFAULT_255_2_778
10
-4.454324
20
63.5286535
40
53.5544314
50
278.1623062
51
278.5635627
0
ARC
8
DEFAULT_255_2_778
10
-4.9843408
20
67.2199102
40
57.2835459
50
277.8232732
51
278.1628776
0
ARC
8
DEFAULT_255_2_778
10
-5.4455154
20
70.5728964
40
60.6680987
50
277.534797
51
277.8237271
0
ARC
8
DEFAULT_255_2_778
10
-5.9508366
20
74.3999841
40
64.528403
50
277.1661676
51
277.5340143
0
ARC
8
DEFAULT_255_2_778
10
-6.5138037
20
78.8745512
40
69.0382457
50
276.8293019
51
277.1664821
0
ARC
8
DEFAULT_255_2_778
10
-7.0321591
20
83.1986908
40
73.3933434
50
276.5376225
51
276.8296817
0
ARC
8
DEFAULT_255_2_778
10
-7.5502943
20
87.7244804
40
77.9486957
50
276.2182999
51
276.5372399
0
ARC
8
DEFAULT_255_2_778
10
-8.0525984
20
92.3276314
40
82.5791718
50
275.9605165
51
276.2188202
0
ARC
8
DEFAULT_255_2_778
10
-8.5082981
20
96.691502
40
86.9667714
50
275.7087918
51
275.960568
0
ARC
8
DEFAULT_255_2_778
10
-0.5095121
20
20.5613466
40
6.5303196
50
275.7301635
51
275.792603
0
ARC
8
DEFAULT_255_2_778
10
-1.4118433
20
29.4639991
40
15.4785835
50
275.7896343
51
275.8643633
0
ARC
8
DEFAULT_255_2_778
10
-2.5320042
20
40.366352
40
26.4383308
50
275.8651509
51
275.977443
0
ARC
8
DEFAULT_255_2_778
10
-3.6611797
20
51.1570158
40
37.2879143
50
275.976413
51
276.0888242
0
ARC
8
DEFAULT_255_2_778
10
-4.6755281
20
60.6657245
40
46.8505731
50
276.0888685
51
276.2200415
0
ARC
8
DEFAULT_255_2_778
10
-5.5707746
20
68.8835619
40
55.1170306
50
276.2196231
51
276.3599444
0
ARC
8
DEFAULT_255_2_778
10
-6.3314069
20
75.7115416
40
61.9872466
50
276.359563
51
276.508091
0
ARC
8
DEFAULT_255_2_778
10
-6.9109282
20
80.7963325
40
67.1049555
50
276.5076288
51
276.6546125
0
ARC
8
DEFAULT_255_2_778
10
-7.3436585
20
84.508808
40
70.8425657
50
276.6542879
51
276.799157
0
ARC
8
DEFAULT_255_2_778
10
-7.6311743
20
86.9226843
40
73.2735047
50
276.7989353
51
276.9416815
0
ARC
8
DEFAULT_255_2_778
10
-7.8571819
20
88.7783213
40
75.1428543
50
276.9417428
51
277.1544494
0
ARC
8
DEFAULT_255_2_778
10
-7.9596815
20
89.5974207
40
75.9683421
50
277.1542135
51
277.3961657
0
ARC
8
DEFAULT_255_2_778
10
-7.8949028
20
89.1020524
40
75.4687565
50
277.395808
51
277.6622384
0
ARC
8
DEFAULT_255_2_778
10
-7.6940243
20
87.6100051
40
73.9632474
50
277.6621255
51
277.9138248
0
ARC
8
DEFAULT_255_2_778
10
-7.3224244
20
84.943965
40
71.2714348
50
277.9130281
51
278.2733623
0
ARC
8
DEFAULT_255_2_778
10
-6.711447
20
80.7500618
40
67.0332613
50
278.2723944
51
278.707125
0
ARC
8
DEFAULT_255_2_778
10
-5.761808
20
74.5753185
40
60.7859216
50
278.7034124
51
279.3580284
0
ARC
8
DEFAULT_255_2_778
10
-4.247997
20
65.4421264
40
51.5281283
50
279.3484902
51
280.3697964
0
ARC
8
DEFAULT_255_2_778
10
-2.0042953
20
53.281161
40
39.1619306
50
280.343355
51
282.0369203
0
ARC
8
DEFAULT_255_2_778
10
0.1920567
20
42.9284408
40
28.5788019
50
282.0588023
51
283.4838883
0
ARC
8
DEFAULT_255_2_778
10
1.7710431
20
36.3380281
40
21.8018751
50
283.4871385
51
284.9629785
0
ARC
8
DEFAULT_255_2_778
10
3.0938463
20
31.3897245
40
16.6798133
50
284.961865
51
286.5949347
0
ARC
8
DEFAULT_255_2_778
10
4.2277638
20
27.5855303
40
12.7102212
50
286.5940529
51
288.3951217
0
ARC
8
DEFAULT_255_2_778
10
5.216961
20
24.61494
40
9.5792603
50
288.3877757
51
290.5232916
0
ARC
8
DEFAULT_255_2_778
10
6.0924236
20
22.2791626
40
7.0848084
50
290.5151971
51
293.0389601
0
ARC
8
DEFAULT_255_2_778
10
6.8659186
20
20.4645165
40
5.1121879
50
293.020738
51
296.1844277
0
ARC
8
DEFAULT_255_2_778
10
7.5406992
20
19.0949863
40
3.5854462
50
296.1650619
51
300.079523
0
ARC
8
DEFAULT_255_2_778
10
8.1223467
20
18.0946953
40
2.428342
50
300.0330424
51
305.2845828
0
ARC
8
DEFAULT_255_2_778
10
8.6198723
20
17.3951605
40
1.5699282
50
305.2098083
51
312.4971822
0
ARC
8
DEFAULT_255_2_778
10
9.0256877
20
16.9555532
40
0.9716537
50
312.3654764
51
323.0933756
0
ARC
8
DEFAULT_255_2_778
10
9.3382812
20
16.7246112
40
0.5830236
50
322.7934799
51
341.2349153
0
ARC
8
DEFAULT_255_2_778
10
9.4881676
20
16.6699413
40
0.4235325
50
341.7147898
51
359.8399229
0
LINE
8
DEFAULT_255_2_778
10
9.9116984
20
16.668758
11
9.9116984
21
12.761158
0
LINE
8
DEFAULT_255_2_778
10
0.1424984
20
10.156058
11
0.1424984
21
14.063658
0
ARC
8
DEFAULT_255_2_778
10
-0.5575535
20
15.8292541
40
7.0108307
50
275.7307013
51
275.7888612
0
ARC
8
DEFAULT_255_2_778
10
-1.4537477
20
24.6659626
40
15.8928677
50
275.7900437
51
275.8628246
0
ARC
8
DEFAULT_255_2_778
10
-2.5263308
20
35.1034184
40
26.3852897
50
275.8645982
51
275.9771158
0
ARC
8
DEFAULT_255_2_778
10
-3.6540165
20
45.8828887
40
37.2235855
50
275.9756928
51
276.0882982
0
ARC
8
DEFAULT_255_2_778
10
-4.6689324
20
55.3992146
40
46.7938787
50
276.0881518
51
276.2194836
0
ARC
8
DEFAULT_255_2_778
10
-5.5799082
20
63.7614239
40
55.2055623
50
276.219145
51
276.3592411
0
ARC
8
DEFAULT_255_2_778
10
-6.3267505
20
70.4655182
40
61.9511277
50
276.3589529
51
276.5075673
0
ARC
8
DEFAULT_255_2_778
10
-6.9204372
20
75.6746421
40
67.1939738
50
276.5071311
51
276.6539199
0
ARC
8
DEFAULT_255_2_778
10
-7.3403167
20
79.2756344
40
70.8193625
50
276.6537559
51
276.7986724
0
ARC
8
DEFAULT_255_2_778
10
-7.628225
20
81.6933293
40
73.2541397
50
276.7984179
51
276.9412017
0
ARC
8
DEFAULT_255_2_778
10
-7.8546225
20
83.5526408
40
75.1271841
50
276.9412315
51
277.1539823
0
ARC
8
DEFAULT_255_2_778
10
-7.9574582
20
84.3749883
40
75.9559365
50
277.1536978
51
277.3956893
0
ARC
8
DEFAULT_255_2_778
10
-7.8931811
20
83.8833679
40
75.4601322
50
277.3953397
51
277.6618002
0
ARC
8
DEFAULT_255_2_778
10
-7.6869936
20
82.352708
40
73.9156475
50
277.6615903
51
277.9134514
0
ARC
8
DEFAULT_255_2_778
10
-7.3211959
20
79.729132
40
71.2666934
50
277.9125607
51
278.2729185
0
ARC
8
DEFAULT_255_2_778
10
-6.7105811
20
75.5372175
40
67.0305398
50
278.2719847
51
278.7067325
0
ARC
8
DEFAULT_255_2_778
10
-5.7612241
20
69.3638419
40
60.7845948
50
278.7030471
51
279.3576767
0
ARC
8
DEFAULT_255_2_778
10
-4.2467961
20
60.2266638
40
51.5227684
50
279.3481179
51
280.3695294
0
ARC
8
DEFAULT_255_2_778
10
-2.0037978
20
48.0692311
40
39.1601724
50
280.3430846
51
282.0367245
0
ARC
8
DEFAULT_255_2_778
10
0.1926614
20
37.7158178
40
28.5763434
50
282.0586156
51
283.4838234
0
ARC
8
DEFAULT_255_2_778
10
1.7716274
20
31.1255442
40
21.7995568
50
283.4870206
51
284.9630173
0
ARC
8
DEFAULT_255_2_778
10
3.0943536
20
26.1776395
40
16.6779003
50
284.9618175
51
286.5950749
0
ARC
8
DEFAULT_255_2_778
10
4.2279729
20
22.3744861
40
12.7093908
50
286.5941848
51
288.3953728
0
ARC
8
DEFAULT_255_2_778
10
5.2171169
20
19.4041241
40
9.5786634
50
288.3879797
51
290.5236323
0
ARC
8
DEFAULT_255_2_778
10
6.0925356
20
17.0684987
40
7.0843694
50
290.5155586
51
293.0394851
0
ARC
8
DEFAULT_255_2_778
10
6.865988
20
15.2540132
40
5.1119135
50
293.0211997
51
296.1850733
0
ARC
8
DEFAULT_255_2_778
10
7.5408097
20
13.8844512
40
3.5851251
50
296.1656154
51
300.0804541
0
ARC
8
DEFAULT_255_2_778
10
8.1223569
20
12.884382
40
2.4282631
50
300.0338401
51
305.2856062
0
ARC
8
DEFAULT_255_2_778
10
8.6198845
20
12.1848734
40
1.5698695
50
305.2107745
51
312.4985391
0
ARC
8
DEFAULT_255_2_778
10
9.0256603
20
11.7453326
40
0.9716706
50
312.3667489
51
323.0947344
0
ARC
8
DEFAULT_255_2_778
10
9.3382442
20
11.5144084
40
0.5830589
50
322.7949262
51
341.2359984
0
ARC
8
DEFAULT_255_2_778
10
9.4881208
20
11.4597451
40
0.4235793
50
341.715813
51
359.8399743
0
ARC
8
DEFAULT_255_2_778
10
9.8055401
20
7.5552964
40
0.1062467
50
347.9335205
51
357.661964
0
ARC
8
DEFAULT_255_2_778
10
9.633546
20
7.5895928
40
0.2816207
50
337.4859035
51
348.4250837
0
ARC
8
DEFAULT_255_2_778
10
9.4279459
20
7.6733237
40
0.5036145
50
327.6233375
51
337.6425793
0
ARC
8
DEFAULT_255_2_778
10
9.1687286
20
7.8358619
40
0.8095734
50
319.4536573
51
327.7320002
0
ARC
8
DEFAULT_255_2_778
10
8.8516805
20
8.1047014
40
1.2252559
50
313.0048784
51
319.5385488
0
ARC
8
DEFAULT_255_2_778
10
8.4693259
20
8.5129499
40
1.7845957
50
307.5623299
51
313.0422488
0
ARC
8
DEFAULT_255_2_778
10
8.0277134
20
9.0837503
40
2.5062823
50
303.3318582
51
307.6100726
0
ARC
8
DEFAULT_255_2_778
10
7.5293117
20
9.8398868
40
3.4119015
50
299.6475984
51
303.3474427
0
ARC
8
DEFAULT_255_2_778
10
6.9789065
20
10.8029801
40
4.5211768
50
296.7074024
51
299.6721945
0
ARC
8
DEFAULT_255_2_778
10
6.3855502
20
11.9803891
40
5.8396465
50
294.1163994
51
296.7160859
0
ARC
8
DEFAULT_255_2_778
10
5.7406319
20
13.4179001
40
7.4151961
50
291.902516
51
294.1262354
0
ARC
8
DEFAULT_255_2_778
10
5.043244
20
15.1506701
40
9.2830401
50
289.9004587
51
291.9066985
0
ARC
8
DEFAULT_255_2_778
10
4.2954445
20
17.2127656
40
11.4765397
50
288.1638347
51
289.9066207
0
ARC
8
DEFAULT_255_2_778
10
3.5473274
20
19.4867774
40
13.87045
50
286.7500653
51
288.1718819
0
ARC
8
DEFAULT_255_2_778
10
2.8911868
20
21.6573294
40
16.1380058
50
285.7681681
51
286.7598429
0
ARC
8
DEFAULT_255_2_778
10
2.2048824
20
24.0954034
40
18.6708332
50
284.5484112
51
285.7618531
0
ARC
8
DEFAULT_255_2_778
10
1.4034181
20
27.1801643
40
21.8580096
50
283.4664562
51
284.5507189
0
ARC
8
DEFAULT_255_2_778
10
0.8626222
20
29.4164658
40
24.158766
50
283.1343354
51
283.4786618
0
ARC
8
DEFAULT_255_2_778
10
0.4603578
20
31.1469062
40
25.9353466
50
282.5108269
51
283.1310759
0
ARC
8
DEFAULT_255_2_778
10
-0.0571731
20
33.4776112
40
28.3228189
50
281.9545701
51
282.5115458
0
ARC
8
DEFAULT_255_2_778
10
-0.5494601
20
35.8013518
40
30.698133
50
281.4529796
51
281.9550924
0
ARC
8
DEFAULT_255_2_778
10
-1.02283
20
38.1363686
40
33.0806491
50
280.9996978
51
281.4534899
0
ARC
8
DEFAULT_255_2_778
10
-1.4717391
20
40.4447282
40
35.4322535
50
280.5886542
51
281.0000504
0
ARC
8
DEFAULT_255_2_778
10
-1.8991409
20
42.7298444
40
37.756996
50
280.2151179
51
280.5889856
0
ARC
8
DEFAULT_255_2_778
10
-2.3050753
20
44.9815145
40
40.0449647
50
279.8748426
51
280.2153737
0
ARC
8
DEFAULT_255_2_778
10
-2.7836089
20
47.7370168
40
42.8417101
50
279.4100702
51
279.8733512
0
ARC
8
DEFAULT_255_2_778
10
-3.3241029
20
50.9952174
40
46.1444372
50
279.0059345
51
279.4107
0
ARC
8
DEFAULT_255_2_778
10
-3.8780895
20
54.4939037
40
49.6867115
50
278.563206
51
279.0053395
0
ARC
8
DEFAULT_255_2_778
10
-4.454324
20
58.3184575
40
53.5544314
50
278.1623062
51
278.5635627
0
ARC
8
DEFAULT_255_2_778
10
-4.9843408
20
62.0097143
40
57.2835459
50
277.8232732
51
278.1628776
0
ARC
8
DEFAULT_255_2_778
10
-5.4455154
20
65.3627004
40
60.6680987
50
277.534797
51
277.8237271
0
ARC
8
DEFAULT_255_2_778
10
-5.9508366
20
69.1897882
40
64.528403
50
277.1661676
51
277.5340143
0
ARC
8
DEFAULT_255_2_778
10
-6.5138037
20
73.6643552
40
69.0382457
50
276.8293019
51
277.1664821
0
ARC
8
DEFAULT_255_2_778
10
-7.0321591
20
77.9884948
40
73.3933434
50
276.5376225
51
276.8296817
0
ARC
8
DEFAULT_255_2_778
10
-7.5502943
20
82.5142844
40
77.9486957
50
276.2182999
51
276.5372399
0
ARC
8
DEFAULT_255_2_778
10
-8.0525984
20
87.1174355
40
82.5791718
50
275.9605165
51
276.2188202
0
ARC
8
DEFAULT_255_2_778
10
-8.5082981
20
91.481306
40
86.9667714
50
275.7087918
51
275.960568
0
LINE
8
DEFAULT_255_2_778
10
9.9116984
20
11.458562
11
9.9116984
21
7.550962
0
LINE
8
DEFAULT_255_2_778
10
0.1424984
20
4.945862
11
0.1424984
21
8.853462
0
ARC
8
DEFAULT_255_2_778
10
-0.5095121
20
10.1406466
40
6.5303196
50
275.7301635
51
275.792603
0
ARC
8
DEFAULT_255_2_778
10
-1.4118433
20
19.0432991
40
15.4785835
50
275.7896343
51
275.8643633
0
ARC
8
DEFAULT_255_2_778
10
-2.5320042
20
29.945652
40
26.4383308
50
275.8651509
51
275.977443
0
ARC
8
DEFAULT_255_2_778
10
-3.6611797
20
40.7363158
40
37.2879143
50
275.976413
51
276.0888242
0
ARC
8
DEFAULT_255_2_778
10
-4.6755281
20
50.2450245
40
46.8505731
50
276.0888685
51
276.2200415
0
ARC
8
DEFAULT_255_2_778
10
-5.5707746
20
58.4628619
40
55.1170306
50
276.2196231
51
276.3599444
0
ARC
8
DEFAULT_255_2_778
10
-6.3314069
20
65.2908416
40
61.9872466
50
276.359563
51
276.508091
0
ARC
8
DEFAULT_255_2_778
10
-6.9109282
20
70.3756325
40
67.1049555
50
276.5076288
51
276.6546125
0
ARC
8
DEFAULT_255_2_778
10
-7.3436585
20
74.088108
40
70.8425657
50
276.6542879
51
276.799157
0
ARC
8
DEFAULT_255_2_778
10
-7.6311743
20
76.5019843
40
73.2735047
50
276.7989353
51
276.9416815
0
ARC
8
DEFAULT_255_2_778
10
-7.8571819
20
78.3576213
40
75.1428543
50
276.9417428
51
277.1544494
0
ARC
8
DEFAULT_255_2_778
10
-7.9596815
20
79.1767207
40
75.9683421
50
277.1542135
51
277.3961657
0
ARC
8
DEFAULT_255_2_778
10
-7.8949028
20
78.6813524
40
75.4687565
50
277.395808
51
277.6622384
0
ARC
8
DEFAULT_255_2_778
10
-7.6940243
20
77.1893051
40
73.9632474
50
277.6621255
51
277.9138248
0
ARC
8
DEFAULT_255_2_778
10
-7.3224244
20
74.523265
40
71.2714348
50
277.9130281
51
278.2733623
0
ARC
8
DEFAULT_255_2_778
10
-6.711447
20
70.3293618
40
67.0332613
50
278.2723944
51
278.707125
0
ARC
8
DEFAULT_255_2_778
10
-5.761808
20
64.1546185
40
60.7859216
50
278.7034124
51
279.3580284
0
ARC
8
DEFAULT_255_2_778
10
-4.247997
20
55.0214264
40
51.5281283
50
279.3484902
51
280.3697964
0
ARC
8
DEFAULT_255_2_778
10
-2.0042953
20
42.860461
40
39.1619306
50
280.343355
51
282.0369203
0
ARC
8
DEFAULT_255_2_778
10
0.1920567
20
32.5077408
40
28.5788019
50
282.0588023
51
283.4838883
0
ARC
8
DEFAULT_255_2_778
10
1.7710431
20
25.9173281
40
21.8018751
50
283.4871385
51
284.9629785
0
ARC
8
DEFAULT_255_2_778
10
3.0938463
20
20.9690245
40
16.6798133
50
284.961865
51
286.5949347
0
ARC
8
DEFAULT_255_2_778
10
4.2277638
20
17.1648303
40
12.7102212
50
286.5940529
51
288.3951217
0
ARC
8
DEFAULT_255_2_778
10
5.216961
20
14.19424
40
9.5792603
50
288.3877757
51
290.5232916
0
ARC
8
DEFAULT_255_2_778
10
6.0924236
20
11.8584626
40
7.0848084
50
290.5151971
51
293.0389601
0
ARC
8
DEFAULT_255_2_778
10
6.8659186
20
10.0438165
40
5.1121879
50
293.020738
51
296.1844277
0
ARC
8
DEFAULT_255_2_778
10
7.5406992
20
8.6742863
40
3.5854462
50
296.1650619
51
300.079523
0
ARC
8
DEFAULT_255_2_778
10
8.1223467
20
7.6739953
40
2.428342
50
300.0330424
51
305.2845828
0
ARC
8
DEFAULT_255_2_778
10
8.6198723
20
6.9744605
40
1.5699282
50
305.2098083
51
312.4971822
0
ARC
8
DEFAULT_255_2_778
10
9.0256877
20
6.5348532
40
0.9716537
50
312.3654764
51
323.0933756
0
ARC
8
DEFAULT_255_2_778
10
9.3382812
20
6.3039112
40
0.5830236
50
322.7934799
51
341.2349153
0
ARC
8
DEFAULT_255_2_778
10
9.4881676
20
6.2492413
40
0.4235325
50
341.7147898
51
359.8399229
0
ARC
8
DEFAULT_255_2_778
10
9.8055401
20
2.3447923
40
0.1062467
50
347.9335205
51
357.661964
0
ARC
8
DEFAULT_255_2_778
10
9.633546
20
2.3790888
40
0.2816207
50
337.4859035
51
348.4250837
0
ARC
8
DEFAULT_255_2_778
10
9.4279459
20
2.4628196
40
0.5036145
50
327.6233375
51
337.6425793
0
ARC
8
DEFAULT_255_2_778
10
9.1687286
20
2.6253579
40
0.8095734
50
319.4536573
51
327.7320002
0
ARC
8
DEFAULT_255_2_778
10
8.8516805
20
2.8941973
40
1.2252559
50
313.0048784
51
319.5385488
0
ARC
8
DEFAULT_255_2_778
10
8.4693259
20
3.3024459
40
1.7845957
50
307.5623299
51
313.0422488
0
ARC
8
DEFAULT_255_2_778
10
8.0277134
20
3.8732462
40
2.5062823
50
303.3318582
51
307.6100726
0
ARC
8
DEFAULT_255_2_778
10
7.5293117
20
4.6293828
40
3.4119015
50
299.6475984
51
303.3474427
0
ARC
8
DEFAULT_255_2_778
10
6.9789065
20
5.5924761
40
4.5211768
50
296.7074024
51
299.6721945
0
ARC
8
DEFAULT_255_2_778
10
6.3855502
20
6.769885
40
5.8396465
50
294.1163994
51
296.7160859
0
ARC
8
DEFAULT_255_2_778
10
5.7406319
20
8.2073961
40
7.4151961
50
291.902516
51
294.1262354
0
ARC
8
DEFAULT_255_2_778
10
5.043244
20
9.940166
40
9.2830401
50
289.9004587
51
291.9066985
0
ARC
8
DEFAULT_255_2_778
10
4.2954445
20
12.0022616
40
11.4765397
50
288.1638347
51
289.9066207
0
ARC
8
DEFAULT_255_2_778
10
3.5473274
20
14.2762734
40
13.87045
50
286.7500653
51
288.1718819
0
ARC
8
DEFAULT_255_2_778
10
2.8911868
20
16.4468254
40
16.1380058
50
285.7681681
51
286.7598429
0
ARC
8
DEFAULT_255_2_778
10
2.2048824
20
18.8848994
40
18.6708332
50
284.5484112
51
285.7618531
0
ARC
8
DEFAULT_255_2_778
10
1.4034181
20
21.9696603
40
21.8580096
50
283.4664562
51
284.5507189
0
ARC
8
DEFAULT_255_2_778
10
0.8626222
20
24.2059617
40
24.158766
50
283.1343354
51
283.4786618
0
ARC
8
DEFAULT_255_2_778
10
0.4603578
20
25.9364021
40
25.9353466
50
282.5108269
51
283.1310759
0
ARC
8
DEFAULT_255_2_778
10
-0.0571731
20
28.2671072
40
28.3228189
50
281.9545701
51
282.5115458
0
ARC
8
DEFAULT_255_2_778
10
-0.5494601
20
30.5908478
40
30.698133
50
281.4529796
51
281.9550924
0
ARC
8
DEFAULT_255_2_778
10
-1.02283
20
32.9258646
40
33.0806491
50
280.9996978
51
281.4534899
0
ARC
8
DEFAULT_255_2_778
10
-1.4717391
20
35.2342241
40
35.4322535
50
280.5886542
51
281.0000504
0
ARC
8
DEFAULT_255_2_778
10
-1.8991409
20
37.5193404
40
37.756996
50
280.2151179
51
280.5889856
0
ARC
8
DEFAULT_255_2_778
10
-2.3050753
20
39.7710105
40
40.0449647
50
279.8748426
51
280.2153737
0
ARC
8
DEFAULT_255_2_778
10
-2.7836089
20
42.5265127
40
42.8417101
50
279.4100702
51
279.8733512
0
ARC
8
DEFAULT_255_2_778
10
-3.3241029
20
45.7847134
40
46.1444372
50
279.0059345
51
279.4107
0
ARC
8
DEFAULT_255_2_778
10
-3.8780895
20
49.2833997
40
49.6867115
50
278.563206
51
279.0053395
0
ARC
8
DEFAULT_255_2_778
10
-4.454324
20
53.1079535
40
53.5544314
50
278.1623062
51
278.5635627
0
ARC
8
DEFAULT_255_2_778
10
-4.9843408
20
56.7992102
40
57.2835459
50
277.8232732
51
278.1628776
0
ARC
8
DEFAULT_255_2_778
10
-5.4455154
20
60.1521964
40
60.6680987
50
277.534797
51
277.8237271
0
ARC
8
DEFAULT_255_2_778
10
-5.9508366
20
63.9792841
40
64.528403
50
277.1661676
51
277.5340143
0
ARC
8
DEFAULT_255_2_778
10
-6.5138037
20
68.4538512
40
69.0382457
50
276.8293019
51
277.1664821
0
ARC
8
DEFAULT_255_2_778
10
-7.0321591
20
72.7779908
40
73.3933434
50
276.5376225
51
276.8296817
0
ARC
8
DEFAULT_255_2_778
10
-7.5502943
20
77.3037804
40
77.9486957
50
276.2182999
51
276.5372399
0
ARC
8
DEFAULT_255_2_778
10
-8.0525984
20
81.9069314
40
82.5791718
50
275.9605165
51
276.2188202
0
ARC
8
DEFAULT_255_2_778
10
-8.5082981
20
86.270802
40
86.9667714
50
275.7087918
51
275.960568
0
LINE
8
DEFAULT_255_2_778
10
0.1424984
20
-0.264642
11
0.1424984
21
3.642958
0
LINE
8
DEFAULT_255_2_778
10
9.9116984
20
6.248058
11
9.9116984
21
2.340458
0
ENDSEC
0
EOF