0
SECTION
2
HEADER
9
$MEASUREMENT
70
1
0
ENDSEC
0
SECTION
2
TABLES
0
TABLE
2
LTYPE
0
LTYPE
72
65
70
64
2
CONTINUOUS
3
______
73
0
40
0
0
ENDTAB
0
TABLE
2
LAYER
0
LAYER
2
DEFAULT_255_2_778
70
0
62
255
6
CONTINUOUS
0
ENDTAB
0
ENDSEC
0
SECTION
2
ENTITIES
0
ARC
8
DEFAULT_255_2_778
10
3.3294881
20
3.6801831
40
0.156674
50
356.7120048
51
59.4381893
0
ARC
8
DEFAULT_255_2_778
10
3.3305941
20
3.6725253
40
0.1627778
50
61.1442366
51
90.4892693
0
ARC
8
DEFAULT_255_2_778
10
3.3233713
20
3.683244
40
0.1521649
50
87.8031738
51
180.7809976
0
ARC
8
DEFAULT_255_2_778
10
3.3983529
20
3.6712481
40
0.2273488
50
177.4987341
51
180.0128499
0
ARC
8
DEFAULT_255_2_778
10
3.3273312
20
1.5020139
40
0.1565793
50
176.7476971
51
237.0411077
0
ARC
8
DEFAULT_255_2_778
10
3.3274721
20
1.5120602
40
0.1651721
50
238.8963401
51
270.6008128
0
ARC
8
DEFAULT_255_2_778
10
3.3329699
20
1.4998187
40
0.152968
50
268.5893419
51
2.0862828
0
ARC
8
DEFAULT_255_2_778
10
3.2617524
20
1.5108921
40
0.2241517
50
358.5928099
51
0.0012862
0
ARC
8
DEFAULT_255_2_778
10
3.4096166
20
1.5599997
40
0.8338405
50
338.8181383
51
0.6457401
0
ARC
8
DEFAULT_255_2_778
10
3.4717288
20
1.5628406
40
0.7773563
50
282.536665
51
336.9683935
0
ARC
8
DEFAULT_255_2_778
10
3.3320407
20
1.9810782
40
1.2167971
50
269.7063341
51
284.6830846
0
ARC
8
DEFAULT_255_2_778
10
3.3090079
20
1.8531362
40
1.0889686
50
242.6272443
51
270.8837664
0
ARC
8
DEFAULT_255_2_778
10
3.1413814
20
1.5286928
40
0.723781
50
193.1038687
51
242.6024078
0
ARC
8
DEFAULT_255_2_778
10
3.299977
20
1.5650225
40
0.8864836
50
179.7172537
51
193.0668532
0
ARC
8
DEFAULT_255_2_778
10
3.2432805
20
3.625146
40
0.8298246
50
159.1759866
51
180.6178936
0
ARC
8
DEFAULT_255_2_778
10
3.2007158
20
3.6082624
40
0.7966425
50
99.6596142
51
156.9521624
0
ARC
8
DEFAULT_255_2_778
10
3.3227252
20
3.2183618
40
1.2027392
50
89.8533273
51
102.2737535
0
ARC
8
DEFAULT_255_2_778
10
3.3400234
20
3.3056678
40
1.11552
50
65.3724116
51
90.7303544
0
ARC
8
DEFAULT_255_2_778
10
3.5055416
20
3.6483618
40
0.7350643
50
10.5959237
51
65.9691023
0
ARC
8
DEFAULT_255_2_778
10
3.3532618
20
3.6190005
40
0.8901469
50
359.8195568
51
10.651229
0
ARC
8
DEFAULT_255_2_778
10
5.3425355
20
3.5800849
40
0.1569832
50
123.6340902
51
183.2455958
0
ARC
8
DEFAULT_255_2_778
10
5.3419811
20
3.5708345
40
0.1644727
50
89.364926
51
121.6880554
0
ARC
8
DEFAULT_255_2_778
10
5.3478979
20
3.5826126
40
0.1527393
50
358.4812616
51
91.5358555
0
ARC
8
DEFAULT_255_2_778
10
5.2768473
20
3.5712234
40
0.2238567
50
359.9932598
51
1.8792587
0
ARC
8
DEFAULT_255_2_778
10
5.3470359
20
3.7787749
40
0.9116949
50
359.561474
51
12.8418304
0
ARC
8
DEFAULT_255_2_778
10
5.6211079
20
3.8426446
40
0.6302839
50
12.718491
51
32.4254308
0
ARC
8
DEFAULT_255_2_778
10
5.7165216
20
3.9005164
40
0.5187204
50
32.6808018
51
62.4844037
0
ARC
8
DEFAULT_255_2_778
10
5.7068672
20
3.8816588
40
0.5399051
50
62.5002926
51
74.7493205
0
ARC
8
DEFAULT_255_2_778
10
5.7047201
20
3.8760551
40
0.5458765
50
74.6866005
51
88.0302017
0
ARC
8
DEFAULT_255_2_778
10
5.7061667
20
3.9011552
40
0.5207419
50
88.0943504
51
89.9958805
0
ARC
8
DEFAULT_255_2_778
10
5.7083894
20
3.860357
40
0.5615444
50
90.2229662
51
115.7321713
0
ARC
8
DEFAULT_255_2_778
10
5.750538
20
3.7684646
40
0.6626263
50
115.5655012
51
132.5509043
0
ARC
8
DEFAULT_255_2_778
10
5.7479412
20
3.7702867
40
0.659528
50
132.4917617
51
133.5099481
0
ARC
8
DEFAULT_255_2_778
10
5.7012436
20
3.8171095
40
0.5934214
50
133.3524602
51
141.8194727
0
ARC
8
DEFAULT_255_2_778
10
5.5314127
20
3.9489661
40
0.378419
50
141.6178983
51
150.6384051
0
ARC
8
DEFAULT_255_2_778
10
5.415978
20
4.0167191
40
0.2446046
50
151.2122145
51
152.2006057
0
ARC
8
DEFAULT_255_2_778
10
8.3037962
20
1.5665422
40
0.1564644
50
299.7690533
51
3.2809908
0
ARC
8
DEFAULT_255_2_778
10
8.3044003
20
1.5747138
40
0.163322
50
269.5452633
51
298.1615292
0
ARC
8
DEFAULT_255_2_778
10
8.2974984
20
1.5633878
40
0.152094
50
179.1851818
51
272.1122157
0
ARC
8
DEFAULT_255_2_778
10
8.3722199
20
1.5754469
40
0.2270159
50
179.9873381
51
182.4984753
0
ARC
8
DEFAULT_255_2_778
10
8.1185576
20
1.3940028
40
0.7314929
50
179.4051465
51
203.1102215
0
ARC
8
DEFAULT_255_2_778
10
7.9792754
20
1.3329979
40
0.5794451
50
202.9677475
51
243.4179634
0
ARC
8
DEFAULT_255_2_778
10
7.952205
20
1.2870499
40
0.5262533
50
243.8151528
51
269.9236876
0
ARC
8
DEFAULT_255_2_778
10
7.9539297
20
1.3301923
40
0.5694004
50
269.7559222
51
288.3060858
0
ARC
8
DEFAULT_255_2_778
10
7.952866
20
1.3251392
40
0.564943
50
288.5694723
51
307.2764593
0
ARC
8
DEFAULT_255_2_778
10
7.9237841
20
1.3657295
40
0.614857
50
307.1420117
51
313.9580141
0
ARC
8
DEFAULT_255_2_778
10
7.9135809
20
1.3767664
40
0.6298845
50
313.9292422
51
322.2772779
0
ARC
8
DEFAULT_255_2_778
10
7.9786959
20
1.3274846
40
0.5482277
50
322.1874976
51
328.4558335
0
ARC
8
DEFAULT_255_2_778
10
8.1009105
20
1.2513258
40
0.4042302
50
328.5930513
51
330.780324
0
ARC
8
DEFAULT_255_2_778
10
10.495792
20
3.969894
40
0.3561121
50
143.6487839
51
153.7502216
0
ARC
8
DEFAULT_255_2_778
10
10.6224701
20
3.8794345
40
0.5117617
50
136.3880256
51
143.8984898
0
ARC
8
DEFAULT_255_2_778
10
10.6910771
20
3.8134894
40
0.6069224
50
118.5497059
51
136.3480987
0
ARC
8
DEFAULT_255_2_778
10
10.6841612
20
3.8287031
40
0.5902546
50
96.0032242
51
118.6657999
0
ARC
8
DEFAULT_255_2_778
10
10.6852065
20
3.8159187
40
0.6030784
50
89.981223
51
95.9749622
0
ARC
8
DEFAULT_255_2_778
10
10.686498
20
3.8915985
40
0.5273998
50
64.5614266
51
90.1188356
0
ARC
8
DEFAULT_255_2_778
10
10.664167
20
3.8483317
40
0.5760659
50
41.7911572
51
64.4041781
0
ARC
8
DEFAULT_255_2_778
10
10.671131
20
3.8532625
40
0.5675886
50
38.102438
51
41.8885365
0
ARC
8
DEFAULT_255_2_778
10
10.7313348
20
3.898161
40
0.4925115
50
27.846424
51
38.3140406
0
ARC
8
DEFAULT_255_2_778
10
10.8816666
20
3.9769313
40
0.3227945
50
17.6861368
51
27.9478599
0
ARC
8
DEFAULT_255_2_778
10
11.5802449
20
3.9064504
40
0.4161048
50
146.8624157
51
156.1052155
0
ARC
8
DEFAULT_255_2_778
10
11.7236259
20
3.8150056
40
0.5861575
50
139.2357973
51
147.0390611
0
ARC
8
DEFAULT_255_2_778
10
11.784452
20
3.7637322
40
0.6657067
50
120.4139096
51
139.3116811
0
ARC
8
DEFAULT_255_2_778
10
11.7446197
20
3.835432
40
0.5837119
50
93.9609505
51
120.6049677
0
ARC
8
DEFAULT_255_2_778
10
11.7421506
20
3.844171
40
0.5748262
50
89.9946624
51
93.7756033
0
ARC
8
DEFAULT_255_2_778
10
11.7568031
20
3.892969
40
0.5262307
50
33.7202142
51
91.5897283
0
ARC
8
DEFAULT_255_2_778
10
11.6328236
20
3.8224986
40
0.6685504
50
11.6003651
51
32.8450496
0
ARC
8
DEFAULT_255_2_778
10
11.27774
20
3.7434574
40
1.0322927
50
359.5748233
51
11.9347767
0
ARC
8
DEFAULT_255_2_778
10
11.3974713
20
3.6157549
40
0.1570942
50
356.6946003
51
55.5339387
0
ARC
8
DEFAULT_255_2_778
10
11.3986534
20
3.6067386
40
0.1639713
50
57.6579036
51
90.7160829
0
ARC
8
DEFAULT_255_2_778
10
11.3920052
20
3.6174702
40
0.1532959
50
88.2808521
51
90.0012257
0
ARC
8
DEFAULT_255_2_778
10
11.392027
20
3.6172378
40
0.1535284
50
90.0093567
51
136.0987686
0
ARC
8
DEFAULT_255_2_778
10
11.3924561
20
3.6171207
40
0.153919
50
136.1781322
51
179.941022
0
ARC
8
DEFAULT_255_2_778
10
11.3911594
20
3.617275
40
0.1526223
50
179.9984282
51
183.9742158
0
ARC
8
DEFAULT_255_2_778
10
10.3211893
20
3.6192474
40
0.1540046
50
355.9226046
51
359.9983871
0
ARC
8
DEFAULT_255_2_778
10
10.321659
20
3.6192444
40
0.1535349
50
359.9994993
51
43.999203
0
ARC
8
DEFAULT_255_2_778
10
10.3216636
20
3.6189978
40
0.1537028
50
44.0665379
51
89.9726203
0
ARC
8
DEFAULT_255_2_778
10
10.3217311
20
3.6198336
40
0.1528671
50
89.9977781
51
92.1095243
0
ARC
8
DEFAULT_255_2_778
10
10.3119125
20
3.6215567
40
0.1510986
50
88.4103674
51
182.1589581
0
ARC
8
DEFAULT_255_2_778
10
10.3915736
20
3.6085169
40
0.2307696
50
178.1754337
51
180.0049177
0
LINE
8
DEFAULT_255_2_778
10
13.7504041
20
4.4215971
11
13.7498655
21
4.4215974
0
ARC
8
DEFAULT_255_2_778
10
13.7551647
20
3.9231963
40
0.4984293
50
90.6091728
51
120.0894681
0
ARC
8
DEFAULT_255_2_778
10
13.8416976
20
3.7615196
40
0.6817305
50
119.5696545
51
133.0641892
0
ARC
8
DEFAULT_255_2_778
10
13.8748719
20
3.721641
40
0.7335237
50
132.8304031
51
140.1896804
0
ARC
8
DEFAULT_255_2_778
10
13.7398963
20
3.8322998
40
0.5589925
50
140.0448183
51
146.3568016
0
ARC
8
DEFAULT_255_2_778
10
13.555819
20
3.9565265
40
0.3369266
50
146.6011401
51
149.269312
0
ARC
8
DEFAULT_255_2_778
10
13.5472129
20
1.1691776
40
0.3033955
50
202.1480585
51
212.807656
0
ARC
8
DEFAULT_255_2_778
10
13.6952867
20
1.2620381
40
0.4781693
50
212.5463587
51
222.4359558
0
ARC
8
DEFAULT_255_2_778
10
13.7332455
20
1.2944293
40
0.5280434
50
222.2506738
51
222.9112742
0
ARC
8
DEFAULT_255_2_778
10
13.7468427
20
1.3075173
40
0.5469135
50
222.9456246
51
241.0005627
0
ARC
8
DEFAULT_255_2_778
10
13.7378002
20
1.2917366
40
0.5287274
50
241.0285503
51
262.9277361
0
ARC
8
DEFAULT_255_2_778
10
13.7424067
20
1.3252886
40
0.5625914
50
262.8828751
51
269.999734
0
ARC
8
DEFAULT_255_2_778
10
13.7430555
20
1.0770489
40
0.3143525
50
269.8812809
51
270.0395929
0
ARC
8
DEFAULT_255_2_778
10
13.7377232
20
1.318195
40
0.5555263
50
270.5723731
51
335.2145739
0
ARC
8
DEFAULT_255_2_778
10
13.5247744
20
1.4369119
40
0.7988423
50
333.8869572
51
356.7470617
0
ARC
8
DEFAULT_255_2_778
10
13.3532957
20
1.4565392
40
0.9712084
50
356.1650559
51
0.0211131
0
ARC
8
DEFAULT_255_2_778
10
13.5720031
20
3.7801872
40
0.7525445
50
359.3840432
51
22.2375785
0
ARC
8
DEFAULT_255_2_778
10
13.7312589
20
3.8474465
40
0.5796829
50
22.0412074
51
63.9950083
0
ARC
8
DEFAULT_255_2_778
10
13.7484115
20
3.8718274
40
0.5502702
50
64.487121
51
90.0736552
0
ARC
8
DEFAULT_255_2_778
10
13.4102315
20
1.5651718
40
0.1562335
50
299.6562742
51
3.3117228
0
ARC
8
DEFAULT_255_2_778
10
13.4101861
20
1.5746462
40
0.164555
50
269.5188133
51
298.0375437
0
ARC
8
DEFAULT_255_2_778
10
13.4030648
20
1.56239
40
0.152401
50
178.370969
51
272.1582292
0
ARC
8
DEFAULT_255_2_778
10
13.4793804
20
1.5741683
40
0.2287762
50
179.9927837
51
181.8650969
0
ARC
8
DEFAULT_255_2_778
10
13.4068914
20
3.6158913
40
0.1565401
50
122.7974049
51
183.2571594
0
ARC
8
DEFAULT_255_2_778
10
13.4070795
20
3.6057732
40
0.165233
50
89.4019563
51
120.9514357
0
ARC
8
DEFAULT_255_2_778
10
13.4130768
20
3.6168396
40
0.1542167
50
90.0011478
51
91.5876
0
ARC
8
DEFAULT_255_2_778
10
13.4131873
20
3.6179698
40
0.1530865
50
43.7323425
51
90.0425319
0
ARC
8
DEFAULT_255_2_778
10
13.4134236
20
3.6176328
40
0.1531493
50
359.9992614
51
43.8845841
0
ARC
8
DEFAULT_255_2_778
10
13.4130914
20
3.6176336
40
0.1534817
50
356.0261485
51
359.9989596
0
ARC
8
DEFAULT_255_2_778
10
15.4278196
20
1.5002411
40
0.1563665
50
176.7532385
51
237.7229469
0
ARC
8
DEFAULT_255_2_778
10
15.4288221
20
1.5114246
40
0.166436
50
239.4873673
51
270.5790448
0
ARC
8
DEFAULT_255_2_778
10
15.4347271
20
1.4972616
40
0.152323
50
268.4113313
51
1.6809386
0
ARC
8
DEFAULT_255_2_778
10
15.3617465
20
1.5090708
40
0.2253577
50
358.1332445
51
0.0066775
0
ARC
8
DEFAULT_255_2_778
10
15.5257488
20
1.5611785
40
0.8189017
50
338.805946
51
0.6100253
0
ARC
8
DEFAULT_255_2_778
10
15.5464974
20
1.5898452
40
0.8106433
50
279.1977346
51
336.385949
0
ARC
8
DEFAULT_255_2_778
10
15.4295505
20
1.9624068
40
1.1984119
50
269.8926006
51
281.8708951
0
ARC
8
DEFAULT_255_2_778
10
15.4105831
20
1.8508551
40
1.0869866
50
242.2491729
51
270.8814132
0
ARC
8
DEFAULT_255_2_778
10
15.2429751
20
1.5310506
40
0.725923
50
192.8197721
51
242.2034052
0
ARC
8
DEFAULT_255_2_778
10
15.3974463
20
1.5657893
40
0.8842519
50
179.733829
51
192.7937195
0
ARC
8
DEFAULT_255_2_778
10
15.3426064
20
3.6266575
40
0.8294496
50
159.1485736
51
180.6120595
0
ARC
8
DEFAULT_255_2_778
10
15.3027044
20
3.6087092
40
0.7991502
50
99.7174624
51
156.927185
0
ARC
8
DEFAULT_255_2_778
10
15.4237958
20
3.2234648
40
1.200536
50
89.8564252
51
102.3111896
0
ARC
8
DEFAULT_255_2_778
10
15.4409877
20
3.3075317
40
1.1165554
50
65.4067623
51
90.727846
0
ARC
8
DEFAULT_255_2_778
10
15.6065049
20
3.6509033
40
0.7354881
50
10.7093767
51
65.9988429
0
ARC
8
DEFAULT_255_2_778
10
15.4516585
20
3.6207007
40
0.8932502
50
359.8137557
51
10.7672245
0
ARC
8
DEFAULT_255_2_778
10
15.4329192
20
3.6794092
40
0.1565388
50
356.7362759
51
59.833694
0
ARC
8
DEFAULT_255_2_778
10
15.4338973
20
3.6718751
40
0.1626269
50
61.4656818
51
90.4556049
0
ARC
8
DEFAULT_255_2_778
10
15.4240005
20
3.683799
40
0.1509435
50
86.7324283
51
89.9994243
0
ARC
8
DEFAULT_255_2_778
10
15.4239666
20
3.6842188
40
0.1505237
50
89.9865256
51
135.9916735
0
ARC
8
DEFAULT_255_2_778
10
15.4240654
20
3.6838376
40
0.1508598
50
135.9136175
51
179.9762311
0
ARC
8
DEFAULT_255_2_778
10
15.4235732
20
3.6838987
40
0.1503675
50
179.9994403
51
185.1133183
0
ARC
8
DEFAULT_255_2_778
10
17.4452858
20
3.6171119
40
0.1547766
50
88.0308673
51
90.0003211
0
ARC
8
DEFAULT_255_2_778
10
17.4451821
20
3.6182985
40
0.1535901
50
89.9616061
51
135.996975
0
ARC
8
DEFAULT_255_2_778
10
17.4455091
20
3.618343
40
0.1537948
50
136.0935297
51
179.970397
0
ARC
8
DEFAULT_255_2_778
10
17.445113
20
3.6184258
40
0.1533987
50
180.001259
51
184.0854331
0
ARC
8
DEFAULT_255_2_778
10
17.8973873
20
3.6956167
40
0.7369775
50
139.0321685
51
144.086838
0
ARC
8
DEFAULT_255_2_778
10
17.968075
20
3.6356967
40
0.8296385
50
132.7924839
51
139.1082062
0
ARC
8
DEFAULT_255_2_778
10
17.8900761
20
3.7275523
40
0.7092639
50
115.11981
51
133.2096926
0
ARC
8
DEFAULT_255_2_778
10
17.8110988
20
3.8936951
40
0.5253084
50
90.2830056
51
115.0131291
0
ARC
8
DEFAULT_255_2_778
10
17.8054224
20
3.8827507
40
0.5362553
50
24.0727604
51
89.6707281
0
ARC
8
DEFAULT_255_2_778
10
17.663209
20
3.8119078
40
0.6950287
50
0.094863
51
24.6228907
0
ARC
8
DEFAULT_255_2_778
10
17.53605
20
3.8025307
40
0.822254
50
359.9976618
51
0.7336142
0
ARC
8
DEFAULT_255_2_778
10
17.4532823
20
3.6190372
40
0.1497147
50
3.5843854
51
92.6818386
0
ARC
8
DEFAULT_255_2_778
10
17.4444848
20
3.5977192
40
0.1708781
50
89.3990052
51
89.9935294
0
ARC
8
DEFAULT_255_2_778
10
21.4709073
20
1.4982287
40
0.1524909
50
175.912917
51
180.0009122
0
ARC
8
DEFAULT_255_2_778
10
21.4715665
20
1.4982923
40
0.1531501
50
180.0247226
51
224.0563173
0
ARC
8
DEFAULT_255_2_778
10
21.4719608
20
1.4984457
40
0.1535402
50
223.9951329
51
270.0134095
0
ARC
8
DEFAULT_255_2_778
10
21.4719979
20
1.498982
40
0.1540764
50
269.9995487
51
271.973594
0
ARC
8
DEFAULT_255_2_778
10
21.4815271
20
1.4972616
40
0.152323
50
268.4113313
51
1.6809386
0
ARC
8
DEFAULT_255_2_778
10
21.4085465
20
1.5090708
40
0.2253577
50
358.1332445
51
0.0066775
0
ARC
8
DEFAULT_255_2_778
10
21.5738953
20
1.5612061
40
0.817855
50
338.7754336
51
0.6088716
0
ARC
8
DEFAULT_255_2_778
10
21.5928875
20
1.5907492
40
0.8115763
50
279.2052603
51
336.3450797
0
ARC
8
DEFAULT_255_2_778
10
21.4762981
20
1.9614206
40
1.1974257
50
269.8950206
51
281.8757747
0
ARC
8
DEFAULT_255_2_778
10
21.4576869
20
1.8523086
40
1.0884353
50
242.5486467
51
270.8642462
0
ARC
8
DEFAULT_255_2_778
10
21.2907032
20
1.5310325
40
0.7263554
50
192.9073897
51
242.5545556
0
ARC
8
DEFAULT_255_2_778
10
21.445001
20
1.5657356
40
0.8845065
50
179.7304297
51
192.8659222
0
ARC
8
DEFAULT_255_2_778
10
21.3910947
20
3.6266798
40
0.8306381
50
159.1814385
51
180.61272
0
ARC
8
DEFAULT_255_2_778
10
21.3492421
20
3.609738
40
0.7981303
50
99.7274994
51
156.9762645
0
ARC
8
DEFAULT_255_2_778
10
21.4702639
20
3.2244296
40
1.1995712
50
89.8547896
51
102.3161728
0
ARC
8
DEFAULT_255_2_778
10
21.4874877
20
3.3075317
40
1.1165554
50
65.4067623
51
90.727846
0
ARC
8
DEFAULT_255_2_778
10
21.6530049
20
3.6509033
40
0.7354881
50
10.7093767
51
65.9988429
0
ARC
8
DEFAULT_255_2_778
10
21.4981585
20
3.6207007
40
0.8932502
50
359.8137557
51
10.7672245
0
ARC
8
DEFAULT_255_2_778
10
21.4777758
20
3.6794801
40
0.1565862
50
356.7112486
51
59.4256307
0
ARC
8
DEFAULT_255_2_778
10
21.478902
20
3.6718332
40
0.1626698
50
61.137436
51
90.4923638
0
ARC
8
DEFAULT_255_2_778
10
21.4689195
20
3.6844666
40
0.1502759
50
86.7251396
51
89.9996438
0
ARC
8
DEFAULT_255_2_778
10
21.46901
20
3.6838805
40
0.150862
50
90.0340275
51
135.9371005
0
ARC
8
DEFAULT_255_2_778
10
21.4688959
20
3.6840053
40
0.1506931
50
135.9410212
51
180.0155946
0
ARC
8
DEFAULT_255_2_778
10
21.469312
20
3.6839653
40
0.1511092
50
180.0003885
51
185.1135039
0
ARC
8
DEFAULT_255_2_778
10
23.4859052
20
3.619396
40
0.1525271
50
87.670754
51
181.5163324
0
ARC
8
DEFAULT_255_2_778
10
23.5622636
20
3.6077228
40
0.2289596
50
178.0885187
51
180.0064349
0
ARC
8
DEFAULT_255_2_778
10
23.94069
20
3.6999705
40
0.7306335
50
139.0240264
51
144.11904
0
ARC
8
DEFAULT_255_2_778
10
24.0145808
20
3.6372708
40
0.8275356
50
132.7724356
51
139.1012935
0
ARC
8
DEFAULT_255_2_778
10
23.9384354
20
3.7271592
40
0.7098615
50
115.1084898
51
133.1878821
0
ARC
8
DEFAULT_255_2_778
10
23.8593502
20
3.8937395
40
0.5254644
50
90.2885258
51
115.0074706
0
ARC
8
DEFAULT_255_2_778
10
23.8535949
20
3.882361
40
0.5368451
50
24.3144831
51
89.6681614
0
ARC
8
DEFAULT_255_2_778
10
23.7135029
20
3.8121852
40
0.6934336
50
0.0945931
51
24.8324767
0
ARC
8
DEFAULT_255_2_778
10
23.5833734
20
3.8027001
40
0.8236308
50
359.999794
51
0.7394943
0
ARC
8
DEFAULT_255_2_778
10
23.4983628
20
3.619506
40
0.1495241
50
3.5241259
51
92.5280487
0
ARC
8
DEFAULT_255_2_778
10
23.4896875
20
3.597228
40
0.1716691
50
89.3057561
51
89.9944331
0
ARC
8
DEFAULT_255_2_778
10
19.4630636
20
1.7893933
40
0.1565056
50
300.6111792
51
3.3347227
0
ARC
8
DEFAULT_255_2_778
10
19.464178
20
1.7973783
40
0.1628877
50
269.481547
51
298.8432952
0
ARC
8
DEFAULT_255_2_778
10
19.4546144
20
1.7839068
40
0.1496286
50
180.2489244
51
273.0992429
0
ARC
8
DEFAULT_255_2_778
10
19.5410584
20
1.7983663
40
0.2365542
50
179.9683113
51
183.6621659
0
ARC
8
DEFAULT_255_2_778
10
19.4597139
20
3.6155005
40
0.1554592
50
122.5243163
51
183.2462976
0
ARC
8
DEFAULT_255_2_778
10
19.4609863
20
3.6039078
40
0.1659981
50
89.407071
51
120.74299
0
ARC
8
DEFAULT_255_2_778
10
19.4671436
20
3.6178037
40
0.1521582
50
358.1266587
51
91.6719209
0
ARC
8
DEFAULT_255_2_778
10
19.3952582
20
3.6067096
40
0.2240459
50
359.996806
51
1.5652783
0
ARC
8
DEFAULT_255_2_778
10
19.4637543
20
0.5342389
40
0.1558134
50
300.4099159
51
3.3327677
0
ARC
8
DEFAULT_255_2_778
10
19.4641602
20
0.5431994
40
0.1634087
50
269.4894408
51
298.6965861
0
ARC
8
DEFAULT_255_2_778
10
19.4570084
20
0.5321187
40
0.152428
50
178.5972015
51
272.1414509
0
ARC
8
DEFAULT_255_2_778
10
19.5300929
20
0.5432684
40
0.2255887
50
179.9927015
51
181.8844159
0
ARC
8
DEFAULT_255_2_778
10
19.5094694
20
0.6251031
40
0.9617236
50
179.3688377
51
196.3906424
0
ARC
8
DEFAULT_255_2_778
10
19.2547509
20
0.5568071
40
0.6981137
50
196.9124015
51
255.3114864
0
ARC
8
DEFAULT_255_2_778
10
19.4403435
20
1.1045351
40
1.2756484
50
253.4856912
51
269.7447866
0
ARC
8
DEFAULT_255_2_778
10
19.4605207
20
1.4839915
40
1.6552943
50
269.1048786
51
270.0028867
0
ARC
8
DEFAULT_255_2_778
10
19.4759196
20
1.1219029
40
1.2932965
50
269.3214778
51
286.5338139
0
ARC
8
DEFAULT_255_2_778
10
19.664327
20
0.5652209
40
0.7063636
50
284.7331223
51
343.3350709
0
ARC
8
DEFAULT_255_2_778
10
19.42813
20
0.6260215
40
0.9501234
50
343.9072552
51
0.5834804
0
ARC
8
DEFAULT_255_2_778
10
19.0868015
20
3.8236304
40
0.5983851
50
30.6850152
51
88.8602353
0
ARC
8
DEFAULT_255_2_778
10
19.0987151
20
3.8862874
40
0.5356097
50
90.0011775
51
92.139567
0
ARC
8
DEFAULT_255_2_778
10
19.0988926
20
3.8763294
40
0.5455673
50
92.1191518
51
147.3277248
0
ARC
8
DEFAULT_255_2_778
10
19.1555786
20
3.8469458
40
0.6091747
50
147.87952
51
174.4614414
0
ARC
8
DEFAULT_255_2_778
10
19.3029651
20
3.8247024
40
0.7580614
50
173.8632363
51
180.0608644
0
ARC
8
DEFAULT_255_2_778
10
19.337451
20
1.6802304
40
0.7925921
50
179.3879382
51
199.8311775
0
ARC
8
DEFAULT_255_2_778
10
19.1360647
20
1.6052703
40
0.5777227
50
199.6135427
51
233.8390784
0
ARC
8
DEFAULT_255_2_778
10
19.0991264
20
1.5636299
40
0.5223345
50
234.415246
51
270.1511278
0
ARC
8
DEFAULT_255_2_778
10
19.0995529
20
1.6337152
40
0.5924189
50
270.091996
51
326.1583242
0
ARC
8
DEFAULT_255_2_778
10
1.2077946
20
1.5584415
40
0.156641
50
176.759097
51
236.6299628
0
ARC
8
DEFAULT_255_2_778
10
1.2083578
20
1.5692798
40
0.166093
50
238.5245603
51
270.6369366
0
ARC
8
DEFAULT_255_2_778
10
1.2146836
20
1.5573786
40
0.1542465
50
268.3358232
51
1.8536893
0
ARC
8
DEFAULT_255_2_778
10
1.147132
20
1.5672979
40
0.2217722
50
358.7262478
51
359.9998028
0
ARC
8
DEFAULT_255_2_778
10
-0.1706494
20
2.0013147
40
1.5395875
50
359.6197479
51
5.5404435
0
ARC
8
DEFAULT_255_2_778
10
0.6485357
20
2.086113
40
0.716062
50
5.1154702
51
20.0552821
0
ARC
8
DEFAULT_255_2_778
10
0.7544183
20
2.1148105
40
0.6068308
50
20.938374
51
35.9796202
0
ARC
8
DEFAULT_255_2_778
10
0.4267379
20
1.8787236
40
1.0106999
50
35.8966394
51
43.0085552
0
ARC
8
DEFAULT_255_2_778
10
-0.3344579
20
1.1765114
40
2.046318
50
42.8483038
51
46.1702813
0
ARC
8
DEFAULT_255_2_778
10
-1.4714772
20
0.0082182
40
3.6765488
50
45.9959944
51
46.7997763
0
ARC
8
DEFAULT_255_2_778
10
2.0703699
20
4.7044268
40
2.1690324
50
224.4991022
51
226.7796701
0
ARC
8
DEFAULT_255_2_778
10
1.3606329
20
4.0243809
40
1.1862264
50
210.5836579
51
225.0981828
0
ARC
8
DEFAULT_255_2_778
10
1.1811732
20
3.9074865
40
0.9723012
50
193.9773022
51
210.0341736
0
ARC
8
DEFAULT_255_2_778
10
1.3546969
20
3.9479079
40
1.1504534
50
181.379865
51
193.8434366
0
ARC
8
DEFAULT_255_2_778
10
1.5677413
20
3.9597262
40
1.3637371
50
179.9928182
51
181.6607098
0
ARC
8
DEFAULT_255_2_778
10
0.5694708
20
4.4977026
40
0.3654669
50
179.9788128
51
180.0635698
0
ARC
8
DEFAULT_255_2_778
10
1.0598514
20
4.5073822
40
0.8559006
50
161.7608933
51
180.6389387
0
ARC
8
DEFAULT_255_2_778
10
0.9563
20
4.5124739
40
0.7564609
50
103.5270725
51
159.6719247
0
ARC
8
DEFAULT_255_2_778
10
1.1951887
20
3.8124529
40
1.494512
50
89.455008
51
106.1550114
0
ARC
8
DEFAULT_255_2_778
10
1.232268
20
3.9221389
40
1.384947
50
68.3743773
51
90.9459307
0
ARC
8
DEFAULT_255_2_778
10
1.4922038
20
4.5380424
40
0.7167488
50
13.7452593
51
69.5458822
0
ARC
8
DEFAULT_255_2_778
10
1.3269623
20
4.5071013
40
0.8846577
50
359.6564641
51
13.1489283
0
ARC
8
DEFAULT_255_2_778
10
1.2104758
20
4.4903801
40
0.1565862
50
356.7112486
51
59.4256307
0
ARC
8
DEFAULT_255_2_778
10
1.211602
20
4.4827332
40
0.1626698
50
61.137436
51
90.4923638
0
ARC
8
DEFAULT_255_2_778
10
1.2044957
20
4.4930505
40
0.1524535
50
87.8541145
51
181.102736
0
ARC
8
DEFAULT_255_2_778
10
1.2791186
20
4.4814274
40
0.2272145
50
177.8083832
51
180.0076476
0
ARC
8
DEFAULT_255_2_778
10
1.9681853
20
4.1494925
40
0.9163264
50
179.4306991
51
189.3703795
0
ARC
8
DEFAULT_255_2_778
10
1.6239072
20
4.0946948
40
0.5677238
50
189.5709617
51
215.8344977
0
ARC
8
DEFAULT_255_2_778
10
1.9975712
20
4.3569514
40
1.0242131
50
215.4907027
51
222.8003134
0
ARC
8
DEFAULT_255_2_778
10
2.9146445
20
5.1970929
40
2.267934
50
222.6318717
51
225.9111804
0
ARC
8
DEFAULT_255_2_778
10
4.4528931
20
6.761678
40
4.462017
50
225.7022587
51
226.3202467
0
ARC
8
DEFAULT_255_2_778
10
0.5002249
20
1.7159163
40
1.9139557
50
41.7367269
51
45.664718
0
ARC
8
DEFAULT_255_2_778
10
0.8124859
20
1.994474
40
1.4955049
50
37.0848938
51
41.7371829
0
ARC
8
DEFAULT_255_2_778
10
1.1566196
20
2.242709
40
1.0713314
50
18.8915871
51
37.5921198
0
ARC
8
DEFAULT_255_2_778
10
1.0339891
20
2.2221218
40
1.1941931
50
0.4711928
51
17.9210814
0
ARC
8
DEFAULT_255_2_778
10
0.4606913
20
2.1915094
40
1.767913
50
359.9898802
51
1.310502
0
ARC
8
DEFAULT_255_2_778
10
1.2879655
20
1.5812301
40
0.9406853
50
343.5543107
51
0.5705373
0
ARC
8
DEFAULT_255_2_778
10
1.5092557
20
1.5178536
40
0.7105083
50
304.236542
51
343.4039165
0
ARC
8
DEFAULT_255_2_778
10
1.3047239
20
1.8560237
40
1.1053553
50
275.5855948
51
303.1392802
0
ARC
8
DEFAULT_255_2_778
10
1.2124951
20
2.4105161
40
1.6666211
50
269.910925
51
276.8859195
0
ARC
8
DEFAULT_255_2_778
10
1.1866589
20
2.1786584
40
1.4349496
50
249.8479634
51
270.928195
0
ARC
8
DEFAULT_255_2_778
10
0.924402
20
1.5152391
40
0.7220086
50
195.1322607
51
251.248402
0
ARC
8
DEFAULT_255_2_778
10
1.1031407
20
1.550984
40
0.9039624
50
179.5681615
51
194.3618863
0
LINE
8
DEFAULT_255_2_778
10
6.4447041
20
5.2909971
11
7.2027041
21
5.2909971
0
LINE
8
DEFAULT_255_2_778
10
7.2027041
20
5.2909971
11
7.2027041
21
0.8054971
0
LINE
8
DEFAULT_255_2_778
10
7.2027041
20
0.8054971
11
6.4447041
21
0.8054971
0
LINE
8
DEFAULT_255_2_778
10
6.4447041
20
0.8054971
11
6.4447041
21
5.2909971
0
LINE
8
DEFAULT_255_2_778
10
3.1710041
20
3.6711971
11
3.1710041
21
1.5108971
0
LINE
8
DEFAULT_255_2_778
10
3.4859041
20
1.5108971
11
3.4859041
21
2.2218971
0
LINE
8
DEFAULT_255_2_778
10
3.4859041
20
2.2218971
11
4.2434041
21
2.2218971
0
LINE
8
DEFAULT_255_2_778
10
4.2434041
20
2.2218971
11
4.2434041
21
1.5693971
0
LINE
8
DEFAULT_255_2_778
10
2.4135041
20
1.5693971
11
2.4135041
21
3.6161971
0
LINE
8
DEFAULT_255_2_778
10
4.2434041
20
3.6161971
11
4.2434041
21
3.0340971
0
LINE
8
DEFAULT_255_2_778
10
4.2434041
20
3.0340971
11
3.4859041
21
3.0340971
0
LINE
8
DEFAULT_255_2_778
10
3.4859041
20
3.0340971
11
3.4859041
21
3.6711971
0
LINE
8
DEFAULT_255_2_778
10
5.5007041
20
3.5711971
11
5.5007041
21
0.8020971
0
LINE
8
DEFAULT_255_2_778
10
5.5007041
20
0.8020971
11
6.2587041
21
0.8020971
0
LINE
8
DEFAULT_255_2_778
10
6.2587041
20
0.8020971
11
6.2587041
21
3.7717971
0
LINE
8
DEFAULT_255_2_778
10
5.1996041
20
4.1307971
11
5.1874041
21
4.1307971
0
LINE
8
DEFAULT_255_2_778
10
5.1874041
20
4.1307971
11
5.1874041
21
5.2909971
0
LINE
8
DEFAULT_255_2_778
10
5.1874041
20
5.2909971
11
4.4291041
21
5.2909971
0
LINE
8
DEFAULT_255_2_778
10
4.4291041
20
5.2909971
11
4.4291041
21
0.8052971
0
LINE
8
DEFAULT_255_2_778
10
4.4291041
20
0.8052971
11
5.1858041
21
0.8052971
0
LINE
8
DEFAULT_255_2_778
10
5.1858041
20
0.8052971
11
5.1858041
21
3.5711971
0
LINE
8
DEFAULT_255_2_778
10
5.1858041
20
3.5711971
11
5.1858041
21
3.5711971
0
LINE
8
DEFAULT_255_2_778
10
8.1452041
20
1.5754971
11
8.1452041
21
4.3792971
0
LINE
8
DEFAULT_255_2_778
10
8.1452041
20
4.3792971
11
7.3871041
21
4.3792971
0
LINE
8
DEFAULT_255_2_778
10
7.3871041
20
4.3792971
11
7.3871041
21
1.4015971
0
LINE
8
DEFAULT_255_2_778
10
8.4537041
20
1.0539971
11
8.4709041
21
1.0539971
0
LINE
8
DEFAULT_255_2_778
10
8.4709041
20
1.0539971
11
8.4841041
21
0.8044971
0
LINE
8
DEFAULT_255_2_778
10
8.4841041
20
0.8044971
11
9.2170041
21
0.8044971
0
LINE
8
DEFAULT_255_2_778
10
9.2170041
20
0.8044971
11
9.2170041
21
4.3763971
0
LINE
8
DEFAULT_255_2_778
10
9.2170041
20
4.3763971
11
8.4592041
21
4.3763971
0
LINE
8
DEFAULT_255_2_778
10
8.4592041
20
4.3763971
11
8.4592041
21
1.5722971
0
LINE
8
DEFAULT_255_2_778
10
8.4592041
20
1.5722971
11
8.4600041
21
1.5754971
0
LINE
8
DEFAULT_255_2_778
10
10.1605041
20
0.8047971
11
9.4027041
21
0.8047971
0
LINE
8
DEFAULT_255_2_778
10
9.4027041
20
0.8047971
11
9.4027041
21
4.3765971
0
LINE
8
DEFAULT_255_2_778
10
9.4027041
20
4.3765971
11
10.1534041
21
4.3765971
0
LINE
8
DEFAULT_255_2_778
10
10.1534041
20
4.3765971
11
10.1613041
21
4.1273971
0
LINE
8
DEFAULT_255_2_778
10
10.1613041
20
4.1273971
11
10.1764041
21
4.1273971
0
LINE
8
DEFAULT_255_2_778
10
11.1892041
20
4.0749971
11
11.1998041
21
4.0749971
0
LINE
8
DEFAULT_255_2_778
10
12.3100041
20
3.7357971
11
12.3100041
21
0.8020971
0
LINE
8
DEFAULT_255_2_778
10
12.3100041
20
0.8020971
11
11.5543041
21
0.8020971
0
LINE
8
DEFAULT_255_2_778
10
11.5543041
20
0.8020971
11
11.5543041
21
3.6066971
0
LINE
8
DEFAULT_255_2_778
10
11.2389041
20
3.6066971
11
11.2389041
21
0.8020971
0
LINE
8
DEFAULT_255_2_778
10
11.2389041
20
0.8020971
11
10.4748041
21
0.8020971
0
LINE
8
DEFAULT_255_2_778
10
10.4748041
20
0.8020971
11
10.4748041
21
3.6082971
0
LINE
8
DEFAULT_255_2_778
10
10.1608041
20
3.6084971
11
10.1608041
21
0.8052971
0
LINE
8
DEFAULT_255_2_778
10
10.1608041
20
0.8052971
11
10.1605041
21
0.8047971
0
LINE
8
DEFAULT_255_2_778
10
13.2662041
20
4.1286971
11
13.2503041
21
4.1286971
0
LINE
8
DEFAULT_255_2_778
10
13.2503041
20
4.1286971
11
13.2503041
21
5.2909971
0
LINE
8
DEFAULT_255_2_778
10
13.2503041
20
5.2909971
11
12.4923041
21
5.2909971
0
LINE
8
DEFAULT_255_2_778
10
12.4923041
20
5.2909971
11
12.4923041
21
0.8052971
0
LINE
8
DEFAULT_255_2_778
10
12.4923041
20
0.8052971
11
13.2418041
21
0.8052971
0
LINE
8
DEFAULT_255_2_778
10
13.2418041
20
0.8052971
11
13.2503041
21
1.0547971
0
LINE
8
DEFAULT_255_2_778
10
13.2503041
20
1.0547971
11
13.2662041
21
1.0547971
0
LINE
8
DEFAULT_255_2_778
10
14.3245041
20
1.4568971
11
14.3245041
21
3.7720971
0
LINE
8
DEFAULT_255_2_778
10
13.7477041
20
4.4220971
11
13.7504041
21
4.4215971
0
LINE
8
DEFAULT_255_2_778
10
13.2506041
20
1.5741971
11
13.2506041
21
3.6069971
0
LINE
8
DEFAULT_255_2_778
10
13.5662041
20
3.6069971
11
13.5662041
21
1.5741971
0
LINE
8
DEFAULT_255_2_778
10
15.5871041
20
1.5090971
11
15.5871041
21
2.2218971
0
LINE
8
DEFAULT_255_2_778
10
15.5871041
20
2.2218971
11
16.3446041
21
2.2218971
0
LINE
8
DEFAULT_255_2_778
10
16.3446041
20
2.2218971
11
16.3446041
21
1.5698971
0
LINE
8
DEFAULT_255_2_778
10
14.5132041
20
1.5698971
11
14.5132041
21
3.6177971
0
LINE
8
DEFAULT_255_2_778
10
16.3449041
20
3.6177971
11
16.3449041
21
2.4599971
0
LINE
8
DEFAULT_255_2_778
10
16.3449041
20
2.4599971
11
15.2717041
21
2.4599971
0
LINE
8
DEFAULT_255_2_778
10
15.2717041
20
2.4599971
11
15.2717041
21
1.5090971
0
LINE
8
DEFAULT_255_2_778
10
15.2717041
20
1.5090971
11
15.2717041
21
1.5090971
0
LINE
8
DEFAULT_255_2_778
10
15.5892041
20
3.0049971
11
15.5892041
21
3.6704971
0
LINE
8
DEFAULT_255_2_778
10
15.2738041
20
3.6704971
11
15.2746041
21
3.0049971
0
LINE
8
DEFAULT_255_2_778
10
15.2746041
20
3.0049971
11
15.5892041
21
3.0049971
0
LINE
8
DEFAULT_255_2_778
10
17.2921041
20
3.6074971
11
17.2921041
21
0.8047971
0
LINE
8
DEFAULT_255_2_778
10
17.2921041
20
0.8047971
11
16.5285041
21
0.8047971
0
LINE
8
DEFAULT_255_2_778
10
16.5285041
20
0.8047971
11
16.5285041
21
4.3765971
0
LINE
8
DEFAULT_255_2_778
10
16.5285041
20
4.3765971
11
17.2693041
21
4.3765971
0
LINE
8
DEFAULT_255_2_778
10
17.2693041
20
4.3765971
11
17.2839041
21
4.1278971
0
LINE
8
DEFAULT_255_2_778
10
17.2839041
20
4.1278971
11
17.3005041
21
4.1278971
0
LINE
8
DEFAULT_255_2_778
10
18.3583041
20
3.8024971
11
18.3583041
21
2.4609971
0
LINE
8
DEFAULT_255_2_778
10
18.3583041
20
2.4609971
11
17.6027041
21
2.4609971
0
LINE
8
DEFAULT_255_2_778
10
17.6027041
20
2.4609971
11
17.6027041
21
3.6283971
0
LINE
8
DEFAULT_255_2_778
10
17.4445041
20
3.7685971
11
17.4506041
21
3.7717971
0
LINE
8
DEFAULT_255_2_778
10
21.6339041
20
1.5090971
11
21.6339041
21
2.2218971
0
LINE
8
DEFAULT_255_2_778
10
21.6339041
20
2.2218971
11
22.3917041
21
2.2218971
0
LINE
8
DEFAULT_255_2_778
10
22.3917041
20
2.2218971
11
22.3917041
21
1.5698971
0
LINE
8
DEFAULT_255_2_778
10
20.5605041
20
1.5698971
11
20.5605041
21
3.6177971
0
LINE
8
DEFAULT_255_2_778
10
22.3914041
20
3.6177971
11
22.3914041
21
2.4599971
0
LINE
8
DEFAULT_255_2_778
10
22.3914041
20
2.4599971
11
21.3185041
21
2.4599971
0
LINE
8
DEFAULT_255_2_778
10
21.3185041
20
2.4599971
11
21.3188041
21
1.5090971
0
LINE
8
DEFAULT_255_2_778
10
21.6341041
20
3.0049971
11
21.6341041
21
3.6704971
0
LINE
8
DEFAULT_255_2_778
10
21.3188041
20
3.6704971
11
21.3196041
21
3.0049971
0
LINE
8
DEFAULT_255_2_778
10
21.3196041
20
3.0049971
11
21.6341041
21
3.0049971
0
LINE
8
DEFAULT_255_2_778
10
23.3333041
20
3.6076971
11
23.3333041
21
0.8049971
0
LINE
8
DEFAULT_255_2_778
10
23.3333041
20
0.8049971
11
22.5742041
21
0.8049971
0
LINE
8
DEFAULT_255_2_778
10
22.5742041
20
0.8049971
11
22.5742041
21
4.3768971
0
LINE
8
DEFAULT_255_2_778
10
22.5742041
20
4.3768971
11
23.3172041
21
4.3768971
0
LINE
8
DEFAULT_255_2_778
10
23.3172041
20
4.3768971
11
23.3323041
21
4.1281971
0
LINE
8
DEFAULT_255_2_778
10
23.3323041
20
4.1281971
11
23.3487041
21
4.1281971
0
LINE
8
DEFAULT_255_2_778
10
24.4070041
20
3.8026971
11
24.4070041
21
2.4612971
0
LINE
8
DEFAULT_255_2_778
10
24.4070041
20
2.4612971
11
23.6476041
21
2.4612971
0
LINE
8
DEFAULT_255_2_778
10
23.6476041
20
2.4612971
11
23.6476041
21
3.6286971
0
LINE
8
DEFAULT_255_2_778
10
23.4897041
20
3.7688971
11
23.4921041
21
3.7717971
0
LINE
8
DEFAULT_255_2_778
10
19.3045041
20
1.7984971
11
19.3045041
21
3.6066971
0
LINE
8
DEFAULT_255_2_778
10
19.6193041
20
3.6066971
11
19.6193041
21
1.7984971
0
LINE
8
DEFAULT_255_2_778
10
19.3045041
20
0.5432971
11
19.3045041
21
0.8327971
0
LINE
8
DEFAULT_255_2_778
10
19.3045041
20
0.8327971
11
18.5478041
21
0.8327971
0
LINE
8
DEFAULT_255_2_778
10
18.5478041
20
0.8327971
11
18.5478041
21
0.6356971
0
LINE
8
DEFAULT_255_2_778
10
20.3782041
20
0.6356971
11
20.3782041
21
4.3794971
0
LINE
8
DEFAULT_255_2_778
10
20.3782041
20
4.3794971
11
19.6312041
21
4.3794971
0
LINE
8
DEFAULT_255_2_778
10
19.6312041
20
4.3794971
11
19.6199041
21
4.1289971
0
LINE
8
DEFAULT_255_2_778
10
19.6199041
20
4.1289971
11
19.6014041
21
4.1289971
0
LINE
8
DEFAULT_255_2_778
10
18.5449041
20
3.8238971
11
18.5449041
21
1.6886971
0
LINE
8
DEFAULT_255_2_778
10
19.5916041
20
1.3037971
11
19.6141041
21
1.3037971
0
LINE
8
DEFAULT_255_2_778
10
19.6141041
20
1.3037971
11
19.6141041
21
0.5432971
0
LINE
8
DEFAULT_255_2_778
10
19.6141041
20
0.5432971
11
19.6193041
21
0.5432971
0
LINE
8
DEFAULT_255_2_778
10
1.3689041
20
1.5672971
11
1.3689041
21
1.9910971
0
LINE
8
DEFAULT_255_2_778
10
1.0453041
20
2.6882971
11
0.5850041
21
3.1237971
0
LINE
8
DEFAULT_255_2_778
10
0.2040041
20
3.9598971
11
0.2040041
21
4.4972971
0
LINE
8
DEFAULT_255_2_778
10
2.2116041
20
4.5017971
11
2.2116041
21
3.8093971
0
LINE
8
DEFAULT_255_2_778
10
2.2116041
20
3.8093971
11
1.3668041
21
3.8093971
0
LINE
8
DEFAULT_255_2_778
10
1.3668041
20
3.8093971
11
1.3668041
21
4.4813971
0
LINE
8
DEFAULT_255_2_778
10
1.0519041
20
4.4813971
11
1.0519041
21
4.1585971
0
LINE
8
DEFAULT_255_2_778
10
1.3713041
20
3.5346971
11
1.8378041
21
3.0848971
0
LINE
8
DEFAULT_255_2_778
10
2.2286041
20
2.1911971
11
2.2286041
21
1.5905971
0
LINE
8
DEFAULT_255_2_778
10
0.1992041
20
1.5577971
11
0.1992041
21
2.4175971
0
LINE
8
DEFAULT_255_2_778
10
0.1992041
20
2.4175971
11
1.0525041
21
2.4175971
0
LINE
8
DEFAULT_255_2_778
10
1.0525041
20
2.4175971
11
1.0514041
21
1.5672971
0
ENDSEC
0
EOF