0
SECTION
2
HEADER
9
$MEASUREMENT
70
1
0
ENDSEC
0
SECTION
2
TABLES
0
TABLE
2
LTYPE
0
LTYPE
72
65
70
64
2
CONTINUOUS
3
______
73
0
40
0
0
ENDTAB
0
TABLE
2
LAYER
0
LAYER
2
DEFAULT_255_2_778
70
0
62
255
6
CONTINUOUS
0
ENDTAB
0
ENDSEC
0
SECTION
2
ENTITIES
0
ARC
8
DEFAULT_255_2_778
10
4.0081645
20
3.5336579
40
3.696693
50
232.7752983
51
256.0491703
0
ARC
8
DEFAULT_255_2_778
10
3.6775307
20
3.0653666
40
3.1238567
50
228.6255432
51
232.4081787
0
ARC
8
DEFAULT_255_2_778
10
-0.6369596
20
1.4413225
40
1.7927572
50
314.0747521
51
316.9930654
0
ARC
8
DEFAULT_255_2_778
10
0.0028294
20
0.7782073
40
0.8713201
50
309.1215047
51
314.1809561
0
ARC
8
DEFAULT_255_2_778
10
0.3014787
20
0.4082387
40
0.395861
50
300.135309
51
309.3737762
0
ARC
8
DEFAULT_255_2_778
10
0.4177034
20
0.2041171
40
0.16099
50
281.5351162
51
300.8335803
0
ARC
8
DEFAULT_255_2_778
10
0.4338442
20
0.1360177
40
0.0910648
50
270.1927582
51
280.1526534
0
ARC
8
DEFAULT_255_2_778
10
0.4379565
20
0.1313077
40
0.0864382
50
204.955831
51
267.4763921
0
ARC
8
DEFAULT_255_2_778
10
0.6474573
20
0.2579427
40
0.3308648
50
194.532248
51
209.5356977
0
ARC
8
DEFAULT_255_2_778
10
1.2268795
20
0.4202752
40
0.9325566
50
188.3898499
51
195.2540243
0
ARC
8
DEFAULT_255_2_778
10
2.3448471
20
0.5948818
40
2.0640589
50
185.2289521
51
188.6568304
0
ARC
8
DEFAULT_255_2_778
10
4.3301774
20
0.7796051
40
4.0579632
50
182.9405908
51
185.2715916
0
ARC
8
DEFAULT_255_2_778
10
7.4157516
20
0.9472755
40
7.1480819
50
181.8404925
51
183.013999
0
ARC
8
DEFAULT_255_2_778
10
11.9199274
20
1.0925077
40
11.6545986
50
180.9139788
51
181.8429311
0
ARC
8
DEFAULT_255_2_778
10
18.7989767
20
1.2079296
40
18.5346146
50
180.3817438
51
180.9315303
0
ARC
8
DEFAULT_255_2_778
10
28.5445632
20
1.2747589
40
28.2804301
50
179.986368
51
180.385586
0
ARC
8
DEFAULT_255_2_778
10
37.8423944
20
1.2806808
40
37.5782604
50
179.9044918
51
179.9987701
0
ARC
8
DEFAULT_255_2_778
10
43.9149072
20
1.2698871
40
43.6507828
50
179.7936212
51
179.9036107
0
ARC
8
DEFAULT_255_2_778
10
51.9197744
20
1.2411401
40
51.6557016
50
179.7009115
51
179.7937172
0
ARC
8
DEFAULT_255_2_778
10
57.2448483
20
1.2149813
40
56.9808394
50
179.6738805
51
179.7025593
0
ARC
8
DEFAULT_255_2_778
10
55.8064365
20
1.2512682
40
55.5422513
50
179.4128995
51
179.7028668
0
ARC
8
DEFAULT_255_2_778
10
43.5849323
20
1.3765502
40
43.3201051
50
179.0875672
51
179.4129602
0
ARC
8
DEFAULT_255_2_778
10
32.3195123
20
1.561235
40
32.053173
50
178.5292906
51
179.0969833
0
ARC
8
DEFAULT_255_2_778
10
22.8017629
20
1.8058373
40
22.532281
50
177.8701451
51
178.5299012
0
ARC
8
DEFAULT_255_2_778
10
15.8549513
20
2.0665133
40
15.5805809
50
176.9764226
51
177.8786827
0
ARC
8
DEFAULT_255_2_778
10
10.562782
20
2.3481582
40
10.2809232
50
175.7646029
51
176.9881668
0
ARC
8
DEFAULT_255_2_778
10
6.9556368
20
2.6154703
40
6.6638867
50
174.3261791
51
175.7661403
0
ARC
8
DEFAULT_255_2_778
10
4.339697
20
2.8794118
40
4.0346703
50
171.9473412
51
174.3833138
0
ARC
8
DEFAULT_255_2_778
10
2.4508086
20
3.1496179
40
2.1265575
50
168.2131518
51
172.0265613
0
ARC
8
DEFAULT_255_2_778
10
1.3161912
20
3.3898125
40
0.9668052
50
161.7914243
51
168.4122831
0
ARC
8
DEFAULT_255_2_778
10
0.7317649
20
3.5860415
40
0.3503472
50
148.8485621
51
162.4101176
0
ARC
8
DEFAULT_255_2_778
10
0.509729
20
3.7265642
40
0.0878018
50
107.7799955
51
152.3746977
0
ARC
8
DEFAULT_255_2_778
10
0.4944825
20
3.7593731
40
0.0520988
50
89.959863
51
102.8253533
0
ARC
8
DEFAULT_255_2_778
10
0.4898802
20
3.7298727
40
0.081731
50
49.4344954
51
86.7463538
0
ARC
8
DEFAULT_255_2_778
10
0.3851478
20
3.5934154
40
0.2536678
50
37.6565469
51
51.5082198
0
ARC
8
DEFAULT_255_2_778
10
0.0967303
20
3.3634657
40
0.622514
50
31.0930037
51
38.1946411
0
ARC
8
DEFAULT_255_2_778
10
-0.4485258
20
3.0297349
40
1.2617883
50
27.0857224
51
31.2836215
0
ARC
8
DEFAULT_255_2_778
10
-1.3447025
20
2.5684851
40
2.2696971
50
24.298088
51
27.1516808
0
ARC
8
DEFAULT_255_2_778
10
-2.5759693
20
2.0081652
40
3.6224596
50
22.6738062
51
24.3619653
0
ARC
8
DEFAULT_255_2_778
10
-4.2121754
20
1.3243377
40
5.3958153
50
21.2368042
51
22.6764163
0
ARC
8
DEFAULT_255_2_778
10
-6.3422877
20
0.4935247
40
7.6822147
50
20.3218956
51
21.2578151
0
ARC
8
DEFAULT_255_2_778
10
-8.8372297
20
-0.4313062
40
10.3430505
50
19.5683678
51
20.326258
0
ARC
8
DEFAULT_255_2_778
10
13.7574348
20
7.6107594
40
13.640147
50
199.6100074
51
200.3577565
0
ARC
8
DEFAULT_255_2_778
10
11.4660622
20
6.7596355
40
11.1958067
50
200.3534737
51
201.3249919
0
ARC
8
DEFAULT_255_2_778
10
9.5469336
20
6.0099893
40
9.1354612
50
201.3223939
51
202.4940864
0
ARC
8
DEFAULT_255_2_778
10
8.3120176
20
5.5004782
40
7.7995661
50
202.5067003
51
203.2935067
0
ARC
8
DEFAULT_255_2_778
10
6.7109605
20
4.799821
40
6.0519493
50
203.1948273
51
206.6132587
0
ARC
8
DEFAULT_255_2_778
10
5.0723514
20
3.975816
40
4.2178243
50
206.5771104
51
211.6841065
0
ARC
8
DEFAULT_255_2_778
10
4.1784179
20
3.4221359
40
3.1663133
50
211.6545724
51
220.1500923
0
ARC
8
DEFAULT_255_2_778
10
4.1359783
20
3.400637
40
3.1200309
50
220.3508443
51
228.6628199
0
ARC
8
DEFAULT_255_2_778
10
3.9782541
20
3.2176872
40
2.8784917
50
228.6148211
51
236.0460186
0
ARC
8
DEFAULT_255_2_778
10
3.9308112
20
3.1473572
40
2.7936557
50
236.0474968
51
244.1685055
0
ARC
8
DEFAULT_255_2_778
10
3.9001398
20
3.0838573
40
2.7231365
50
244.1672038
51
252.8265562
0
ARC
8
DEFAULT_255_2_778
10
3.8815055
20
3.0253129
40
2.6617004
50
252.8376942
51
258.0120367
0
ARC
8
DEFAULT_255_2_778
10
3.8688724
20
2.964695
40
2.5997806
50
258.0068982
51
263.9611809
0
ARC
8
DEFAULT_255_2_778
10
3.8601355
20
2.8805923
40
2.5152254
50
263.9575508
51
269.9804058
0
ARC
8
DEFAULT_255_2_778
10
3.8657626
20
2.6850212
40
2.3196632
50
269.8397633
51
285.0735039
0
ARC
8
DEFAULT_255_2_778
10
3.9653503
20
2.3332743
40
1.9541261
50
284.9360923
51
304.6496957
0
ARC
8
DEFAULT_255_2_778
10
4.1549807
20
2.0618183
40
1.6229996
50
304.5910966
51
337.0161936
0
ARC
8
DEFAULT_255_2_778
10
4.076771
20
2.0871947
40
1.7049245
50
337.2573768
51
351.2013939
0
ARC
8
DEFAULT_255_2_778
10
3.9796399
20
2.1084252
40
1.8041704
50
351.0069314
51
354.9623234
0
ARC
8
DEFAULT_255_2_778
10
4.2240765
20
2.0871882
40
1.5588132
50
354.9509598
51
359.9416957
0
ARC
8
DEFAULT_255_2_778
10
4.5464808
20
2.0977812
40
1.2364681
50
359.4356244
51
36.31286
0
ARC
8
DEFAULT_255_2_778
10
4.1380159
20
1.8128676
40
1.734375
50
35.9062407
51
45.9931785
0
ARC
8
DEFAULT_255_2_778
10
3.6198267
20
1.2808646
40
2.4770327
50
45.9213499
51
52.9061936
0
ARC
8
DEFAULT_255_2_778
10
2.9701077
20
0.4277429
40
3.549386
50
52.8462802
51
57.7743944
0
ARC
8
DEFAULT_255_2_778
10
2.2130752
20
-0.7655759
40
4.9625724
50
57.7273708
51
61.1833238
0
ARC
8
DEFAULT_255_2_778
10
1.5364114
20
-1.9806159
40
6.3533117
50
61.1182994
51
62.7309281
0
ARC
8
DEFAULT_255_2_778
10
0.9501144
20
-3.1185287
40
7.6333857
50
62.7325695
51
64.2697556
0
ARC
8
DEFAULT_255_2_778
10
0.3479716
20
-4.3637817
40
9.0165806
50
64.2581161
51
65.2838438
0
ARC
8
DEFAULT_255_2_778
10
-0.2675551
20
-5.7018934
40
10.4894743
50
65.2857948
51
66.3228071
0
ARC
8
DEFAULT_255_2_778
10
-0.9338649
20
-7.2188437
40
12.1463106
50
66.3179024
51
67.0964838
0
ARC
8
DEFAULT_255_2_778
10
-1.6032522
20
-8.8028083
40
13.8659102
50
67.0957991
51
67.8041156
0
ARC
8
DEFAULT_255_2_778
10
15.2379745
20
32.1160581
40
30.3832579
50
246.9296383
51
247.5492379
0
ARC
8
DEFAULT_255_2_778
10
12.5872514
20
25.8904915
40
23.6168693
50
246.2725471
51
246.9276279
0
ARC
8
DEFAULT_255_2_778
10
10.7674072
20
21.748572
40
19.092786
50
245.5997526
51
246.2706273
0
ARC
8
DEFAULT_255_2_778
10
9.189766
20
18.2771604
40
15.2796978
50
244.5733454
51
245.6097274
0
ARC
8
DEFAULT_255_2_778
10
7.7170895
20
15.182655
40
11.8526381
50
243.2315337
51
244.5800366
0
ARC
8
DEFAULT_255_2_778
10
6.462422
20
12.6995177
40
9.0705244
50
241.4177486
51
243.2431485
0
ARC
8
DEFAULT_255_2_778
10
5.4258205
20
10.7990882
40
6.9057674
50
239.1060105
51
241.4266179
0
ARC
8
DEFAULT_255_2_778
10
4.7623271
20
9.6839464
40
5.6081727
50
237.4662459
51
239.0731663
0
ARC
8
DEFAULT_255_2_778
10
4.1684621
20
8.7630424
40
4.5124064
50
233.663395
51
237.534986
0
ARC
8
DEFAULT_255_2_778
10
3.5438937
20
7.9165789
40
3.4604639
50
228.2379261
51
233.6893527
0
ARC
8
DEFAULT_255_2_778
10
3.1017792
20
7.4229439
40
2.7977877
50
219.5932052
51
228.2584177
0
ARC
8
DEFAULT_255_2_778
10
3.1923647
20
7.4762603
40
2.90162
50
206.5851437
51
219.2644699
0
ARC
8
DEFAULT_255_2_778
10
2.0679958
20
6.9551269
40
1.6633239
50
204.6765097
51
207.8649934
0
ARC
8
DEFAULT_255_2_778
10
1.7152574
20
6.7929984
40
1.2751099
50
189.7176281
51
204.6739699
0
ARC
8
DEFAULT_255_2_778
10
2.6652354
20
6.9634311
40
2.240238
50
184.6362884
51
189.9129757
0
ARC
8
DEFAULT_255_2_778
10
4.8454683
20
7.1495331
40
4.4283892
50
182.0504671
51
184.7561539
0
ARC
8
DEFAULT_255_2_778
10
9.132395
20
7.3136948
40
8.7184512
50
180.7437706
51
182.1205968
0
ARC
8
DEFAULT_255_2_778
10
17.9480695
20
7.4338688
40
17.5349436
50
179.9521716
51
180.7624892
0
ARC
8
DEFAULT_255_2_778
10
28.08169
20
7.4641616
40
27.6685624
50
179.6022114
51
180.0324186
0
ARC
8
DEFAULT_255_2_778
10
12.0083506
20
7.5806843
40
11.5948025
50
178.6711596
51
179.6265638
0
ARC
8
DEFAULT_255_2_778
10
5.6662541
20
7.7333841
40
5.2508734
50
176.6558326
51
178.7320679
0
ARC
8
DEFAULT_255_2_778
10
2.8852419
20
7.9006835
40
2.4648423
50
172.4300256
51
176.7671324
0
ARC
8
DEFAULT_255_2_778
10
1.7307561
20
8.0587364
40
1.2996048
50
161.8879977
51
172.6322531
0
ARC
8
DEFAULT_255_2_778
10
1.6629864
20
8.0750063
40
1.2301479
50
159.0122605
51
161.6269738
0
ARC
8
DEFAULT_255_2_778
10
2.0170736
20
7.9328746
40
1.6116618
50
153.4351182
51
158.8032411
0
ARC
8
DEFAULT_255_2_778
10
3.3487489
20
7.274449
40
3.0972125
50
151.3381501
51
153.5576773
0
ARC
8
DEFAULT_255_2_778
10
5.6502334
20
6.0284187
40
5.7143413
50
150.8437401
51
151.443767
0
ARC
8
DEFAULT_255_2_778
10
3.0922906
20
7.4646198
40
2.7808087
50
139.4383991
51
151.0088616
0
ARC
8
DEFAULT_255_2_778
10
3.6925052
20
6.9700028
40
3.558458
50
116.8116245
51
139.6724255
0
ARC
8
DEFAULT_255_2_778
10
3.174513
20
7.959648
40
2.4416123
50
113.8049557
51
116.4381054
0
ARC
8
DEFAULT_255_2_778
10
2.8528181
20
8.6877224
40
1.6456351
50
110.1465018
51
113.7890083
0
ARC
8
DEFAULT_255_2_778
10
2.7711128
20
8.8975277
40
1.4205327
50
97.5082521
51
109.9672305
0
ARC
8
DEFAULT_255_2_778
10
2.9404792
20
7.6921921
40
2.6376853
50
93.3455811
51
97.7344728
0
ARC
8
DEFAULT_255_2_778
10
3.1194002
20
4.8129643
40
5.5224578
50
91.3452075
51
93.4554461
0
ARC
8
DEFAULT_255_2_778
10
3.2819246
20
-1.5637775
40
11.9012644
50
90.4300659
51
91.4067257
0
ARC
8
DEFAULT_255_2_778
10
3.4133374
20
-17.9604319
40
28.2984445
50
89.962149
51
90.4469436
0
ARC
8
DEFAULT_255_2_778
10
3.441866
20
-0.8631185
40
11.2011292
50
88.9180853
51
90.0503026
0
ARC
8
DEFAULT_255_2_778
10
3.5397544
20
4.0060355
40
6.3309977
50
86.683614
51
88.9717731
0
ARC
8
DEFAULT_255_2_778
10
3.6967529
20
6.6643033
40
3.6681005
50
82.8645649
51
86.7297864
0
ARC
8
DEFAULT_255_2_778
10
3.8736466
20
8.0428511
40
2.2782603
50
75.4745152
51
82.9723832
0
ARC
8
DEFAULT_255_2_778
10
3.9777538
20
8.4696265
40
1.8390257
50
64.7076917
51
75.2794732
0
ARC
8
DEFAULT_255_2_778
10
3.7805896
20
8.0584362
40
2.2950364
50
58.7334333
51
64.6430666
0
ARC
8
DEFAULT_255_2_778
10
3.217371
20
7.1248743
40
3.3853329
50
55.3081486
51
58.7862384
0
ARC
8
DEFAULT_255_2_778
10
2.1355246
20
5.5563661
40
5.2907469
50
53.1829771
51
55.3429654
0
ARC
8
DEFAULT_255_2_778
10
0.1283467
20
2.8688431
40
8.6450776
50
51.8875491
51
53.2073402
0
ARC
8
DEFAULT_255_2_778
10
-1.7827007
20
0.4146928
40
11.7555223
50
51.7949197
51
51.941672
0
ARC
8
DEFAULT_255_2_778
10
6.526453
20
10.9545697
40
1.6657982
50
231.4280125
51
238.3122317
0
ARC
8
DEFAULT_255_2_778
10
6.0856081
20
10.2323708
40
0.819702
50
238.0159518
51
247.2606665
0
ARC
8
DEFAULT_255_2_778
10
5.8629943
20
9.6863605
40
0.2301542
50
245.8306251
51
266.2160327
0
ARC
8
DEFAULT_255_2_778
10
5.8481653
20
9.5143583
40
0.0576514
50
269.6422491
51
270.1193135
0
ARC
8
DEFAULT_255_2_778
10
5.8509791
20
9.5071157
40
0.0504808
50
266.9411479
51
301.2468103
0
ARC
8
DEFAULT_255_2_778
10
5.8608282
20
9.4879013
40
0.0289859
50
304.3055892
51
325.5550665
0
ARC
8
DEFAULT_255_2_778
10
7.1617965
20
9.2467706
40
1.196218
50
139.3093084
51
147.9470768
0
ARC
8
DEFAULT_255_2_778
10
6.9806316
20
9.3995633
40
0.9592371
50
135.3375211
51
139.1742269
0
ARC
8
DEFAULT_255_2_778
10
6.7609602
20
9.6259467
40
0.643896
50
123.356835
51
135.9251862
0
ARC
8
DEFAULT_255_2_778
10
6.5572521
20
9.942662
40
0.2673762
50
102.127441
51
124.213305
0
ARC
8
DEFAULT_255_2_778
10
6.5250033
20
10.0711923
40
0.1350152
50
90.2424387
51
100.2061842
0
ARC
8
DEFAULT_255_2_778
10
6.5426575
20
10.1090785
40
0.098823
50
19.9798956
51
100.6276298
0
ARC
8
DEFAULT_255_2_778
10
6.2989525
20
10.0094971
40
0.3620331
50
8.5651961
51
21.6127705
0
ARC
8
DEFAULT_255_2_778
10
5.5087794
20
9.8742297
40
1.1636504
50
4.2186377
51
9.3567004
0
ARC
8
DEFAULT_255_2_778
10
3.6330648
20
9.7258766
40
3.0452125
50
1.8206409
51
4.4061994
0
ARC
8
DEFAULT_255_2_778
10
-0.1343517
20
9.5941552
40
6.8149225
50
0.6851226
51
1.9212013
0
ARC
8
DEFAULT_255_2_778
10
-7.1215252
20
9.5052701
40
13.8026602
50
359.9589339
51
0.7072502
0
ARC
8
DEFAULT_255_2_778
10
-16.2016683
20
9.4977524
40
22.8827999
50
359.7720337
51
359.9940528
0
ARC
8
DEFAULT_255_2_778
10
-25.994904
20
9.5381054
40
32.6761188
50
359.5466672
51
359.7696001
0
ARC
8
DEFAULT_255_2_778
10
-42.5030665
20
9.6671086
40
49.1847852
50
359.3944252
51
359.5485481
0
ARC
8
DEFAULT_255_2_778
10
-66.7501108
20
9.9212577
40
73.4331613
50
359.2960204
51
359.3960902
0
ARC
8
DEFAULT_255_2_778
10
-107.5607519
20
10.4233911
40
114.2468912
50
359.2173539
51
359.2956806
0
ARC
8
DEFAULT_255_2_778
10
-180.7005903
20
11.4188008
40
187.3935028
50
359.1756452
51
359.2184925
0
ARC
8
DEFAULT_255_2_778
10
-324.0221942
20
13.4803898
40
330.7299333
50
359.1498465
51
359.175753
0
ARC
8
DEFAULT_255_2_778
10
-55.6092832
20
9.4669845
40
62.2870281
50
358.9812912
51
359.1778148
0
ARC
8
DEFAULT_255_2_778
10
-34.9722435
20
9.0940781
40
41.6466208
50
358.6121285
51
358.9894685
0
ARC
8
DEFAULT_255_2_778
10
-19.1302857
20
8.7070555
40
25.7999367
50
358.0475801
51
358.6192528
0
ARC
8
DEFAULT_255_2_778
10
-8.8685657
20
8.354476
40
15.5321621
50
357.2149888
51
358.0577705
0
ARC
8
DEFAULT_255_2_778
10
-2.7064618
20
8.0543445
40
9.3627533
50
356.159564
51
357.2172516
0
ARC
8
DEFAULT_255_2_778
10
1.171109
20
7.7909735
40
5.4762506
50
354.5084079
51
356.1916572
0
ARC
8
DEFAULT_255_2_778
10
3.7198734
20
7.5433734
40
2.9154901
50
351.9288761
51
354.5584759
0
ARC
8
DEFAULT_255_2_778
10
5.2710929
20
7.3196177
40
1.3482255
50
347.2778596
51
352.0880083
0
ARC
8
DEFAULT_255_2_778
10
6.1086437
20
7.1263562
40
0.4886931
50
337.7127844
51
347.7548996
0
ARC
8
DEFAULT_255_2_778
10
6.449575
20
6.9812667
40
0.1183101
50
310.4722778
51
340.1118489
0
ARC
8
DEFAULT_255_2_778
10
6.5013992
20
6.924074
40
0.0412287
50
270.4921184
51
307.2729109
0
ARC
8
DEFAULT_255_2_778
10
6.5066478
20
6.9502786
40
0.0676092
50
227.1844259
51
265.8484549
0
ARC
8
DEFAULT_255_2_778
10
6.6186087
20
7.0876829
40
0.2447538
50
216.7657295
51
229.8206373
0
ARC
8
DEFAULT_255_2_778
10
6.9401279
20
7.3361155
40
0.6510505
50
211.0310548
51
217.3442123
0
ARC
8
DEFAULT_255_2_778
10
7.5998194
20
7.7379215
40
1.4234705
50
207.531278
51
211.2013183
0
ARC
8
DEFAULT_255_2_778
10
8.7674808
20
8.3511312
40
2.7423529
50
205.4140808
51
207.615635
0
ARC
8
DEFAULT_255_2_778
10
10.4894191
20
9.1740374
40
4.650817
50
204.221266
51
205.466948
0
ARC
8
DEFAULT_255_2_778
10
12.9090861
20
10.2641664
40
7.3047139
50
203.3462385
51
204.2327676
0
ARC
8
DEFAULT_255_2_778
10
-9.1209731
20
0.7596873
40
16.6881734
50
23.3328519
51
23.9068126
0
ARC
8
DEFAULT_255_2_778
10
-7.0183513
20
1.6931756
40
14.3876481
50
23.9015869
51
24.7423672
0
ARC
8
DEFAULT_255_2_778
10
-4.9476024
20
2.6482076
40
12.1072782
50
24.7391947
51
25.7729241
0
ARC
8
DEFAULT_255_2_778
10
-3.3856169
20
3.4011545
40
10.3732869
50
25.7790715
51
26.6465028
0
ARC
8
DEFAULT_255_2_778
10
-2.0131808
20
4.0919356
40
8.8368119
50
26.6342025
51
28.0492644
0
ARC
8
DEFAULT_255_2_778
10
-0.690629
20
4.7968873
40
7.3381125
50
28.047341
51
29.6601096
0
ARC
8
DEFAULT_255_2_778
10
-0.0814921
20
5.1405375
40
6.638731
50
29.68436
51
29.799881
0
ARC
8
DEFAULT_255_2_778
10
0.8796116
20
5.7037592
40
5.524823
50
29.6847353
51
33.6784841
0
ARC
8
DEFAULT_255_2_778
10
2.2479091
20
6.6185793
40
3.8788812
50
33.6413465
51
39.1672696
0
ARC
8
DEFAULT_255_2_778
10
3.1066825
20
7.3210213
40
2.7694176
50
39.1213943
51
46.9312277
0
ARC
8
DEFAULT_255_2_778
10
3.5879765
20
7.8410664
40
2.0608458
50
46.8332449
51
60.436827
0
ARC
8
DEFAULT_255_2_778
10
3.6298157
20
7.8772137
40
2.0088475
50
60.9661344
51
81.1051592
0
ARC
8
DEFAULT_255_2_778
10
3.4678299
20
6.9518424
40
2.9481854
50
80.7756414
51
88.6311632
0
ARC
8
DEFAULT_255_2_778
10
3.433193
20
6.1700446
40
3.7306217
50
88.3861814
51
89.3236223
0
ARC
8
DEFAULT_255_2_778
10
3.4527445
20
7.6762945
40
2.2242467
50
89.3691983
51
90.0000543
0
ARC
8
DEFAULT_255_2_778
10
3.4472127
20
7.8572054
40
2.0433434
50
89.8449455
51
101.4571023
0
ARC
8
DEFAULT_255_2_778
10
3.3872305
20
8.1483453
40
1.7460907
50
101.4257122
51
115.4464117
0
ARC
8
DEFAULT_255_2_778
10
3.2747948
20
8.3803862
40
1.4882518
50
115.3760413
51
133.6453481
0
ARC
8
DEFAULT_255_2_778
10
3.0769299
20
8.5695457
40
1.2148718
50
133.0499841
51
179.6039953
0
ARC
8
DEFAULT_255_2_778
10
3.0755752
20
8.5787876
40
1.2134883
50
180.0399068
51
190.1134767
0
ARC
8
DEFAULT_255_2_778
10
3.1542496
20
8.5927945
40
1.2933997
50
190.1123318
51
198.1991624
0
ARC
8
DEFAULT_255_2_778
10
3.2177586
20
8.6124952
40
1.3598852
50
198.1519757
51
200.1687032
0
ARC
8
DEFAULT_255_2_778
10
3.2778071
20
8.6353129
40
1.4241189
50
200.197457
51
205.7197462
0
ARC
8
DEFAULT_255_2_778
10
3.3781687
20
8.6836116
40
1.5354974
50
205.7182456
51
210.7134481
0
ARC
8
DEFAULT_255_2_778
10
3.4784146
20
8.7427641
40
1.6518938
50
210.70149
51
214.4501366
0
ARC
8
DEFAULT_255_2_778
10
3.4705426
20
8.7117933
40
1.6280189
50
213.7080245
51
228.5681552
0
ARC
8
DEFAULT_255_2_778
10
3.5389585
20
8.798082
40
1.7379959
50
228.7595368
51
231.5489964
0
ARC
8
DEFAULT_255_2_778
10
3.8589213
20
9.2112392
40
2.2605321
50
231.7097958
51
237.1179197
0
ARC
8
DEFAULT_255_2_778
10
4.5978997
20
10.3476694
40
3.6160964
50
237.0607986
51
240.4625322
0
ARC
8
DEFAULT_255_2_778
10
5.6787848
20
12.2431566
40
5.7981052
50
240.4037838
51
242.4062405
0
ARC
8
DEFAULT_255_2_778
10
7.2829939
20
15.3088033
40
9.2581159
50
242.3955299
51
243.8605187
0
ARC
8
DEFAULT_255_2_778
10
9.6438848
20
20.1044428
40
14.6033883
50
243.8343404
51
244.6961058
0
ARC
8
DEFAULT_255_2_778
10
13.2868324
20
27.8105653
40
23.1272014
50
244.6969137
51
245.3873884
0
ARC
8
DEFAULT_255_2_778
10
19.1591711
20
40.6104279
40
37.2098436
50
245.3752152
51
245.7759471
0
ARC
8
DEFAULT_255_2_778
10
28.276873
20
60.8685995
40
59.4252887
50
245.7732261
51
246.0507568
0
ARC
8
DEFAULT_255_2_778
10
-11.8372418
20
-30.1062371
40
40.0014197
50
65.9808698
51
66.4355643
0
ARC
8
DEFAULT_255_2_778
10
-7.0494921
20
-19.3629449
40
28.2395797
50
65.4201482
51
65.9812943
0
ARC
8
DEFAULT_255_2_778
10
-4.0301768
20
-12.7602542
40
20.9792913
50
64.8026297
51
65.4181006
0
ARC
8
DEFAULT_255_2_778
10
-1.6880691
20
-7.7910581
40
15.485808
50
63.8028228
51
64.8162221
0
ARC
8
DEFAULT_255_2_778
10
0.2733278
20
-3.8088284
40
11.046751
50
62.4068526
51
63.8127852
0
ARC
8
DEFAULT_255_2_778
10
1.7187176
20
-1.0456358
40
7.9283565
50
60.5751988
51
62.4148477
0
ARC
8
DEFAULT_255_2_778
10
2.7796991
20
0.83277
40
5.7710229
50
58.1178111
51
60.5880209
0
ARC
8
DEFAULT_255_2_778
10
3.4718061
20
1.9490585
40
4.4575895
50
55.7985029
51
58.0933624
0
ARC
8
DEFAULT_255_2_778
10
4.0316136
20
2.765155
40
3.4679559
50
51.1923648
51
55.8689799
0
ARC
8
DEFAULT_255_2_778
10
4.4857592
20
3.3284763
40
2.7443688
50
43.5207904
51
51.2102621
0
ARC
8
DEFAULT_255_2_778
10
4.3154422
20
3.1917191
40
2.9620988
50
32.6849796
51
43.1703452
0
ARC
8
DEFAULT_255_2_778
10
2.9127122
20
2.2587419
40
4.6466187
50
30.442651
51
33.0270418
0
ARC
8
DEFAULT_255_2_778
10
1.7321335
20
1.5559289
40
6.0205422
50
30.4770442
51
30.5164092
0
ARC
8
DEFAULT_255_2_778
10
0.2464778
20
0.6668227
40
7.7518875
50
29.8981106
51
30.5712542
0
ARC
8
DEFAULT_255_2_778
10
4.3971641
20
3.0489914
40
2.9661915
50
27.9188516
51
29.9717848
0
ARC
8
DEFAULT_255_2_778
10
5.7395872
20
3.7575957
40
1.4482298
50
23.1735884
51
28.014559
0
ARC
8
DEFAULT_255_2_778
10
6.1012151
20
3.9169604
40
1.0530745
50
8.926313
51
22.9450984
0
ARC
8
DEFAULT_255_2_778
10
5.2714627
20
3.7782187
40
1.8943237
50
4.4616429
51
9.1777674
0
ARC
8
DEFAULT_255_2_778
10
3.5552582
20
3.6360501
40
3.6163965
50
2.3562682
51
4.5920548
0
ARC
8
DEFAULT_255_2_778
10
0.7141806
20
3.5122222
40
6.4601668
50
1.3241667
51
2.4176237
0
ARC
8
DEFAULT_255_2_778
10
-5.243483
20
3.3776833
40
12.4193488
50
0.4383451
51
1.3095293
0
ARC
8
DEFAULT_255_2_778
10
-22.5184054
20
3.2357108
40
29.6948536
50
0.041202
51
0.4572671
0
ARC
8
DEFAULT_255_2_778
10
-55.7531883
20
3.1799358
40
62.9296761
50
359.9973735
51
0.0702238
0
ARC
8
DEFAULT_255_2_778
10
-84.0066198
20
3.1778353
40
91.1831075
50
359.9671319
51
359.9995072
0
ARC
8
DEFAULT_255_2_778
10
-132.4161026
20
3.205406
40
139.5925982
50
359.9453692
51
359.9672138
0
ARC
8
DEFAULT_255_2_778
10
-32.6844123
20
3.0978131
40
39.8608525
50
359.5820021
51
359.9633367
0
ARC
8
DEFAULT_255_2_778
10
-10.6432205
20
2.9346856
40
17.8190572
50
358.9067283
51
359.5894761
0
ARC
8
DEFAULT_255_2_778
10
-1.3703357
20
2.7513702
40
8.5443651
50
357.5151129
51
358.9493434
0
ARC
8
DEFAULT_255_2_778
10
3.1291043
20
2.5512655
40
4.040483
50
354.797003
51
357.5837374
0
ARC
8
DEFAULT_255_2_778
10
5.2007873
20
2.3579086
40
1.9598072
50
349.3032528
51
354.9341271
0
ARC
8
DEFAULT_255_2_778
10
5.9731362
20
2.2120069
40
1.1737981
50
336.4710863
51
349.3037437
0
ARC
8
DEFAULT_255_2_778
10
5.522859
20
2.4102218
40
1.6657696
50
332.3713065
51
336.4030144
0
ARC
8
DEFAULT_255_2_778
10
4.5634559
20
2.9045643
40
2.7450283
50
331.3254397
51
332.5161635
0
ARC
8
DEFAULT_255_2_778
10
4.3930545
20
2.9812306
40
2.9313545
50
314.4431626
51
331.6088642
0
ARC
8
DEFAULT_255_2_778
10
3.9073161
20
3.4582873
40
3.6120842
50
279.9659207
51
314.6454849
0
ARC
8
DEFAULT_255_2_778
10
2.0604004
20
16.5052763
40
16.7875753
50
277.9187164
51
278.4678046
0
ARC
8
DEFAULT_255_2_778
10
3.2228529
20
8.1300265
40
8.3320389
50
276.872825
51
277.9357311
0
ARC
8
DEFAULT_255_2_778
10
3.6849991
20
4.2583279
40
4.4328607
50
274.6255888
51
276.9307975
0
ARC
8
DEFAULT_255_2_778
10
3.8333577
20
2.3910643
40
2.559716
50
270.1564041
51
274.6862133
0
ARC
8
DEFAULT_255_2_778
10
3.839536
20
1.8593974
40
2.0280398
50
266.8813165
51
270.0228589
0
ARC
8
DEFAULT_255_2_778
10
3.8537819
20
2.0195238
40
2.1887111
50
260.4621438
51
266.7369924
0
ARC
8
DEFAULT_255_2_778
10
4.0583236
20
3.2660862
40
3.4519373
50
257.6767948
51
260.5424828
0
ARC
8
DEFAULT_255_2_778
10
4.6174649
20
5.8434828
40
6.0892853
50
256.0923888
51
257.7127888
0
ARC
8
DEFAULT_255_2_778
10
5.2864874
20
8.596727
40
8.9226298
50
256.0008216
51
256.1717038
0
ARC
8
DEFAULT_255_2_778
10
8.0489698
20
0.276861
40
0.8229835
50
196.4953661
51
200.4657893
0
ARC
8
DEFAULT_255_2_778
10
7.4896258
20
0.1134023
40
0.2402576
50
185.4789946
51
196.9932533
0
ARC
8
DEFAULT_255_2_778
10
7.3765159
20
0.1001289
40
0.12642
50
180.0761385
51
184.3853258
0
ARC
8
DEFAULT_255_2_778
10
7.3316789
20
0.101267
40
0.0815934
50
114.2447069
51
180.9172456
0
ARC
8
DEFAULT_255_2_778
10
7.4491637
20
-0.100134
40
0.3144239
50
106.5972933
51
118.6992099
0
ARC
8
DEFAULT_255_2_778
10
7.6122353
20
-0.6043905
40
0.84434
50
103.5610926
51
107.4279106
0
ARC
8
DEFAULT_255_2_778
10
7.8307293
20
-1.4968442
40
1.7631482
50
101.60511
51
103.6630686
0
ARC
8
DEFAULT_255_2_778
10
8.1485487
20
-3.0249953
40
3.3239961
50
100.7199341
51
101.6725305
0
ARC
8
DEFAULT_255_2_778
10
8.7853855
20
-6.4006766
40
6.7592228
50
99.9400032
51
100.7014336
0
ARC
8
DEFAULT_255_2_778
10
10.6852741
20
-17.1943826
40
17.7188599
50
99.6812744
51
99.9664993
0
ARC
8
DEFAULT_255_2_778
10
15.2220935
20
-43.6879509
40
44.5980669
50
99.6618933
51
99.7029327
0
ARC
8
DEFAULT_255_2_778
10
7.4302367
20
1.9530238
40
1.7033737
50
280.3761928
51
289.0918324
0
ARC
8
DEFAULT_255_2_778
10
7.7100154
20
1.1649719
40
0.8671825
50
288.653698
51
307.8642718
0
ARC
8
DEFAULT_255_2_778
10
7.8011219
20
1.0317803
40
0.70618
50
308.6615694
51
321.7415001
0
ARC
8
DEFAULT_255_2_778
10
7.5603698
20
1.2101528
40
1.0057149
50
322.2550193
51
329.8263318
0
ARC
8
DEFAULT_255_2_778
10
6.2682755
20
1.9763139
40
2.5078613
50
329.5312714
51
333.4026791
0
ARC
8
DEFAULT_255_2_778
10
3.7886217
20
3.2297282
40
5.286292
50
333.2879192
51
335.4746366
0
ARC
8
DEFAULT_255_2_778
10
-0.2958927
20
5.1025514
40
9.7796968
50
335.4255005
51
336.7617043
0
ARC
8
DEFAULT_255_2_778
10
-6.3577771
20
7.7127567
40
16.3796657
50
336.7383017
51
337.6057055
0
ARC
8
DEFAULT_255_2_778
10
-15.5119859
20
11.4872901
40
26.281516
50
337.6006518
51
338.2740564
0
ARC
8
DEFAULT_255_2_778
10
-29.5963066
20
17.1044931
40
41.4446633
50
338.2676577
51
338.7591778
0
ARC
8
DEFAULT_255_2_778
10
-49.2051122
20
24.733498
40
62.4852657
50
338.7530471
51
339.0920098
0
ARC
8
DEFAULT_255_2_778
10
-73.8850851
20
34.1684446
40
88.9072121
50
339.0880139
51
339.321691
0
ARC
8
DEFAULT_255_2_778
10
-102.9874659
20
45.1575707
40
120.0152407
50
339.3195285
51
339.48608
0
ARC
8
DEFAULT_255_2_778
10
-135.8200855
20
57.4459725
40
155.0721333
50
339.4848011
51
339.6069256
0
ARC
8
DEFAULT_255_2_778
10
-181.4005921
20
74.3868473
40
203.6990376
50
339.6080046
51
339.7405302
0
ARC
8
DEFAULT_255_2_778
10
-253.0723189
20
100.8415744
40
280.0972639
50
339.7404971
51
339.8551251
0
ARC
8
DEFAULT_255_2_778
10
-340.4927006
20
132.9215365
40
373.2178688
50
339.8535419
51
339.923523
0
ARC
8
DEFAULT_255_2_778
10
-445.184094
20
171.1832194
40
484.6819627
50
339.9236559
51
339.9887608
0
ARC
8
DEFAULT_255_2_778
10
-577.7771834
20
219.4788519
40
625.7967932
50
339.9882242
51
340.0331481
0
ARC
8
DEFAULT_255_2_778
10
-734.5413112
20
276.4342357
40
792.5868035
50
340.0331076
51
340.0707298
0
ARC
8
DEFAULT_255_2_778
10
12.3408468
20
9.6058999
40
0.514506
50
98.6605706
51
155.482334
0
ARC
8
DEFAULT_255_2_778
10
12.3326502
20
9.6762105
40
0.4437698
50
90.1044327
51
98.9813269
0
ARC
8
DEFAULT_255_2_778
10
12.334053
20
9.7542571
40
0.3657293
50
72.8934619
51
90.3464721
0
ARC
8
DEFAULT_255_2_778
10
12.3777709
20
9.8993668
40
0.2141817
50
62.7637755
51
72.6526788
0
ARC
8
DEFAULT_255_2_778
10
12.3592046
20
9.8788685
40
0.2410097
50
36.6927918
51
61.0693066
0
ARC
8
DEFAULT_255_2_778
10
11.9665012
20
9.5674694
40
0.7421203
50
28.8692765
51
37.8544931
0
ARC
8
DEFAULT_255_2_778
10
10.9149325
20
8.9688748
40
1.9520826
50
25.5951686
51
29.3533563
0
ARC
8
DEFAULT_255_2_778
10
8.9035651
20
7.9965154
40
4.1861486
50
23.6092638
51
25.7048082
0
ARC
8
DEFAULT_255_2_778
10
5.0220199
20
6.2954597
40
8.4240697
50
22.2288267
51
23.6373264
0
ARC
8
DEFAULT_255_2_778
10
-1.9461718
20
3.4373838
40
15.9556198
50
21.440366
51
22.2631278
0
ARC
8
DEFAULT_255_2_778
10
-13.3898071
20
-1.062092
40
28.2520443
50
20.8891174
51
21.4506748
0
ARC
8
DEFAULT_255_2_778
10
-31.3691373
20
-7.932798
40
47.4994565
50
20.5487558
51
20.8992375
0
ARC
8
DEFAULT_255_2_778
10
-56.439936
20
-17.3383132
40
74.2764733
50
20.3297886
51
20.554248
0
ARC
8
DEFAULT_255_2_778
10
-89.3281684
20
-29.5294878
40
109.3515435
50
20.1835949
51
20.3327393
0
ARC
8
DEFAULT_255_2_778
10
-130.6368558
20
-44.7192586
40
153.3644595
50
20.0830753
51
20.185194
0
ARC
8
DEFAULT_255_2_778
10
-194.4354038
20
-68.0404055
40
221.2918516
50
19.9797359
51
20.0819958
0
ARC
8
DEFAULT_255_2_778
10
-309.132693
20
-109.7438243
40
343.3354639
50
19.9032608
51
19.9801991
0
ARC
8
DEFAULT_255_2_778
10
-478.0338143
20
-170.9101319
40
522.9709443
50
19.8613705
51
19.9047116
0
ARC
8
DEFAULT_255_2_778
10
-739.0263412
20
-265.1879256
40
800.4694154
50
19.8266833
51
19.8612892
0
ARC
8
DEFAULT_255_2_778
10
-1175.9888604
20
-422.7464351
40
1264.9701441
50
19.8074978
51
19.827212
0
ARC
8
DEFAULT_255_2_778
10
-1944.8318272
20
-699.6651794
40
2082.1625931
50
19.7947989
51
19.8076165
0
ARC
8
DEFAULT_255_2_778
10
5018.7730518
20
1807.1475167
40
5318.9118479
50
199.7996104
51
199.8038478
0
ARC
8
DEFAULT_255_2_778
10
1541.3274999
20
554.8993144
40
1622.8662414
50
199.8029523
51
199.8219326
0
ARC
8
DEFAULT_255_2_778
10
738.2749436
20
265.4335669
40
769.2364463
50
199.8218108
51
199.8572768
0
ARC
8
DEFAULT_255_2_778
10
426.5198749
20
152.8357225
40
437.7707658
50
199.8564226
51
199.9204961
0
ARC
8
DEFAULT_255_2_778
10
265.0331846
20
94.3095292
40
266.0056166
50
199.9197912
51
200.0177473
0
ARC
8
DEFAULT_255_2_778
10
174.6305101
20
61.3710838
40
169.7892733
50
200.0168445
51
200.1575536
0
ARC
8
DEFAULT_255_2_778
10
121.4457052
20
41.8466931
40
113.1339532
50
200.1571186
51
200.3376523
0
ARC
8
DEFAULT_255_2_778
10
88.9521481
20
29.8021648
40
78.4799214
50
200.3372994
51
200.5602283
0
ARC
8
DEFAULT_255_2_778
10
68.0064207
20
21.9455283
40
56.1091762
50
200.5599947
51
200.8276348
0
ARC
8
DEFAULT_255_2_778
10
53.9248766
20
16.5885492
40
41.0430849
50
200.8274664
51
201.1421849
0
ARC
8
DEFAULT_255_2_778
10
42.2519066
20
12.0682956
40
28.5254625
50
201.130659
51
201.7042532
0
ARC
8
DEFAULT_255_2_778
10
32.8055502
20
8.305201
40
18.3571532
50
201.6952042
51
202.5205029
0
ARC
8
DEFAULT_255_2_778
10
26.4891307
20
5.6837785
40
11.5183665
50
202.5093488
51
203.6660214
0
ARC
8
DEFAULT_255_2_778
10
22.3040411
20
3.8459076
40
6.9475104
50
203.6380411
51
205.4171382
0
ARC
8
DEFAULT_255_2_778
10
19.5722592
20
2.5437063
40
3.921236
50
205.3636313
51
208.2143707
0
ARC
8
DEFAULT_255_2_778
10
17.9252017
20
1.6556851
40
2.0500462
50
208.1073679
51
212.9028503
0
ARC
8
DEFAULT_255_2_778
10
17.0437635
20
1.0810691
40
0.9978629
50
212.6943077
51
221.163159
0
ARC
8
DEFAULT_255_2_778
10
16.651415
20
0.7331118
40
0.4734751
50
220.7142456
51
237.8030534
0
ARC
8
DEFAULT_255_2_778
10
16.5779864
20
0.6266773
40
0.3443256
50
238.7058543
51
259.1379109
0
ARC
8
DEFAULT_255_2_778
10
16.6284524
20
0.9156477
40
0.6376475
50
259.5776119
51
269.4963679
0
ARC
8
DEFAULT_255_2_778
10
16.671596
20
2.5358445
40
2.2583459
50
268.7631206
51
270.1506008
0
ARC
8
DEFAULT_255_2_778
10
16.6890711
20
-1.1129984
40
1.3905527
50
81.9527916
51
90.4754564
0
ARC
8
DEFAULT_255_2_778
10
16.802643
20
-0.3515105
40
0.6206918
50
66.4658912
51
82.493142
0
ARC
8
DEFAULT_255_2_778
10
16.9736692
20
0.0065165
40
0.2245817
50
359.2575481
51
69.9996215
0
ARC
8
DEFAULT_255_2_778
10
17.1075793
20
-0.0087875
40
0.091496
50
285.0444639
51
7.7851165
0
ARC
8
DEFAULT_255_2_778
10
16.9685923
20
0.3403263
40
0.4667618
50
278.0785207
51
290.4047716
0
ARC
8
DEFAULT_255_2_778
10
16.7728956
20
1.544869
40
1.68703
50
274.2476312
51
278.9099581
0
ARC
8
DEFAULT_255_2_778
10
16.545349
20
4.3587232
40
4.5100469
50
272.4355178
51
274.4827468
0
ARC
8
DEFAULT_255_2_778
10
16.2886073
20
10.1871635
40
10.3441362
50
271.3065739
51
272.4844282
0
ARC
8
DEFAULT_255_2_778
10
16.0247622
20
21.0836313
40
21.2437927
50
270.7704719
51
271.3478788
0
ARC
8
DEFAULT_255_2_778
10
15.7536386
20
40.9661245
40
41.1281343
50
270.3881195
51
270.7756846
0
ARC
8
DEFAULT_255_2_778
10
15.5006891
20
75.8881913
40
76.0511151
50
270.2174703
51
270.4004635
0
ARC
8
DEFAULT_255_2_778
10
15.2646314
20
137.8766249
40
138.0399981
50
270.0887147
51
270.217792
0
ARC
8
DEFAULT_255_2_778
10
15.0508101
20
266.5693272
40
266.7328774
50
270.0292153
51
270.0918419
0
ARC
8
DEFAULT_255_2_778
10
14.8873542
20
571.241623
40
571.4052173
50
269.9976715
51
270.0300277
0
ARC
8
DEFAULT_255_2_778
10
14.8314095
20
502.233374
40
502.3969687
50
269.9588034
51
270.0037318
0
ARC
8
DEFAULT_255_2_778
10
14.6225497
20
215.7621046
40
215.9256232
50
269.8728897
51
269.9595682
0
ARC
8
DEFAULT_255_2_778
10
14.3954397
20
114.1330658
40
114.2963309
50
269.7378847
51
269.8737149
0
ARC
8
DEFAULT_255_2_778
10
14.1762741
20
66.4625302
40
66.6252914
50
269.5454503
51
269.7388153
0
ARC
8
DEFAULT_255_2_778
10
13.928968
20
36.4585383
40
36.6202829
50
269.1348704
51
269.5599502
0
ARC
8
DEFAULT_255_2_778
10
13.6425032
20
17.8383739
40
17.9979167
50
268.4025534
51
269.1517118
0
ARC
8
DEFAULT_255_2_778
10
13.3720703
20
8.2942036
40
8.4499178
50
267.1410508
51
268.4314669
0
ARC
8
DEFAULT_255_2_778
10
13.1256058
20
3.4680053
40
3.6174377
50
264.721688
51
267.2272073
0
ARC
8
DEFAULT_255_2_778
10
12.903794
20
1.1368465
40
1.275775
50
259.3336298
51
265.0099862
0
ARC
8
DEFAULT_255_2_778
10
12.7209996
20
0.2046023
40
0.3258822
50
244.2054455
51
260.5797719
0
ARC
8
DEFAULT_255_2_778
10
12.6176339
20
-0.0089818
40
0.0886006
50
171.8319297
51
244.2870201
0
ARC
8
DEFAULT_255_2_778
10
12.7440305
20
0.0127142
40
0.2142921
50
106.4898149
51
182.4359256
0
ARC
8
DEFAULT_255_2_778
10
12.9327868
20
-0.430954
40
0.6954729
50
97.7768194
51
111.0306185
0
ARC
8
DEFAULT_255_2_778
10
13.0836067
20
-1.4152581
40
1.6912101
50
92.0838725
51
98.3270773
0
ARC
8
DEFAULT_255_2_778
10
13.1514599
20
-2.8494975
40
3.1270075
50
89.9125599
51
92.3707353
0
ARC
8
DEFAULT_255_2_778
10
13.1675753
20
1.4138229
40
1.1363731
50
269.4280672
51
279.1348154
0
ARC
8
DEFAULT_255_2_778
10
13.2838681
20
0.730512
40
0.4433112
50
278.3157744
51
296.9621562
0
ARC
8
DEFAULT_255_2_778
10
13.4219715
20
0.4658943
40
0.144873
50
295.730406
51
335.6259258
0
ARC
8
DEFAULT_255_2_778
10
13.4492459
20
0.4439474
40
0.1113155
50
340.1265189
51
351.6964546
0
ARC
8
DEFAULT_255_2_778
10
13.3414299
20
0.4606801
40
0.2204199
50
351.4399735
51
358.5256348
0
ARC
8
DEFAULT_255_2_778
10
13.2306977
20
0.4653748
40
0.3312414
50
358.2066631
51
0.0285683
0
ARC
8
DEFAULT_255_2_778
10
12.8402098
20
0.4520339
40
0.7218556
50
1.0720727
51
9.7061801
0
ARC
8
DEFAULT_255_2_778
10
11.4537412
20
0.2317018
40
2.1256889
50
9.2594266
51
13.3479008
0
ARC
8
DEFAULT_255_2_778
10
8.850606
20
-0.3746622
40
4.7985032
50
13.2167422
51
15.5395324
0
ARC
8
DEFAULT_255_2_778
10
4.880585
20
-1.4676855
40
8.9162341
50
15.4719785
51
16.7891675
0
ARC
8
DEFAULT_255_2_778
10
-0.8977332
20
-3.2084792
40
14.951076
50
16.77966
51
17.7903967
0
ARC
8
DEFAULT_255_2_778
10
-8.4025313
20
-5.6068981
40
22.8298038
50
17.7671674
51
18.3374501
0
ARC
8
DEFAULT_255_2_778
10
-18.5393976
20
-8.97003
40
33.5100055
50
18.3428578
51
18.9203961
0
ARC
8
DEFAULT_255_2_778
10
-34.0052459
20
-14.2662941
40
49.8575699
50
18.9149269
51
19.339597
0
ARC
8
DEFAULT_255_2_778
10
-47.0741946
20
-18.8393642
40
63.7035171
50
19.3279257
51
19.4475304
0
ARC
8
DEFAULT_255_2_778
10
19.6266304
20
-1.5032958
40
10.596271
50
160.9788746
51
161.1013848
0
ARC
8
DEFAULT_255_2_778
10
20.5369533
20
-1.8081672
40
11.5562693
50
161.1331747
51
163.7487214
0
ARC
8
DEFAULT_255_2_778
10
19.3912931
20
-1.4791119
40
10.3643003
50
163.7227058
51
165.1500543
0
ARC
8
DEFAULT_255_2_778
10
16.2226024
20
-0.6444255
40
7.0875243
50
165.1072838
51
166.9281504
0
ARC
8
DEFAULT_255_2_778
10
12.6007395
20
0.1914761
40
3.3704593
50
166.8444185
51
169.4770672
0
ARC
8
DEFAULT_255_2_778
10
10.2270138
20
0.625794
40
0.9573583
50
169.0881841
51
174.7586894
0
ARC
8
DEFAULT_255_2_778
10
9.5480462
20
0.6922544
40
0.2751899
50
175.6245298
51
178.6565554
0
ARC
8
DEFAULT_255_2_778
10
9.7962661
20
0.6936734
40
0.5233583
50
179.4489956
51
180.0015232
0
ARC
8
DEFAULT_255_2_778
10
9.6400559
20
0.6783743
40
0.3674662
50
177.6160269
51
249.5193512
0
ARC
8
DEFAULT_255_2_778
10
9.7905121
20
1.0158925
40
0.7366478
50
247.7417122
51
265.0706473
0
ARC
8
DEFAULT_255_2_778
10
9.8435662
20
1.4523267
40
1.1761267
50
264.322535
51
270.1339607
0
ARC
8
DEFAULT_255_2_778
10
9.8463145
20
1.6062469
40
1.3300437
50
270.0000701
51
270.1256841
0
ARC
8
DEFAULT_255_2_778
10
9.8519549
20
-0.7372107
40
1.0134207
50
78.7984868
51
90.1539417
0
ARC
8
DEFAULT_255_2_778
10
9.9526246
20
-0.2508439
40
0.5167809
50
61.7259605
51
79.271931
0
ARC
8
DEFAULT_255_2_778
10
10.1077556
20
0.0229154
40
0.2023187
50
22.2170426
51
63.6933783
0
ARC
8
DEFAULT_255_2_778
10
10.1627094
20
0.0534158
40
0.1401106
50
359.8846754
51
19.1661596
0
ARC
8
DEFAULT_255_2_778
10
10.1344699
20
0.0545326
40
0.1683557
50
340.5067392
51
359.5239326
0
ARC
8
DEFAULT_255_2_778
10
10.094085
20
0.0667866
40
0.2105237
50
337.9657504
51
341.0305565
0
ARC
8
DEFAULT_255_2_778
10
10.2322598
20
0.0176661
40
0.0643229
50
293.9108062
51
332.3405652
0
ARC
8
DEFAULT_255_2_778
10
10.108891
20
0.2455642
40
0.3233103
50
285.8695698
51
297.5303152
0
ARC
8
DEFAULT_255_2_778
10
9.9276905
20
0.8444888
40
0.9490152
50
281.1110752
51
286.504676
0
ARC
8
DEFAULT_255_2_778
10
9.7094622
20
1.9257337
40
2.052056
50
278.0800515
51
281.2721584
0
ARC
8
DEFAULT_255_2_778
10
9.4649399
20
3.625206
40
3.7690278
50
275.8647239
51
278.1290456
0
ARC
8
DEFAULT_255_2_778
10
9.2025772
20
6.1627571
40
6.3201055
50
274.0386808
51
275.8801562
0
ARC
8
DEFAULT_255_2_778
10
8.9639901
20
9.5004411
40
9.6663053
50
272.5504881
51
274.0559994
0
ARC
8
DEFAULT_255_2_778
10
8.795346
20
13.285188
40
13.4548074
50
270.9319704
51
272.5507302
0
ARC
8
DEFAULT_255_2_778
10
8.7549572
20
15.3082945
40
15.4783052
50
270.0844507
51
270.9596485
0
ARC
8
DEFAULT_255_2_778
10
8.7538694
20
15.5247229
40
15.694735
50
270.0004844
51
270.0872573
0
ARC
8
DEFAULT_255_2_778
10
8.7481752
20
14.582128
40
14.7521411
50
268.1989293
51
270.0226309
0
ARC
8
DEFAULT_255_2_778
10
8.6319354
20
10.8960838
40
11.0642644
50
266.6861542
51
268.2006492
0
ARC
8
DEFAULT_255_2_778
10
8.4254609
20
7.3432733
40
7.5054593
50
265.0543778
51
266.691941
0
ARC
8
DEFAULT_255_2_778
10
8.1907063
20
4.6339657
40
4.7860005
50
263.2134187
51
265.0580955
0
ARC
8
DEFAULT_255_2_778
10
7.9465174
20
2.6085215
40
2.7458938
50
260.39597
51
263.2786933
0
ARC
8
DEFAULT_255_2_778
10
7.70561
20
1.1993015
40
1.3162346
50
255.9981089
51
260.5012828
0
ARC
8
DEFAULT_255_2_778
10
7.5058735
20
0.4107755
40
0.5028193
50
247.8606539
51
256.3416555
0
ARC
8
DEFAULT_255_2_778
10
7.3604932
20
0.0635926
40
0.1265036
50
226.9399467
51
249.5919596
0
ARC
8
DEFAULT_255_2_778
10
7.3006653
20
-0.0028942
40
0.0371156
50
202.3261886
51
224.3421208
0
ARC
8
DEFAULT_255_2_778
10
12.3451333
20
3.6634086
40
0.1872899
50
3.7035284
51
13.9338635
0
ARC
8
DEFAULT_255_2_778
10
11.2438434
20
3.4227085
40
1.3145138
50
12.5574646
51
15.2322056
0
ARC
8
DEFAULT_255_2_778
10
8.4817004
20
2.6817082
40
4.1743179
50
15.0848729
51
16.3562216
0
ARC
8
DEFAULT_255_2_778
10
3.4099114
20
1.2005589
40
9.4579553
50
16.3135011
51
17.0432567
0
ARC
8
DEFAULT_255_2_778
10
-3.5751971
20
-0.9343579
40
16.7620357
50
17.0222986
51
17.4479521
0
ARC
8
DEFAULT_255_2_778
10
-13.1779936
20
-3.9531933
40
26.8281704
50
17.4493233
51
17.8480326
0
ARC
8
DEFAULT_255_2_778
10
-26.3323447
20
-8.1859139
40
40.6467403
50
17.8442123
51
18.1637961
0
ARC
8
DEFAULT_255_2_778
10
-42.4447909
20
-13.4734989
40
57.6046137
50
18.1650828
51
18.5132228
0
ARC
8
DEFAULT_255_2_778
10
-55.8293437
20
-17.9500066
40
71.7179178
50
18.5091804
51
18.8452097
0
ARC
8
DEFAULT_255_2_778
10
-57.8054232
20
-18.6211576
40
73.8048592
50
18.8427839
51
18.9460597
0
ARC
8
DEFAULT_255_2_778
10
-51.7571848
20
-16.5383374
40
67.4080409
50
18.9407443
51
19.3076771
0
ARC
8
DEFAULT_255_2_778
10
-36.7207809
20
-11.2715272
40
51.4759121
50
19.3088593
51
19.6041932
0
ARC
8
DEFAULT_255_2_778
10
-22.8428115
20
-6.3272152
40
36.7434902
50
19.6020707
51
19.940604
0
ARC
8
DEFAULT_255_2_778
10
-11.9118674
20
-2.3623208
40
25.115682
50
19.9423538
51
20.2775941
0
ARC
8
DEFAULT_255_2_778
10
-4.7450618
20
0.2848562
40
17.4756133
50
20.279806
51
20.6065277
0
ARC
8
DEFAULT_255_2_778
10
1.3353801
20
2.5752066
40
10.9781173
50
20.5866356
51
21.226839
0
ARC
8
DEFAULT_255_2_778
10
6.1770924
20
4.4567523
40
5.7836596
50
21.2179784
51
22.0730121
0
ARC
8
DEFAULT_255_2_778
10
8.2526381
20
5.2954201
40
3.5450794
50
22.1177239
51
22.5182496
0
ARC
8
DEFAULT_255_2_778
10
10.3101278
20
3.6701653
40
0.0578931
50
188.9022915
51
258.2109598
0
ARC
8
DEFAULT_255_2_778
10
10.4566319
20
4.0251002
40
0.4410093
50
248.9598294
51
261.601605
0
ARC
8
DEFAULT_255_2_778
10
10.6577411
20
5.2099506
40
1.6427311
50
260.6982579
51
265.5622226
0
ARC
8
DEFAULT_255_2_778
10
10.8687652
20
7.6926881
40
4.134394
50
265.308807
51
267.4464011
0
ARC
8
DEFAULT_255_2_778
10
11.083969
20
12.4247393
40
8.8713352
50
267.4195434
51
268.8480729
0
ARC
8
DEFAULT_255_2_778
10
11.2703332
20
21.0011393
40
17.4497541
50
268.8023985
51
269.5441245
0
ARC
8
DEFAULT_255_2_778
10
11.3857153
20
34.8164707
40
31.2655667
50
269.5341233
51
270.0222045
0
ARC
8
DEFAULT_255_2_778
10
11.4137017
20
41.0514511
40
37.500548
50
269.9757533
51
270.4029429
0
ARC
8
DEFAULT_255_2_778
10
11.5534948
20
21.8225481
40
18.2711379
50
270.3886432
51
271.1293667
0
ARC
8
DEFAULT_255_2_778
10
11.7522735
20
12.0442116
40
8.4907852
50
271.0888106
51
272.4878615
0
ARC
8
DEFAULT_255_2_778
10
11.9683737
20
7.1749643
40
3.6167499
50
272.4160427
51
274.967802
0
ARC
8
DEFAULT_255_2_778
10
12.1765873
20
4.8593628
40
1.2918351
50
274.6613322
51
280.5282663
0
ARC
8
DEFAULT_255_2_778
10
12.3606031
20
3.9088902
40
0.3238216
50
279.2458955
51
295.9379587
0
ARC
8
DEFAULT_255_2_778
10
12.4784534
20
3.6773139
40
0.0641964
50
291.7501585
51
358.6544333
0
LINE
8
DEFAULT_255_2_778
10
1.612732
20
0.7212064
11
1.291832
21
1.0022064
0
LINE
8
DEFAULT_255_2_778
10
1.291832
20
1.0022064
11
1.103432
21
0.7429064
0
LINE
8
DEFAULT_255_2_778
10
1.103432
20
0.7429064
11
0.674032
21
0.2185064
0
LINE
8
DEFAULT_255_2_778
10
5.884732
20
9.4715064
11
6.147932
21
9.8816064
0
LINE
8
DEFAULT_255_2_778
10
3.128032
20
-0.0608936
11
3.116932
21
-0.0539936
0
LINE
8
DEFAULT_255_2_778
10
10.580732
20
6.2732064
11
11.872732
21
9.8194064
0
LINE
8
DEFAULT_255_2_778
10
12.994832
20
2.3703064
11
12.769132
21
3.0106064
0
LINE
8
DEFAULT_255_2_778
10
12.769132
20
3.0106064
11
9.941332
21
2.9625064
0
LINE
8
DEFAULT_255_2_778
10
9.941332
20
2.9625064
11
9.608932
21
1.9502064
0
LINE
8
DEFAULT_255_2_778
10
7.266332
20
-0.0169936
11
7.277932
21
-0.0108936
0
LINE
8
DEFAULT_255_2_778
10
11.527432
20
6.6531064
11
11.402532
21
6.9415064
0
LINE
8
DEFAULT_255_2_778
10
11.402532
20
6.9415064
11
11.306532
21
6.6775064
0
LINE
8
DEFAULT_255_2_778
10
11.306532
20
6.6775064
11
10.252932
21
3.6612064
0
LINE
8
DEFAULT_255_2_778
10
12.542632
20
3.6758064
11
12.532032
21
3.6755064
0
ENDSEC
0
EOF