0
SECTION
2
HEADER
9
$MEASUREMENT
70
1
0
ENDSEC
0
SECTION
2
TABLES
0
TABLE
2
LTYPE
0
LTYPE
72
65
70
64
2
CONTINUOUS
3
______
73
0
40
0
0
ENDTAB
0
TABLE
2
LAYER
0
LAYER
2
DEFAULT_255_2_778
70
0
62
255
6
CONTINUOUS
0
ENDTAB
0
ENDSEC
0
SECTION
2
ENTITIES
0
ARC
8
DEFAULT_255_2_778
10
1.077573
20
0.5923721
40
0.7756184
50
184.1781407
51
269.7298414
0
ARC
8
DEFAULT_255_2_778
10
6.8057871
20
0.8807682
40
6.510874
50
180.2899434
51
182.8938467
0
ARC
8
DEFAULT_255_2_778
10
6.8071467
20
0.8805006
40
6.5122324
50
180.0007052
51
180.2875283
0
ARC
8
DEFAULT_255_2_778
10
6.7424551
20
0.8806835
40
6.4475407
50
177.005868
51
180.0023377
0
ARC
8
DEFAULT_255_2_778
10
1.0867486
20
1.7158058
40
0.7677198
50
138.2354042
51
179.1374958
0
ARC
8
DEFAULT_255_2_778
10
1.9888204
20
2.645146
40
1.5327962
50
185.4768872
51
195.8246147
0
ARC
8
DEFAULT_255_2_778
10
2.3052522
20
2.6792533
40
1.8510426
50
179.9265718
51
185.5929636
0
ARC
8
DEFAULT_255_2_778
10
2.6423501
20
2.6784856
40
2.1881412
50
174.418025
51
179.9177804
0
ARC
8
DEFAULT_255_2_778
10
2.9240113
20
2.6541215
40
2.4708386
50
172.7704871
51
174.4910357
0
ARC
8
DEFAULT_255_2_778
10
4.2682697
20
2.573942
40
3.814987
50
170.4587342
51
173.4327079
0
ARC
8
DEFAULT_255_2_778
10
2.2688947
20
2.9111846
40
1.7873702
50
160.8979861
51
170.4960839
0
ARC
8
DEFAULT_255_2_778
10
1.8962917
20
3.0319601
40
1.3957815
50
155.9927342
51
160.5774106
0
ARC
8
DEFAULT_255_2_778
10
1.7968553
20
3.0757789
40
1.2871191
50
152.150258
51
155.9736939
0
ARC
8
DEFAULT_255_2_778
10
1.6026025
20
3.1924216
40
1.0609476
50
94.6037994
51
152.8192008
0
ARC
8
DEFAULT_255_2_778
10
1.6347741
20
3.0049176
40
1.2505448
50
89.9706002
51
95.3835244
0
ARC
8
DEFAULT_255_2_778
10
1.6533284
20
3.2123704
40
1.0425058
50
79.9130325
51
86.8113872
0
ARC
8
DEFAULT_255_2_778
10
2.3461831
20
3.6623166
40
0.7698457
50
89.9982881
51
131.5151162
0
LINE
8
DEFAULT_255_2_778
10
2.3462061
20
4.4321624
11
2.3466158
21
4.4321623
0
ARC
8
DEFAULT_255_2_778
10
2.3426494
20
3.6570806
40
0.7751725
50
1.510719
51
89.1228789
0
ARC
8
DEFAULT_255_2_778
10
2.3288357
20
3.657124
40
0.7889804
50
359.9989381
51
1.4811187
0
ARC
8
DEFAULT_255_2_778
10
2.4200053
20
3.6569226
40
0.6978109
50
359.9539908
51
0.0153353
0
ARC
8
DEFAULT_255_2_778
10
2.3050313
20
2.6013313
40
0.7719358
50
337.116891
51
349.8625132
0
ARC
8
DEFAULT_255_2_778
10
2.0827177
20
1.5097093
40
1.2238532
50
1.026053
51
40.2924662
0
ARC
8
DEFAULT_255_2_778
10
1.8684488
20
1.4861694
40
1.4386442
50
0.5931398
51
1.8106237
0
ARC
8
DEFAULT_255_2_778
10
2.0680411
20
1.4876125
40
1.2390477
50
359.999266
51
0.621953
0
ARC
8
DEFAULT_255_2_778
10
1.9772245
20
1.5010044
40
1.3299319
50
315.7786495
51
359.4223622
0
ARC
8
DEFAULT_255_2_778
10
1.8607984
20
1.5914375
40
1.4765307
50
310.5350909
51
316.4146779
0
ARC
8
DEFAULT_255_2_778
10
1.8568177
20
1.5891284
40
1.4773698
50
270.1240301
51
310.7106217
0
ARC
8
DEFAULT_255_2_778
10
1.8591442
20
1.5777593
40
1.4659973
50
263.3712446
51
270.0340648
0
ARC
8
DEFAULT_255_2_778
10
1.077364
20
0.5832966
40
0.7667414
50
273.346041
51
318.6916759
0
LINE
8
DEFAULT_255_2_778
10
0.3040158
20
0.5358623
11
0.3032158
21
0.5520623
0
LINE
8
DEFAULT_255_2_778
10
0.3037158
20
1.2174623
11
0.3191158
21
1.7254623
0
LINE
8
DEFAULT_255_2_778
10
0.3191158
20
1.7254623
11
0.3191158
21
1.7273623
0
LINE
8
DEFAULT_255_2_778
10
0.4728158
20
2.9650623
11
0.4783158
21
3.0102623
0
LINE
8
DEFAULT_255_2_778
10
1.6354158
20
4.2554623
11
1.7113158
21
4.2532623
0
LINE
8
DEFAULT_255_2_778
10
2.3466158
20
4.4321623
11
2.3545158
21
4.4321623
0
LINE
8
DEFAULT_255_2_778
10
3.1178158
20
3.6563623
11
3.1178158
21
3.6476623
0
LINE
8
DEFAULT_255_2_778
10
3.1178158
20
3.6476623
11
3.0675158
21
2.4813623
0
LINE
8
DEFAULT_255_2_778
10
3.0675158
20
2.4813623
11
3.0649158
21
2.4654623
0
LINE
8
DEFAULT_255_2_778
10
1.6899158
20
0.1215623
11
1.6533158
21
0.0771623
0
LINE
8
DEFAULT_255_2_778
10
1.1221158
20
-0.1821377
11
1.0739158
21
-0.1837377
0
LINE
8
DEFAULT_255_2_778
10
1.0739158
20
-0.1837377
11
1.0739158
21
-0.1832377
0
ARC
8
DEFAULT_255_2_778
10
1.6707701
20
2.546681
40
0.2627872
50
198.1398286
51
266.0478234
0
ARC
8
DEFAULT_255_2_778
10
1.9200293
20
2.6296813
40
0.5255008
50
182.7244625
51
198.2784677
0
ARC
8
DEFAULT_255_2_778
10
2.2923369
20
2.6612936
40
0.8989972
50
179.9175805
51
183.6090884
0
ARC
8
DEFAULT_255_2_778
10
2.6000973
20
2.660569
40
1.2067585
50
176.341623
51
179.9041986
0
ARC
8
DEFAULT_255_2_778
10
3.0290308
20
2.6337005
40
1.6365324
50
173.5301155
51
176.3610652
0
ARC
8
DEFAULT_255_2_778
10
3.381532
20
2.5958459
40
1.9910552
50
172.7585938
51
173.5907376
0
ARC
8
DEFAULT_255_2_778
10
7.2626512
20
2.17591
40
5.8940868
50
172.6551265
51
172.9872659
0
ARC
8
DEFAULT_255_2_778
10
6.1983535
20
2.3126151
40
4.8210455
50
172.5187328
51
172.6494457
0
ARC
8
DEFAULT_255_2_778
10
3.853231
20
2.6343202
40
2.4540371
50
169.421294
51
172.83689
0
ARC
8
DEFAULT_255_2_778
10
2.107858
20
2.9682899
40
0.6770625
50
159.6237093
51
170.0870719
0
ARC
8
DEFAULT_255_2_778
10
1.6274271
20
3.1563257
40
0.1614734
50
119.0181026
51
162.8157562
0
ARC
8
DEFAULT_255_2_778
10
1.6285196
20
3.1179889
40
0.1963219
50
87.5712046
51
113.862593
0
ARC
8
DEFAULT_255_2_778
10
1.6361875
20
2.8629414
40
0.4511934
50
87.0055193
51
89.9172356
0
ARC
8
DEFAULT_255_2_778
10
1.6222281
20
3.0423209
40
0.2737822
50
51.1014863
51
82.1211641
0
ARC
8
DEFAULT_255_2_778
10
1.4340151
20
2.7557939
40
0.6158703
50
50.764618
51
54.2143919
0
ARC
8
DEFAULT_255_2_778
10
2.0214794
20
3.4004249
40
0.2593546
50
220.2589763
51
221.1854665
0
ARC
8
DEFAULT_255_2_778
10
2.0491526
20
3.4246418
40
0.2961277
50
221.1859267
51
221.9910506
0
ARC
8
DEFAULT_255_2_778
10
2.0785782
20
3.4510909
40
0.3356931
50
221.9863007
51
222.6900733
0
ARC
8
DEFAULT_255_2_778
10
2.1153274
20
3.4849437
40
0.3856582
50
222.6849808
51
223.2912381
0
ARC
8
DEFAULT_255_2_778
10
2.158985
20
3.5261252
40
0.4456739
50
223.2962193
51
223.8147886
0
ARC
8
DEFAULT_255_2_778
10
2.2040377
20
3.5693811
40
0.5081306
50
223.8171954
51
224.2662738
0
ARC
8
DEFAULT_255_2_778
10
2.2635139
20
3.6274253
40
0.5912362
50
224.2712783
51
224.6519474
0
ARC
8
DEFAULT_255_2_778
10
2.3098426
20
3.6732473
40
0.6563975
50
224.6552236
51
224.9930696
0
ARC
8
DEFAULT_255_2_778
10
2.3678737
20
3.7311383
40
0.7383668
50
224.9861552
51
225.281809
0
ARC
8
DEFAULT_255_2_778
10
2.4877424
20
3.8521446
40
0.9086931
50
225.2797094
51
225.5159895
0
ARC
8
DEFAULT_255_2_778
10
2.6176346
20
3.9846273
40
1.0942293
50
225.5244108
51
225.8146553
0
ARC
8
DEFAULT_255_2_778
10
0.2796268
20
1.5167139
40
2.3054436
50
44.1283968
51
46.8965697
0
ARC
8
DEFAULT_255_2_778
10
1.3294926
20
2.5516956
40
0.8313296
50
41.6800313
51
43.3080836
0
ARC
8
DEFAULT_255_2_778
10
1.4912556
20
2.6904495
40
0.618259
50
29.1963795
51
42.0448331
0
ARC
8
DEFAULT_255_2_778
10
1.5524266
20
2.7277433
40
0.5466742
50
22.5081947
51
28.9116929
0
ARC
8
DEFAULT_255_2_778
10
1.0790287
20
2.5178322
40
1.0644439
50
15.3527113
51
23.191653
0
ARC
8
DEFAULT_255_2_778
10
1.4430666
20
2.6228481
40
0.6856104
50
6.2750936
51
14.9444279
0
ARC
8
DEFAULT_255_2_778
10
1.3130709
20
2.6080651
40
0.8164431
50
4.260436
51
6.3091746
0
ARC
8
DEFAULT_255_2_778
10
-5.7815964
20
1.7008212
40
7.9678605
50
6.2663594
51
6.9772489
0
ARC
8
DEFAULT_255_2_778
10
2.3049715
20
2.6019786
40
0.1692631
50
190.7115065
51
269.9790207
0
ARC
8
DEFAULT_255_2_778
10
2.3049093
20
2.6044606
40
0.1717451
50
270.0000774
51
270.3497715
0
ARC
8
DEFAULT_255_2_778
10
2.3051296
20
2.6019397
40
0.169223
50
270.2804118
51
349.9533344
0
ARC
8
DEFAULT_255_2_778
10
-273.7374656
20
14.2351415
40
276.4553385
50
357.5821658
51
357.657334
0
ARC
8
DEFAULT_255_2_778
10
-253.6101403
20
13.415908
40
256.3113481
50
357.6564013
51
357.8185544
0
ARC
8
DEFAULT_255_2_778
10
2.3433958
20
3.6603608
40
0.1720636
50
359.7529046
51
359.9999344
0
ARC
8
DEFAULT_255_2_778
10
2.3461321
20
3.6603967
40
0.1693272
50
359.9877714
51
89.5514328
0
ARC
8
DEFAULT_255_2_778
10
2.3470386
20
3.6995197
40
0.1301997
50
89.8155381
51
90.0615303
0
ARC
8
DEFAULT_255_2_778
10
2.3466056
20
3.6596674
40
0.1700524
50
89.9012261
51
179.5783941
0
ARC
8
DEFAULT_255_2_778
10
1.53782
20
2.8500091
40
0.8184718
50
39.0927106
51
77.1137984
0
ARC
8
DEFAULT_255_2_778
10
1.6515361
20
3.187903
40
0.4650839
50
81.4910478
51
86.7062251
0
ARC
8
DEFAULT_255_2_778
10
1.6348687
20
2.8529724
40
0.8004232
50
86.8926044
51
89.1915449
0
ARC
8
DEFAULT_255_2_778
10
1.6357159
20
2.8976018
40
0.7557863
50
89.2080251
51
89.9985315
0
ARC
8
DEFAULT_255_2_778
10
1.6295416
20
3.0634447
40
0.5899761
50
89.3984889
51
105.812409
0
ARC
8
DEFAULT_255_2_778
10
1.5868149
20
3.2171306
40
0.4304641
50
105.914602
51
137.1299543
0
ARC
8
DEFAULT_255_2_778
10
1.7944483
20
3.0626566
40
0.6883044
50
139.4652954
51
168.2800489
0
ARC
8
DEFAULT_255_2_778
10
2.7638369
20
2.8066423
40
1.6903424
50
166.4572662
51
172.3172794
0
ARC
8
DEFAULT_255_2_778
10
6.2154631
20
2.3219476
40
5.1758173
50
172.108
51
173.1717519
0
ARC
8
DEFAULT_255_2_778
10
2.8798294
20
2.6576032
40
1.824385
50
172.693645
51
176.1116467
0
ARC
8
DEFAULT_255_2_778
10
2.5879066
20
2.6772958
40
1.5317987
50
176.1060808
51
179.9425414
0
ARC
8
DEFAULT_255_2_778
10
2.1377727
20
2.6678098
40
1.0817203
50
179.4161805
51
193.5506726
0
ARC
8
DEFAULT_255_2_778
10
1.7075127
20
2.5578804
40
0.6377092
50
193.0064499
51
221.1815436
0
ARC
8
DEFAULT_255_2_778
10
1.654665
20
2.5326497
40
0.5815366
50
222.7392253
51
256.0774636
0
ARC
8
DEFAULT_255_2_778
10
1.7242708
20
2.7500643
40
0.8094553
50
254.9980385
51
261.2087477
0
ARC
8
DEFAULT_255_2_778
10
1.1028753
20
-1.3540211
40
3.341411
50
76.292074
51
81.434277
0
ARC
8
DEFAULT_255_2_778
10
1.5973303
20
0.6453106
40
1.2818723
50
65.8757703
51
76.5863777
0
ARC
8
DEFAULT_255_2_778
10
1.9314762
20
1.3697927
40
0.4841755
50
40.7797438
51
66.9236202
0
ARC
8
DEFAULT_255_2_778
10
2.0606141
20
1.4953644
40
0.3045608
50
359.3893932
51
38.7589793
0
ARC
8
DEFAULT_255_2_778
10
2.0589758
20
1.4890081
40
0.3061977
50
0.003633
51
0.5820642
0
ARC
8
DEFAULT_255_2_778
10
2.0511958
20
1.4892052
40
0.3139777
50
353.0942004
51
359.9675774
0
ARC
8
DEFAULT_255_2_778
10
1.9552582
20
1.5123675
40
0.4121636
50
313.7522673
51
351.5010594
0
ARC
8
DEFAULT_255_2_778
10
1.8628769
20
1.5897449
40
0.532106
50
310.5149714
51
315.1759811
0
ARC
8
DEFAULT_255_2_778
10
1.8569775
20
1.5948679
40
0.5398344
50
270.0109764
51
310.6377481
0
ARC
8
DEFAULT_255_2_778
10
1.8570869
20
1.5940633
40
0.5390298
50
264.4266196
51
269.9993672
0
ARC
8
DEFAULT_255_2_778
10
1.8571735
20
1.5949115
40
0.5398824
50
261.1762286
51
264.4262145
0
ARC
8
DEFAULT_255_2_778
10
1.9004357
20
1.8299686
40
0.7788225
50
250.4998756
51
260.683808
0
ARC
8
DEFAULT_255_2_778
10
2.1967246
20
2.1128416
40
1.1592103
50
238.6242697
51
241.323279
0
ARC
8
DEFAULT_255_2_778
10
2.2474283
20
2.2005796
40
1.2605196
50
233.6955046
51
238.7329602
0
ARC
8
DEFAULT_255_2_778
10
2.140498
20
2.0518717
40
1.0773694
50
232.6598943
51
233.5958865
0
ARC
8
DEFAULT_255_2_778
10
1.8753313
20
1.726293
40
0.657818
50
217.458296
51
233.8220909
0
ARC
8
DEFAULT_255_2_778
10
1.7454623
20
1.5886743
40
0.4720019
50
192.6923808
51
213.7829053
0
ARC
8
DEFAULT_255_2_778
10
2.216951
20
1.7147835
40
0.9598742
50
185.7505785
51
193.8524783
0
ARC
8
DEFAULT_255_2_778
10
2.3914048
20
1.7366788
40
1.135652
50
184.6294593
51
185.9677849
0
ARC
8
DEFAULT_255_2_778
10
1.088875
20
1.7166516
40
0.1721948
50
359.3235508
51
359.9995809
0
ARC
8
DEFAULT_255_2_778
10
1.0912152
20
1.7162843
40
0.169855
50
0.1234925
51
89.1085597
0
ARC
8
DEFAULT_255_2_778
10
1.090863
20
1.7175442
40
0.1686011
50
88.9822262
51
90.0033786
0
ARC
8
DEFAULT_255_2_778
10
1.090872
20
1.7171226
40
0.1690228
50
90.006439
51
134.1893495
0
ARC
8
DEFAULT_255_2_778
10
1.0911781
20
1.71656
40
0.1696397
50
134.1310287
51
179.1357513
0
ARC
8
DEFAULT_255_2_778
10
6.1250804
20
0.8996421
40
5.2274017
50
176.8738212
51
178.6066157
0
ARC
8
DEFAULT_255_2_778
10
6.7273287
20
0.8841078
40
5.8298498
50
178.5979175
51
180.007521
0
ARC
8
DEFAULT_255_2_778
10
6.9452421
20
0.8834126
40
6.0477633
50
180.0006641
51
181.0312655
0
ARC
8
DEFAULT_255_2_778
10
6.7899271
20
0.8805275
40
5.8924213
50
181.0303977
51
181.6103678
0
ARC
8
DEFAULT_255_2_778
10
6.4222401
20
0.8700482
40
5.5245852
50
181.6088923
51
182.1305197
0
ARC
8
DEFAULT_255_2_778
10
5.8786375
20
0.8498046
40
4.9806059
50
182.1302827
51
182.5282533
0
ARC
8
DEFAULT_255_2_778
10
5.1425636
20
0.8169316
40
4.2437984
50
182.5232396
51
182.9898196
0
ARC
8
DEFAULT_255_2_778
10
4.2218985
20
0.7690609
40
3.3218895
50
182.9935277
51
183.0462367
0
ARC
8
DEFAULT_255_2_778
10
4.6103833
20
0.7892978
40
3.7109009
50
183.0394985
51
183.0830378
0
ARC
8
DEFAULT_255_2_778
10
-2.2863971
20
0.4118094
40
3.1962056
50
2.9898191
51
3.1907951
0
ARC
8
DEFAULT_255_2_778
10
1.0748584
20
0.5894152
40
0.1697507
50
183.6804245
51
269.9255997
0
ARC
8
DEFAULT_255_2_778
10
1.0746288
20
0.5917441
40
0.1720793
50
270.0030412
51
273.6747292
0
ARC
8
DEFAULT_255_2_778
10
1.0747612
20
0.5894193
40
0.1697507
50
273.6804245
51
359.9255997
0
ARC
8
DEFAULT_255_2_778
10
1.0724324
20
0.5891898
40
0.1720793
50
0.0030412
51
3.6747292
0
ARC
8
DEFAULT_255_2_778
10
1.9402691
20
1.9955375
40
1.2875169
50
236.8789682
51
260.0932364
0
ARC
8
DEFAULT_255_2_778
10
1.8602073
20
1.5720991
40
0.8566393
50
260.4957108
51
265.1916
0
ARC
8
DEFAULT_255_2_778
10
1.8600996
20
1.5709749
40
0.8555099
50
265.1924768
51
269.9999229
0
ARC
8
DEFAULT_255_2_778
10
1.8576064
20
1.5888264
40
0.8733651
50
270.163485
51
310.832649
0
ARC
8
DEFAULT_255_2_778
10
1.9287829
20
1.5287886
40
0.7815365
50
309.7623941
51
345.4061812
0
ARC
8
DEFAULT_255_2_778
10
2.0492239
20
1.4885017
40
0.6548875
50
346.1621297
51
359.9235252
0
ARC
8
DEFAULT_255_2_778
10
2.0686296
20
1.487627
40
0.6354811
50
0.000051
51
0.7385962
0
ARC
8
DEFAULT_255_2_778
10
2.0013333
20
1.4938689
40
0.7027272
50
0.1589715
51
17.4292391
0
ARC
8
DEFAULT_255_2_778
10
2.0443861
20
1.4904859
40
0.6628604
50
18.8230191
51
60.5959854
0
ARC
8
DEFAULT_255_2_778
10
1.7186823
20
0.9687293
40
1.2776108
50
59.3589307
51
73.1736888
0
ARC
8
DEFAULT_255_2_778
10
1.4454002
20
0.1205286
40
2.1686641
50
72.7495898
51
78.3758238
0
ARC
8
DEFAULT_255_2_778
10
1.1928386
20
-1.06994
40
3.3856138
50
78.2486855
51
80.3577616
0
ARC
8
DEFAULT_255_2_778
10
0.4738693
20
-5.3216822
40
7.6977158
50
80.3825901
51
81.1951269
0
LINE
8
DEFAULT_255_2_778
10
1.4063578
20
2.8468187
11
1.4126578
21
2.8955187
0
LINE
8
DEFAULT_255_2_778
10
2.1386578
20
2.5705187
11
2.1386578
21
2.5705187
0
LINE
8
DEFAULT_255_2_778
10
2.1765578
20
3.6609187
11
2.1730578
21
3.3661187
0
LINE
8
DEFAULT_255_2_778
10
1.0763578
20
2.9373187
11
1.0702578
21
2.8896187
0
LINE
8
DEFAULT_255_2_778
10
1.2594578
20
1.6450187
11
1.2610578
21
1.7146187
0
LINE
8
DEFAULT_255_2_778
10
0.9215578
20
1.7191187
11
0.9054578
21
1.1847187
0
LINE
8
DEFAULT_255_2_778
10
1.2441578
20
0.6002187
11
1.2367578
21
0.9172187
0
LINE
8
DEFAULT_255_2_778
10
1.6521578
20
2.2853187
11
1.6526578
21
2.2845187
0
ARC
8
DEFAULT_255_2_778
10
6.934637
20
1.1941731
40
1.2193016
50
249.2142652
51
269.4470333
0
ARC
8
DEFAULT_255_2_778
10
7.0461799
20
1.5419239
40
1.5841178
50
248.7784912
51
249.9060028
0
ARC
8
DEFAULT_255_2_778
10
6.8166667
20
0.9468548
40
0.9463248
50
227.9224067
51
248.6906707
0
ARC
8
DEFAULT_255_2_778
10
6.8832502
20
1.0272315
40
1.0506127
50
224.8234779
51
228.1646825
0
ARC
8
DEFAULT_255_2_778
10
5.8503569
20
0.9901751
40
0.7601031
50
278.1390757
51
292.241911
0
ARC
8
DEFAULT_255_2_778
10
5.0289092
20
0.9001374
40
0.7902094
50
269.9681194
51
278.1087036
0
ARC
8
DEFAULT_255_2_778
10
5.0319064
20
0.8860791
40
0.7761584
50
188.3975509
51
269.7462924
0
ARC
8
DEFAULT_255_2_778
10
5.0290225
20
0.8852316
40
0.7731818
50
185.8911422
51
188.3666354
0
ARC
8
DEFAULT_255_2_778
10
5.0234743
20
0.8847142
40
0.7676097
50
180.0041772
51
185.8952263
0
ARC
8
DEFAULT_255_2_778
10
5.0216052
20
0.8840079
40
0.7657409
50
143.1604097
51
179.9513409
0
ARC
8
DEFAULT_255_2_778
10
5.026533
20
0.8847842
40
0.7692275
50
120.7987771
51
143.4267591
0
ARC
8
DEFAULT_255_2_778
10
5.1466392
20
2.2379469
40
0.7709695
50
180.0013808
51
228.1308401
0
ARC
8
DEFAULT_255_2_778
10
5.5132546
20
2.2391208
40
1.1375857
50
180.012012
51
180.0600588
0
ARC
8
DEFAULT_255_2_778
10
5.1436297
20
2.2389473
40
0.7679607
50
144.3143055
51
180.0048538
0
ARC
8
DEFAULT_255_2_778
10
4.939326
20
3.3361362
40
0.772926
50
188.2349235
51
237.1332969
0
ARC
8
DEFAULT_255_2_778
10
4.9309768
20
3.3371649
40
0.7648134
50
184.8081263
51
188.4007768
0
ARC
8
DEFAULT_255_2_778
10
4.9302216
20
3.3371023
40
0.7640555
50
179.9997822
51
184.8081993
0
ARC
8
DEFAULT_255_2_778
10
4.930775
20
3.3370871
40
0.7646089
50
143.1323741
51
179.9986444
0
ARC
8
DEFAULT_255_2_778
10
4.9344493
20
3.3409182
40
0.7652682
50
98.0056683
51
143.5268976
0
ARC
8
DEFAULT_255_2_778
10
5.721286
20
-1.9566754
40
6.1209564
50
97.802235
51
98.3928898
0
ARC
8
DEFAULT_255_2_778
10
5.7785892
20
-2.3731599
40
6.5413644
50
97.2667285
51
97.8042782
0
ARC
8
DEFAULT_255_2_778
10
5.8060421
20
-2.5877517
40
6.7577051
50
96.685988
51
97.2674827
0
ARC
8
DEFAULT_255_2_778
10
5.808363
20
-2.6046015
40
6.7747106
50
95.0788278
51
96.6888915
0
ARC
8
DEFAULT_255_2_778
10
5.7571253
20
-1.9961486
40
6.1641112
50
92.4207375
51
95.1051101
0
ARC
8
DEFAULT_255_2_778
10
5.7137052
20
-0.9869094
40
5.1539387
50
90.0381939
51
92.412357
0
ARC
8
DEFAULT_255_2_778
10
5.7226289
20
0.2413656
40
3.9256822
50
84.4266942
51
90.1803861
0
ARC
8
DEFAULT_255_2_778
10
5.8544515
20
1.5506312
40
2.6098063
50
76.249182
51
84.5154895
0
ARC
8
DEFAULT_255_2_778
10
6.0739026
20
2.4315652
40
1.7019617
50
64.0435086
51
76.3758812
0
ARC
8
DEFAULT_255_2_778
10
6.3297644
20
2.9412707
40
1.1317056
50
38.5069243
51
64.395878
0
ARC
8
DEFAULT_255_2_778
10
6.3808642
20
2.9937613
40
1.0590775
50
30.396107
51
38.0059268
0
ARC
8
DEFAULT_255_2_778
10
6.4059548
20
3.0088051
40
1.0298241
50
28.9358573
51
30.3804886
0
ARC
8
DEFAULT_255_2_778
10
6.3982999
20
3.0045882
40
1.0385637
50
21.3823604
51
28.9351271
0
ARC
8
DEFAULT_255_2_778
10
6.4156832
20
3.0111273
40
1.0199928
50
11.481309
51
21.3963352
0
ARC
8
DEFAULT_255_2_778
10
6.4210976
20
3.0127448
40
1.0143649
50
0.347853
51
11.4526492
0
ARC
8
DEFAULT_255_2_778
10
6.3940766
20
3.0121034
40
1.0413895
50
0.0012928
51
0.3741152
0
ARC
8
DEFAULT_255_2_778
10
6.3591625
20
3.0135145
40
1.0763045
50
349.4010062
51
359.9261322
0
ARC
8
DEFAULT_255_2_778
10
6.2165987
20
3.0406668
40
1.2214302
50
340.0592479
51
349.3791157
0
ARC
8
DEFAULT_255_2_778
10
5.993956
20
3.1215016
40
1.4582932
50
331.9985794
51
340.0570283
0
ARC
8
DEFAULT_255_2_778
10
5.713056
20
3.269635
40
1.7758579
50
325.8652588
51
332.0336953
0
ARC
8
DEFAULT_255_2_778
10
4.9463362
20
1.5965906
40
2.336714
50
6.808927
51
16.8295365
0
ARC
8
DEFAULT_255_2_778
10
7.2749298
20
1.1074028
40
0.7662257
50
72.8422109
51
90.034413
0
ARC
8
DEFAULT_255_2_778
10
7.2740352
20
1.1020455
40
0.7716088
50
29.2334016
51
72.8960975
0
ARC
8
DEFAULT_255_2_778
10
7.2732051
20
1.0997478
40
0.7734569
50
0.0568981
51
29.3518951
0
ARC
8
DEFAULT_255_2_778
10
7.2800406
20
1.1005619
40
0.766621
50
350.1855247
51
359.9965621
0
ARC
8
DEFAULT_255_2_778
10
7.2698571
20
1.1023781
40
0.776965
50
342.8235491
51
350.1815612
0
ARC
8
DEFAULT_255_2_778
10
6.379712
20
1.3639446
40
1.7047036
50
331.8358227
51
343.2595817
0
ARC
8
DEFAULT_255_2_778
10
6.9128912
20
1.0735423
40
1.0975923
50
295.1161578
51
332.0633076
0
ARC
8
DEFAULT_255_2_778
10
6.9241011
20
1.0135971
40
1.0386694
50
269.9320642
51
295.959852
0
LINE
8
DEFAULT_255_2_778
10
5.9579696
20
0.2377283
11
5.1403696
21
0.1178283
0
LINE
8
DEFAULT_255_2_778
10
4.6326696
20
1.5455283
11
4.6320696
21
1.6638283
0
LINE
8
DEFAULT_255_2_778
10
7.2665696
20
1.8736283
11
7.2744696
21
1.8736283
0
LINE
8
DEFAULT_255_2_778
10
6.9228696
20
-0.0250717
11
6.9228696
21
-0.0250717
0
ARC
8
DEFAULT_255_2_778
10
7.2741549
20
1.1020261
40
0.1685909
50
72.6588054
51
88.6472308
0
ARC
8
DEFAULT_255_2_778
10
7.2741101
20
1.1011335
40
0.1694842
50
88.6392104
51
89.9970055
0
ARC
8
DEFAULT_255_2_778
10
7.2741203
20
1.1012699
40
0.1693477
50
90.0004593
51
117.8128018
0
ARC
8
DEFAULT_255_2_778
10
7.2743961
20
1.1009601
40
0.1697505
50
117.846348
51
162.8362692
0
ARC
8
DEFAULT_255_2_778
10
6.216775
20
1.4175277
40
0.9342396
50
336.3484263
51
343.4273678
0
ARC
8
DEFAULT_255_2_778
10
6.7806162
20
1.1656057
40
0.3167283
50
321.741706
51
337.1738621
0
ARC
8
DEFAULT_255_2_778
10
6.9237817
20
1.0559744
40
0.1364503
50
290.3450003
51
320.6651472
0
ARC
8
DEFAULT_255_2_778
10
7.0593741
20
0.7313423
40
0.2155445
50
114.1404824
51
115.5219395
0
ARC
8
DEFAULT_255_2_778
10
6.9238824
20
1.0180181
40
0.1015427
50
268.873682
51
294.8189754
0
ARC
8
DEFAULT_255_2_778
10
6.9308185
20
1.167796
40
0.2514597
50
250.2126595
51
267.9643736
0
ARC
8
DEFAULT_255_2_778
10
7.0387969
20
1.5195805
40
0.619274
50
248.5867895
51
251.8307636
0
ARC
8
DEFAULT_255_2_778
10
6.885663
20
1.0347097
40
0.1171478
50
214.427179
51
231.4802657
0
ARC
8
DEFAULT_255_2_778
10
7.0643627
20
1.1770042
40
0.3453817
50
214.2257156
51
217.1391195
0
ARC
8
DEFAULT_255_2_778
10
7.0646473
20
1.178283
40
0.3463377
50
207.4183895
51
214.3741592
0
ARC
8
DEFAULT_255_2_778
10
6.9840618
20
1.1353972
40
0.2550582
50
205.1614529
51
207.2027489
0
ARC
8
DEFAULT_255_2_778
10
6.8994424
20
1.0921136
40
0.1600971
50
196.6920867
51
204.0165613
0
ARC
8
DEFAULT_255_2_778
10
7.0948196
20
1.1541421
40
0.3650727
50
194.7487488
51
197.2095123
0
ARC
8
DEFAULT_255_2_778
10
7.6259444
20
1.2867915
40
0.9124942
50
189.8265242
51
194.313271
0
ARC
8
DEFAULT_255_2_778
10
9.0476149
20
1.5372237
40
2.356051
50
186.2067661
51
189.9269065
0
ARC
8
DEFAULT_255_2_778
10
9.0569184
20
1.5480764
40
2.3664936
50
183.2035598
51
186.4436302
0
ARC
8
DEFAULT_255_2_778
10
8.0411219
20
1.4880078
40
1.3489315
50
181.4210945
51
183.0672828
0
ARC
8
DEFAULT_255_2_778
10
3.0344415
20
1.3707241
40
3.6591241
50
1.3127519
51
5.6491826
0
ARC
8
DEFAULT_255_2_778
10
4.5296508
20
1.522555
40
2.1562346
50
5.5453034
51
12.0988872
0
ARC
8
DEFAULT_255_2_778
10
5.4661758
20
1.7275855
40
1.1975452
50
11.8988486
51
22.5151288
0
ARC
8
DEFAULT_255_2_778
10
5.965117
20
1.9387333
40
0.6557919
50
22.1660387
51
41.317134
0
ARC
8
DEFAULT_255_2_778
10
6.0701735
20
2.0213411
40
0.522399
50
42.1196839
51
42.8109752
0
ARC
8
DEFAULT_255_2_778
10
6.001754
20
3.0530064
40
0.81354
50
303.7222779
51
319.9062505
0
ARC
8
DEFAULT_255_2_778
10
6.687222
20
2.464907
40
0.089992
50
133.6151976
51
134.5361419
0
ARC
8
DEFAULT_255_2_778
10
6.6182893
20
2.5375969
40
0.010188
50
312.2888083
51
334.768649
0
ARC
8
DEFAULT_255_2_778
10
5.5881738
20
3.3451105
40
1.3188332
50
322.0054181
51
330.9803559
0
ARC
8
DEFAULT_255_2_778
10
6.0569176
20
3.0885053
40
0.7844627
50
330.7610399
51
344.8641402
0
ARC
8
DEFAULT_255_2_778
10
6.3171064
20
3.0157252
40
0.5143017
50
345.1223473
51
359.6480418
0
ARC
8
DEFAULT_255_2_778
10
6.4180878
20
3.0144001
40
0.4133147
50
359.7457426
51
30.5290916
0
ARC
8
DEFAULT_255_2_778
10
6.3515924
20
2.9630799
40
0.4967709
50
31.7318749
51
61.4097437
0
ARC
8
DEFAULT_255_2_778
10
6.1215994
20
2.568285
40
0.9535766
50
60.6272614
51
74.1170954
0
ARC
8
DEFAULT_255_2_778
10
5.8998538
20
1.8069173
40
1.7465703
50
73.9558666
51
83.0074259
0
ARC
8
DEFAULT_255_2_778
10
5.7473075
20
0.6336048
40
2.9297392
50
82.8397907
51
88.5839114
0
ARC
8
DEFAULT_255_2_778
10
5.7115684
20
-0.3210627
40
3.8850173
50
88.4049374
51
90.0173218
0
ARC
8
DEFAULT_255_2_778
10
5.7162019
20
-1.1683994
40
4.7323574
50
90.0703186
51
93.1823616
0
ARC
8
DEFAULT_255_2_778
10
5.7628194
20
-2.0788169
40
5.6439605
50
93.1418016
51
94.9118408
0
ARC
8
DEFAULT_255_2_778
10
5.7973928
20
-2.4952766
40
6.0618512
50
94.9003844
51
95.8738289
0
ARC
8
DEFAULT_255_2_778
10
5.8102715
20
-2.6224844
40
6.1897092
50
95.8719116
51
96.74097
0
ARC
8
DEFAULT_255_2_778
10
5.8042871
20
-2.5721186
40
6.138989
50
96.7406806
51
97.1981538
0
ARC
8
DEFAULT_255_2_778
10
5.7835563
20
-2.4083381
40
5.9739017
50
97.1977174
51
97.682176
0
ARC
8
DEFAULT_255_2_778
10
5.7464669
20
-2.133738
40
5.6968081
50
97.6816877
51
98.0641752
0
ARC
8
DEFAULT_255_2_778
10
5.7009304
20
-1.8126355
40
5.3724928
50
98.063735
51
98.4268987
0
ARC
8
DEFAULT_255_2_778
10
4.9383773
20
3.3344303
40
0.1692464
50
98.4164267
51
179.9022579
0
ARC
8
DEFAULT_255_2_778
10
4.9395826
20
3.3347613
40
0.1704515
50
180.0142198
51
188.5044117
0
ARC
8
DEFAULT_255_2_778
10
4.9366645
20
3.3321937
40
0.1671991
50
187.782078
51
270.1259998
0
ARC
8
DEFAULT_255_2_778
10
4.9369857
20
3.3361254
40
0.1711304
50
270.0155713
51
278.6777323
0
ARC
8
DEFAULT_255_2_778
10
5.1474701
20
2.2373611
40
0.169393
50
89.988112
51
134.9932785
0
ARC
8
DEFAULT_255_2_778
10
5.1475134
20
2.2373828
40
0.1694081
50
135.0088329
51
179.9759275
0
ARC
8
DEFAULT_255_2_778
10
5.1478817
20
2.2373773
40
0.1697765
50
179.9741017
51
224.8918514
0
ARC
8
DEFAULT_255_2_778
10
5.147534
20
2.2374012
40
0.1695472
50
224.9805114
51
269.9902923
0
ARC
8
DEFAULT_255_2_778
10
5.0275335
20
0.8817012
40
0.1694934
50
98.2182969
51
158.3424997
0
ARC
8
DEFAULT_255_2_778
10
5.0276129
20
0.8815235
40
0.1696328
50
158.2965978
51
177.6659451
0
ARC
8
DEFAULT_255_2_778
10
5.0281655
20
0.8814958
40
0.170186
50
177.6642193
51
179.9975856
0
ARC
8
DEFAULT_255_2_778
10
5.0277191
20
0.8814469
40
0.1697395
50
179.9810656
51
218.2965494
0
ARC
8
DEFAULT_255_2_778
10
5.0277622
20
0.8814118
40
0.1697515
50
218.278226
51
269.9583967
0
ARC
8
DEFAULT_255_2_778
10
5.0276304
20
0.8809175
40
0.1692571
50
270.002888
51
278.0760278
0
ARC
8
DEFAULT_255_2_778
10
5.0284317
20
0.8752761
40
0.163559
50
278.075755
51
278.3576508
0
ARC
8
DEFAULT_255_2_778
10
5.8455007
20
1.0012017
40
0.1694291
50
278.3158568
51
359.9243487
0
ARC
8
DEFAULT_255_2_778
10
5.8440478
20
1.0009376
40
0.1708821
50
0.0135426
51
8.1470319
0
ARC
8
DEFAULT_255_2_778
10
5.8445276
20
1.0004923
40
0.170471
50
8.3180421
51
89.9963731
0
ARC
8
DEFAULT_255_2_778
10
5.844568
20
0.9991109
40
0.1718525
50
90.0098734
51
97.8470103
0
ARC
8
DEFAULT_255_2_778
10
5.0357757
20
5.5126732
40
3.4493137
50
278.9283304
51
286.5029725
0
ARC
8
DEFAULT_255_2_778
10
6.0499766
20
1.9569288
40
0.2508634
50
90.023967
51
97.8288802
0
ARC
8
DEFAULT_255_2_778
10
6.0498867
20
1.963015
40
0.2447772
50
87.522481
51
90.0035135
0
ARC
8
DEFAULT_255_2_778
10
6.0500268
20
1.9658645
40
0.2419243
50
83.9784443
51
87.5264548
0
ARC
8
DEFAULT_255_2_778
10
6.0673568
20
2.0194402
40
0.1871869
50
39.3787424
51
87.5357047
0
ARC
8
DEFAULT_255_2_778
10
6.0010333
20
1.9701125
40
0.2697774
50
35.5211636
51
38.539865
0
ARC
8
DEFAULT_255_2_778
10
5.955899
20
1.9383396
40
0.3249724
50
28.4474455
51
35.457118
0
ARC
8
DEFAULT_255_2_778
10
5.8658049
20
1.888014
40
0.4281629
50
25.7778762
51
28.6257517
0
ARC
8
DEFAULT_255_2_778
10
5.6488232
20
1.7901715
40
0.6661314
50
15.6294235
51
25.2397911
0
ARC
8
DEFAULT_255_2_778
10
5.0933575
20
1.6298798
40
1.2442523
50
9.5246781
51
15.84651
0
ARC
8
DEFAULT_255_2_778
10
4.2404567
20
1.4836109
40
2.1096011
50
4.9450699
51
9.609442
0
ARC
8
DEFAULT_255_2_778
10
3.0595629
20
1.3774042
40
3.2952569
50
1.7085322
51
5.0149242
0
ARC
8
DEFAULT_255_2_778
10
2.2361726
20
1.3452904
40
4.1192456
50
1.3905586
51
1.8135478
0
ARC
8
DEFAULT_255_2_778
10
8.0253446
20
1.4943117
40
1.6718593
50
181.6814833
51
183.3788691
0
ARC
8
DEFAULT_255_2_778
10
9.3724311
20
1.5693232
40
3.0210285
50
183.2932621
51
184.8758787
0
ARC
8
DEFAULT_255_2_778
10
9.2126715
20
1.5505539
40
2.8602562
50
184.7732723
51
188.289179
0
ARC
8
DEFAULT_255_2_778
10
7.829136
20
1.3406601
40
1.4609376
50
187.9661083
51
194.8745484
0
ARC
8
DEFAULT_255_2_778
10
6.9400287
20
1.1047649
40
0.5410689
50
194.9006549
51
204.2248833
0
ARC
8
DEFAULT_255_2_778
10
6.9712256
20
1.1271815
40
0.5787671
50
204.9814304
51
209.2071107
0
ARC
8
DEFAULT_255_2_778
10
7.0403177
20
1.1640579
40
0.6570712
50
209.0739823
51
216.7780624
0
ARC
8
DEFAULT_255_2_778
10
6.9866341
20
1.1249193
40
0.5906404
50
216.8549639
51
219.2179274
0
ARC
8
DEFAULT_255_2_778
10
6.8496584
20
0.9995041
40
0.40536
50
217.725274
51
247.0051627
0
ARC
8
DEFAULT_255_2_778
10
7.0839829
20
1.6296408
40
1.0773951
50
248.6250632
51
249.0155075
0
ARC
8
DEFAULT_255_2_778
10
6.9633425
20
1.296294
40
0.7229849
50
248.4815664
51
259.9676526
0
ARC
8
DEFAULT_255_2_778
10
6.9241675
20
1.0946919
40
0.5176526
50
260.3501923
51
269.856018
0
ARC
8
DEFAULT_255_2_778
10
6.9244828
20
1.0169727
40
0.4399347
50
269.7895159
51
290.3326248
0
ARC
8
DEFAULT_255_2_778
10
6.9212366
20
1.0239939
40
0.4476468
50
290.4099706
51
295.6776486
0
ARC
8
DEFAULT_255_2_778
10
6.9027014
20
1.0838513
40
0.509708
50
294.6398369
51
333.216314
0
ARC
8
DEFAULT_255_2_778
10
6.4116897
20
1.3467591
40
1.0665982
50
332.4943156
51
342.6447955
0
ARC
8
DEFAULT_255_2_778
10
5.8166093
20
1.5526843
40
1.69612
50
342.00157
51
342.7690932
0
ARC
8
DEFAULT_255_2_778
10
7.2751341
20
1.1005891
40
0.1691347
50
342.6862833
51
358.222538
0
ARC
8
DEFAULT_255_2_778
10
7.2750203
20
1.1005915
40
0.1692487
50
358.2229216
51
359.9975118
0
ARC
8
DEFAULT_255_2_778
10
7.2750779
20
1.1005778
40
0.169191
50
0.0021378
51
27.8259545
0
ARC
8
DEFAULT_255_2_778
10
7.2748526
20
1.1005544
40
0.1694012
50
27.7973745
51
72.8851624
0
ARC
8
DEFAULT_255_2_778
10
5.9816351
20
3.1039124
40
0.5014212
50
313.7175105
51
319.1819651
0
ARC
8
DEFAULT_255_2_778
10
5.9542217
20
3.1297561
40
0.539049
50
311.2337606
51
313.9250385
0
ARC
8
DEFAULT_255_2_778
10
6.0663694
20
2.9971699
40
0.3654331
50
301.6099594
51
311.7125815
0
ARC
8
DEFAULT_255_2_778
10
5.9530612
20
3.269113
40
0.6580307
50
285.1869068
51
297.5981389
0
ARC
8
DEFAULT_255_2_778
10
3.5414133
20
11.0389028
40
8.7930966
50
286.9471287
51
287.0898177
0
ARC
8
DEFAULT_255_2_778
10
5.0421693
20
5.391206
40
2.9568907
50
280.2987659
51
289.2803122
0
ARC
8
DEFAULT_255_2_778
10
5.6984643
20
-1.4349285
40
4.6894087
50
90.0158899
51
91.59906
0
ARC
8
DEFAULT_255_2_778
10
5.7090086
20
-0.2654746
40
3.5199746
50
85.1298439
51
90.1928019
0
ARC
8
DEFAULT_255_2_778
10
5.8551914
20
1.3946388
40
1.8534503
50
78.2642854
51
85.275592
0
ARC
8
DEFAULT_255_2_778
10
6.0834724
20
2.4667785
40
0.75731
50
66.5441457
51
78.6757417
0
ARC
8
DEFAULT_255_2_778
10
6.3031444
20
2.9549647
40
0.2221421
50
38.0862417
51
68.401781
0
ARC
8
DEFAULT_255_2_778
10
6.385201
20
3.0286377
40
0.1123536
50
30.2001098
51
34.3249539
0
ARC
8
DEFAULT_255_2_778
10
6.4132678
20
3.0465178
40
0.0791134
50
357.4906697
51
29.2332079
0
ARC
8
DEFAULT_255_2_778
10
6.2254988
20
3.0590094
40
0.2672832
50
332.5615464
51
356.5777037
0
ARC
8
DEFAULT_255_2_778
10
5.7182942
20
3.297634
40
0.8276783
50
322.8271933
51
334.0802874
0
ARC
8
DEFAULT_255_2_778
10
5.366493
20
3.5453866
40
1.257788
50
322.2792054
51
323.517442
0
LINE
8
DEFAULT_255_2_778
10
4.9628053
20
3.166954
11
5.2279053
21
3.198454
0
LINE
8
DEFAULT_255_2_778
10
5.2279053
20
3.198454
11
5.2313053
21
2.409454
0
LINE
8
DEFAULT_255_2_778
10
5.2313053
20
2.409454
11
5.1475053
21
2.406754
0
LINE
8
DEFAULT_255_2_778
10
5.1475053
20
2.067854
11
5.2329053
21
2.069954
0
LINE
8
DEFAULT_255_2_778
10
5.2329053
20
2.069954
11
5.2366053
21
1.083554
0
LINE
8
DEFAULT_255_2_778
10
5.2366053
20
1.083554
11
5.0033053
21
1.049454
0
LINE
8
DEFAULT_255_2_778
10
5.0522053
20
0.713454
11
5.8700053
21
0.833554
0
LINE
8
DEFAULT_255_2_778
10
5.8211053
20
1.169354
11
5.5756053
21
1.132854
0
LINE
8
DEFAULT_255_2_778
10
5.5756053
20
1.132854
11
5.5711053
21
2.105154
0
LINE
8
DEFAULT_255_2_778
10
6.0156053
20
2.205454
11
6.0158053
21
2.205454
0
LINE
8
DEFAULT_255_2_778
10
7.3247053
20
1.262454
11
7.3244053
21
1.262954
0
LINE
8
DEFAULT_255_2_778
10
6.1045053
20
2.627654
11
6.0185053
21
2.600154
0
LINE
8
DEFAULT_255_2_778
10
5.5708053
20
2.481954
11
5.5676053
21
3.252654
0
LINE
8
DEFAULT_255_2_778
10
6.3614053
20
2.775854
11
6.3611053
21
2.776154
0
ARC
8
DEFAULT_255_2_778
10
12.6447562
20
1.5646272
40
1.5560639
50
254.9268014
51
270.2751699
0
ARC
8
DEFAULT_255_2_778
10
12.5904741
20
1.3584098
40
1.3428258
50
232.3527202
51
254.8750477
0
ARC
8
DEFAULT_255_2_778
10
12.63535
20
1.3967401
40
1.4006378
50
192.5149902
51
231.8569213
0
ARC
8
DEFAULT_255_2_778
10
12.6529224
20
1.4078983
40
1.4202282
50
184.770494
51
192.8008257
0
ARC
8
DEFAULT_255_2_778
10
12.6241379
20
1.4049789
40
1.3913007
50
183.758347
51
184.7492695
0
ARC
8
DEFAULT_255_2_778
10
13.8386164
20
2.0103405
40
2.6081016
50
167.2555563
51
176.2398119
0
ARC
8
DEFAULT_255_2_778
10
13.0146751
20
2.200633
40
1.7624844
50
154.2172359
51
167.3804092
0
ARC
8
DEFAULT_255_2_778
10
12.51603
20
2.4508345
40
1.204681
50
125.1404407
51
154.6168979
0
ARC
8
DEFAULT_255_2_778
10
12.4798438
20
2.4875713
40
1.1538426
50
121.5951675
51
124.7210388
0
ARC
8
DEFAULT_255_2_778
10
12.4727051
20
2.4962094
40
1.142746
50
89.3469674
51
121.5172074
0
ARC
8
DEFAULT_255_2_778
10
12.4839811
20
2.2451701
40
1.3937122
50
80.9365783
51
89.9281303
0
ARC
8
DEFAULT_255_2_778
10
13.2808558
20
3.1122848
40
0.7697967
50
89.9943738
51
138.58802
0
LINE
8
DEFAULT_255_2_778
10
13.2809314
20
3.8820816
11
13.2816293
21
3.8820812
0
ARC
8
DEFAULT_255_2_778
10
13.2809746
20
3.1091
40
0.7729815
50
1.5405659
51
89.9514718
0
ARC
8
DEFAULT_255_2_778
10
13.2715526
20
3.110002
40
0.7823767
50
359.998483
51
1.4559856
0
ARC
8
DEFAULT_255_2_778
10
13.290257
20
2.3754355
40
0.7636723
50
340.7040059
51
0.0109307
0
ARC
8
DEFAULT_255_2_778
10
13.4252022
20
1.6260706
40
0.7682532
50
2.8135616
51
40.3109821
0
ARC
8
DEFAULT_255_2_778
10
13.9752642
20
1.3172607
40
0.2139777
50
350.3742921
51
355.6635665
0
ARC
8
DEFAULT_255_2_778
10
12.0329379
20
1.5843046
40
2.1744806
50
348.9528363
51
351.9948343
0
ARC
8
DEFAULT_255_2_778
10
12.2354039
20
1.5413167
40
1.967532
50
343.2897185
51
349.0517111
0
ARC
8
DEFAULT_255_2_778
10
12.5924132
20
1.4374327
40
1.5957319
50
340.5875606
51
343.1764483
0
ARC
8
DEFAULT_255_2_778
10
12.9873029
20
1.2906365
40
1.1745235
50
330.785885
51
340.9389444
0
ARC
8
DEFAULT_255_2_778
10
12.6941226
20
1.4731191
40
1.5195633
50
324.6465346
51
330.1759018
0
ARC
8
DEFAULT_255_2_778
10
12.6644466
20
1.4941535
40
1.5559378
50
324.4845584
51
324.6471057
0
ARC
8
DEFAULT_255_2_778
10
12.4089913
20
1.6870117
40
1.8759232
50
318.2352181
51
324.2225316
0
ARC
8
DEFAULT_255_2_778
10
11.173434
20
2.7605532
40
3.5126362
50
318.4012934
51
318.597881
0
ARC
8
DEFAULT_255_2_778
10
12.9934575
20
1.146469
40
1.0799941
50
306.7757639
51
318.3324697
0
ARC
8
DEFAULT_255_2_778
10
12.9221965
20
1.2389779
40
1.1967565
50
303.6340714
51
306.8569279
0
ARC
8
DEFAULT_255_2_778
10
12.7341576
20
1.5367659
40
1.5488673
50
295.6538234
51
303.3240345
0
ARC
8
DEFAULT_255_2_778
10
12.255023
20
2.4973442
40
2.6222398
50
295.0409893
51
296.0042702
0
ARC
8
DEFAULT_255_2_778
10
12.8876304
20
1.1326608
40
1.118077
50
282.0489413
51
295.2705239
0
ARC
8
DEFAULT_255_2_778
10
12.8497356
20
1.3494929
40
1.3380678
50
271.5288582
51
281.6976844
0
ARC
8
DEFAULT_255_2_778
10
12.7745342
20
3.4959821
40
3.4858453
50
270.2892066
51
271.823164
0
LINE
8
DEFAULT_255_2_778
10
11.2358293
20
1.3137812
11
11.2361293
21
1.3137812
0
LINE
8
DEFAULT_255_2_778
10
11.2361293
20
1.3137812
11
11.2279293
21
1.6531812
0
LINE
8
DEFAULT_255_2_778
10
11.2279293
20
1.6531812
11
11.2279293
21
1.6738812
0
LINE
8
DEFAULT_255_2_778
10
11.2279293
20
1.6738812
11
11.2361293
21
2.1813812
0
LINE
8
DEFAULT_255_2_778
10
14.0539293
20
3.1099812
11
14.0539293
21
2.3755812
0
LINE
8
DEFAULT_255_2_778
10
14.1925293
20
1.6637812
11
14.1978293
21
1.5275812
0
LINE
8
DEFAULT_255_2_778
10
14.1978293
20
1.5275812
11
14.1886293
21
1.3010812
0
LINE
8
DEFAULT_255_2_778
10
12.7921293
20
0.0101812
11
12.7008293
21
0.0090812
0
LINE
8
DEFAULT_255_2_778
10
12.7008293
20
0.0090812
11
12.6513293
21
0.0082812
0
LINE
8
DEFAULT_255_2_778
10
12.6513293
20
0.0082812
11
12.6522293
21
0.0085812
0
ARC
8
DEFAULT_255_2_778
10
13.422028
20
1.6270014
40
0.1692257
50
91.0583162
51
179.9716454
0
LINE
8
DEFAULT_255_2_778
10
13.2528023
20
1.6270852
11
13.2528024
21
1.6268983
0
ARC
8
DEFAULT_255_2_778
10
14.1442317
20
1.691957
40
0.8938003
50
184.1741833
51
184.7533751
0
ARC
8
DEFAULT_255_2_778
10
3.8889526
20
0.8672051
40
9.3945931
50
4.4635361
51
4.5831689
0
ARC
8
DEFAULT_255_2_778
10
8.3017077
20
1.213011
40
4.9683094
50
4.4175416
51
4.4481286
0
ARC
8
DEFAULT_255_2_778
10
12.1057661
20
1.5014061
40
1.1533516
50
3.2543344
51
4.6891043
0
ARC
8
DEFAULT_255_2_778
10
13.213186
20
1.5648698
40
0.0441175
50
0.4266657
51
2.6115262
0
ARC
8
DEFAULT_255_2_778
10
11.8433056
20
1.6265842
40
1.4268972
50
347.5088968
51
351.0947136
0
ARC
8
DEFAULT_255_2_778
10
12.3955212
20
1.4941438
40
0.8591642
50
340.9367881
51
348.1669744
0
ARC
8
DEFAULT_255_2_778
10
12.9459931
20
1.3093312
40
0.2785658
50
336.6818099
51
339.8850913
0
ARC
8
DEFAULT_255_2_778
10
13.0701889
20
1.2550886
40
0.1430444
50
330.4300893
51
336.9424847
0
ARC
8
DEFAULT_255_2_778
10
12.7345147
20
1.4464816
40
0.5294487
50
324.6804252
51
330.3419344
0
ARC
8
DEFAULT_255_2_778
10
12.3633974
20
1.7232871
40
0.9923538
50
318.4779105
51
324.0279594
0
ARC
8
DEFAULT_255_2_778
10
10.4036859
20
3.4012247
40
3.5721667
50
318.8942021
51
319.1650228
0
ARC
8
DEFAULT_255_2_778
10
12.9032127
20
1.2513679
40
0.2763477
50
295.3656805
51
314.0353029
0
ARC
8
DEFAULT_255_2_778
10
12.2654949
20
2.4568676
40
1.6399133
50
295.2875436
51
297.4557311
0
ARC
8
DEFAULT_255_2_778
10
12.8827674
20
1.153763
40
0.1980088
50
293.9241386
51
294.857331
0
ARC
8
DEFAULT_255_2_778
10
12.8609267
20
1.2314193
40
0.278089
50
268.4217333
51
291.5483927
0
ARC
8
DEFAULT_255_2_778
10
12.7665665
20
3.9247928
40
2.9726216
50
270.3574647
51
271.6713546
0
ARC
8
DEFAULT_255_2_778
10
12.5261948
20
26.1084391
40
25.1575425
50
270.5828341
51
270.5896897
0
ARC
8
DEFAULT_255_2_778
10
12.6538624
20
1.7328699
40
0.7824821
50
270.010597
51
271.8557971
0
ARC
8
DEFAULT_255_2_778
10
12.6495955
20
1.5713717
40
0.6209995
50
257.5525027
51
270.4070387
0
ARC
8
DEFAULT_255_2_778
10
12.6110864
20
1.3992766
40
0.4446496
50
238.8484368
51
257.6181764
0
ARC
8
DEFAULT_255_2_778
10
12.5897923
20
1.3586352
40
0.3988628
50
214.3887167
51
238.4461642
0
ARC
8
DEFAULT_255_2_778
10
12.6265739
20
1.3857265
40
0.4445201
50
209.1037991
51
214.5926281
0
ARC
8
DEFAULT_255_2_778
10
12.6801578
20
1.4138376
40
0.5050137
50
196.5595907
51
208.9334924
0
ARC
8
DEFAULT_255_2_778
10
12.7273654
20
1.4293742
40
0.5546934
50
189.4996071
51
196.7080748
0
ARC
8
DEFAULT_255_2_778
10
12.6641801
20
1.4192769
40
0.4907084
50
185.3412268
51
189.5543985
0
ARC
8
DEFAULT_255_2_778
10
13.9379996
20
2.001353
40
1.7662796
50
168.3876585
51
176.2004195
0
ARC
8
DEFAULT_255_2_778
10
13.0503805
20
2.1891223
40
0.8590485
50
156.204648
51
168.7383631
0
ARC
8
DEFAULT_255_2_778
10
12.5614849
20
2.41246
40
0.3216807
50
130.5534429
51
157.4688457
0
ARC
8
DEFAULT_255_2_778
10
12.4626034
20
2.5157986
40
0.179052
50
121.4799441
51
128.0106069
0
ARC
8
DEFAULT_255_2_778
10
12.4745082
20
2.4916718
40
0.2058591
50
91.6493106
51
120.7990494
0
ARC
8
DEFAULT_255_2_778
10
12.4858092
20
2.3844369
40
0.3134823
50
89.9666564
51
93.1500274
0
ARC
8
DEFAULT_255_2_778
10
12.4773392
20
2.2009393
40
0.4970553
50
75.0231993
51
89.0025799
0
ARC
8
DEFAULT_255_2_778
10
12.3415283
20
1.6641929
40
1.0506929
50
67.8163909
51
75.4328839
0
ARC
8
DEFAULT_255_2_778
10
12.1665028
20
1.2066062
40
1.5405309
50
67.3766045
51
68.214496
0
ARC
8
DEFAULT_255_2_778
10
12.4679921
20
1.9679812
40
0.7219142
50
46.5960842
51
66.2186273
0
ARC
8
DEFAULT_255_2_778
10
12.2937382
20
1.7613805
40
0.9918706
50
46.1022739
51
47.4835567
0
ARC
8
DEFAULT_255_2_778
10
12.2013353
20
1.6683644
40
1.1229676
50
39.2903905
51
45.9957053
0
ARC
8
DEFAULT_255_2_778
10
12.1810696
20
1.6493622
40
1.1506869
50
35.6916508
51
39.383673
0
ARC
8
DEFAULT_255_2_778
10
12.39028
20
1.7991658
40
0.893374
50
33.4467654
51
35.7168158
0
ARC
8
DEFAULT_255_2_778
10
13.2882514
20
2.3899579
40
0.1815248
50
212.8243889
51
214.2486534
0
ARC
8
DEFAULT_255_2_778
10
13.2825733
20
2.3768163
40
0.1696089
50
211.6576824
51
270.094614
0
ARC
8
DEFAULT_255_2_778
10
13.2828505
20
2.3777474
40
0.1705396
50
270.0009543
51
276.6204393
0
ARC
8
DEFAULT_255_2_778
10
13.2827587
20
2.3784026
40
0.1712011
50
276.6256718
51
285.4625577
0
ARC
8
DEFAULT_255_2_778
10
13.2826414
20
2.3764603
40
0.1693614
50
285.6760207
51
359.9113694
0
ARC
8
DEFAULT_255_2_778
10
13.2825127
20
3.1102934
40
0.1694897
50
0.0354508
51
45.0275354
0
ARC
8
DEFAULT_255_2_778
10
13.2828262
20
3.1107622
40
0.1689365
50
44.9903631
51
90.0158094
0
LINE
8
DEFAULT_255_2_778
10
13.2827795
20
3.2796987
11
13.2824024
21
3.2796983
0
ARC
8
DEFAULT_255_2_778
10
13.2830043
20
3.1094951
40
0.1702042
50
90.2026264
51
179.695969
0
ARC
8
DEFAULT_255_2_778
10
12.5049411
20
2.0376217
40
0.9817057
50
51.7430683
51
66.9569824
0
ARC
8
DEFAULT_255_2_778
10
11.8643467
20
0.5017
40
2.6458468
50
67.2105981
51
67.9783233
0
ARC
8
DEFAULT_255_2_778
10
12.2995294
20
1.5762394
40
1.4865287
50
67.9986065
51
70.1470696
0
ARC
8
DEFAULT_255_2_778
10
12.3640277
20
1.7522912
40
1.2990363
50
70.185731
51
71.2001776
0
ARC
8
DEFAULT_255_2_778
10
12.4197682
20
1.9226724
40
1.1197837
50
71.0906421
51
77.2821037
0
ARC
8
DEFAULT_255_2_778
10
12.4799839
20
2.2040286
40
0.8320798
50
77.0615901
51
89.5967455
0
ARC
8
DEFAULT_255_2_778
10
12.4838089
20
2.4109415
40
0.6251496
50
89.8138283
51
100.7753132
0
ARC
8
DEFAULT_255_2_778
10
12.4650073
20
2.5092505
40
0.5250589
50
100.765454
51
117.7185749
0
ARC
8
DEFAULT_255_2_778
10
12.4586644
20
2.5237613
40
0.5092644
50
117.8461907
51
121.6680113
0
ARC
8
DEFAULT_255_2_778
10
12.5154337
20
2.4481379
40
0.6034928
50
122.4859089
51
154.4560333
0
ARC
8
DEFAULT_255_2_778
10
12.9586117
20
2.2209503
40
1.101404
50
153.7339129
51
167.4944469
0
ARC
8
DEFAULT_255_2_778
10
13.8046797
20
2.0236515
40
1.9701435
50
167.2206321
51
175.3645158
0
ARC
8
DEFAULT_255_2_778
10
14.5165438
20
1.9495435
40
2.6857179
50
175.0160225
51
175.9591838
0
ARC
8
DEFAULT_255_2_778
10
12.7218524
20
2.1162208
40
0.8846381
50
178.5375558
51
179.3067488
0
ARC
8
DEFAULT_255_2_778
10
37.1968337
20
1.7280913
40
25.3626909
50
179.0989763
51
179.1764962
0
ARC
8
DEFAULT_255_2_778
10
144.6243177
20
0.1710701
40
132.8014576
50
179.1709418
51
179.2036156
0
ARC
8
DEFAULT_255_2_778
10
429.8546449
20
-3.8085746
40
418.0595463
50
179.2015844
51
179.21628
0
LINE
8
DEFAULT_255_2_778
10
11.8342079
20
1.9096723
11
11.8341064
21
1.9022565
0
ARC
8
DEFAULT_255_2_778
10
890.5976497
20
-10.1134491
40
878.8456873
50
179.2166194
51
179.2248885
0
ARC
8
DEFAULT_255_2_778
10
960.1318556
20
-11.0608504
40
948.3863467
50
179.2244857
51
179.2282703
0
ARC
8
DEFAULT_255_2_778
10
1381.9415356
20
-16.7400787
40
1370.2342575
50
179.2283775
51
179.2298177
0
ARC
8
DEFAULT_255_2_778
10
-746.1789991
20
11.8550182
40
758.0783818
50
359.2298651
51
359.2308216
0
ARC
8
DEFAULT_255_2_778
10
12.5791181
20
1.4044214
40
0.7433964
50
183.9664976
51
191.4309766
0
ARC
8
DEFAULT_255_2_778
10
12.7085426
20
1.429355
40
0.875196
50
191.3516815
51
199.9036554
0
ARC
8
DEFAULT_255_2_778
10
12.7150171
20
1.4310404
40
0.8818579
50
199.8634047
51
204.6755535
0
ARC
8
DEFAULT_255_2_778
10
12.6360948
20
1.3898886
40
0.7929746
50
204.3543388
51
226.1012138
0
ARC
8
DEFAULT_255_2_778
10
12.5807748
20
1.3386232
40
0.7176894
50
226.4456962
51
247.5918927
0
ARC
8
DEFAULT_255_2_778
10
12.6215581
20
1.4429814
40
0.829717
50
247.7353633
51
263.0088462
0
ARC
8
DEFAULT_255_2_778
10
12.6500933
20
1.6450108
40
1.0337243
50
262.8019472
51
270.1132163
0
ARC
8
DEFAULT_255_2_778
10
12.6519586
20
1.7792698
40
1.1679813
50
270.0087019
51
271.851859
0
ARC
8
DEFAULT_255_2_778
10
11.6977095
20
124.3053384
40
123.6971162
50
270.5034952
51
270.5041062
0
ARC
8
DEFAULT_255_2_778
10
12.8048517
20
1.8732049
40
1.2603358
50
269.1439296
51
276.9872791
0
ARC
8
DEFAULT_255_2_778
10
12.8839388
20
1.1504595
40
0.5334204
50
277.9993196
51
295.1221794
0
ARC
8
DEFAULT_255_2_778
10
12.4998518
20
1.9911561
40
1.4576837
50
294.7619923
51
298.2841406
0
ARC
8
DEFAULT_255_2_778
10
12.9246169
20
1.2244629
40
0.5813542
50
297.2237723
51
317.0158924
0
ARC
8
DEFAULT_255_2_778
10
12.5416268
20
1.5752146
40
1.1006781
50
317.2517589
51
329.458917
0
ARC
8
DEFAULT_255_2_778
10
12.9029285
20
1.3306458
40
0.6657719
50
331.7866718
51
344.2849902
0
ARC
8
DEFAULT_255_2_778
10
12.5267005
20
1.4547073
40
1.0616838
50
343.3393459
51
343.4681622
0
ARC
8
DEFAULT_255_2_778
10
12.153605
20
1.5587729
40
1.4489821
50
343.7212302
51
349.0984705
0
ARC
8
DEFAULT_255_2_778
10
11.9456998
20
1.6039074
40
1.6616787
50
348.926045
51
351.1662838
0
ARC
8
DEFAULT_255_2_778
10
12.4380451
20
1.5270624
40
1.1633727
50
351.1823045
51
352.0022893
0
ARC
8
DEFAULT_255_2_778
10
13.3829544
20
1.3802843
40
0.2076966
50
355.8346593
51
358.2578387
0
ARC
8
DEFAULT_255_2_778
10
8.5075845
20
1.5743485
40
5.0869186
50
357.7424812
51
358.1125519
0
ARC
8
DEFAULT_255_2_778
10
-10.2532674
20
2.2089942
40
23.8585004
50
358.0731923
51
358.1843783
0
ARC
8
DEFAULT_255_2_778
10
-28.3012295
20
2.7863883
40
41.9156958
50
358.1771531
51
358.1889053
0
ARC
8
DEFAULT_255_2_778
10
-47.7542749
20
3.3976721
40
61.3783429
50
358.1924726
51
358.2545144
0
ARC
8
DEFAULT_255_2_778
10
-56.2578047
20
3.6590383
40
69.8858881
50
358.2526866
51
358.2706429
0
ARC
8
DEFAULT_255_2_778
10
-33.3182786
20
2.9665578
40
46.9359124
50
358.270505
51
358.2806463
0
ARC
8
DEFAULT_255_2_778
10
13.5912697
20
1.5589059
40
0.0052679
50
353.3765463
51
1.5635423
0
ARC
8
DEFAULT_255_2_778
10
13.2991532
20
1.5502207
40
0.2975135
50
1.7005413
51
4.1911867
0
ARC
8
DEFAULT_255_2_778
10
10.7773053
20
1.3878156
40
2.8245751
50
3.7380635
51
4.1801644
0
ARC
8
DEFAULT_255_2_778
10
9.1059476
20
1.2690624
40
4.500144
50
4.1369667
51
4.1803666
0
ARC
8
DEFAULT_255_2_778
10
5.7575742
20
1.0231566
40
7.8575349
50
4.1888761
51
4.4038855
0
ARC
8
DEFAULT_255_2_778
10
7.0237475
20
1.1205891
40
6.5876183
50
4.4045851
51
4.4280331
0
ARC
8
DEFAULT_255_2_778
10
13.4221141
20
1.6262506
40
0.1696139
50
0.9957692
51
45.9696656
0
ARC
8
DEFAULT_255_2_778
10
13.4221287
20
1.6257901
40
0.1699352
50
46.0811379
51
89.9700975
0
ARC
8
DEFAULT_255_2_778
10
13.4222298
20
1.6259938
40
0.1697313
50
90.0041827
51
91.0220055
0
LINE
8
DEFAULT_255_2_778
10
13.2573024
20
1.5651983
11
13.2530024
21
1.4056983
0
LINE
8
DEFAULT_255_2_778
10
12.7821024
20
0.9521983
11
12.6792024
21
0.9507983
0
LINE
8
DEFAULT_255_2_778
10
12.1756024
20
1.3735983
11
12.1703024
21
1.6643983
0
LINE
8
DEFAULT_255_2_778
10
12.1703024
20
1.6643983
11
12.1756024
21
2.1183983
0
LINE
8
DEFAULT_255_2_778
10
13.4520024
20
2.3761983
11
13.4520024
21
3.1103983
0
LINE
8
DEFAULT_255_2_778
10
13.1128024
20
3.1103983
11
13.1128024
21
2.8084983
0
LINE
8
DEFAULT_255_2_778
10
11.8309024
20
1.6656983
11
11.8375024
21
1.3529983
0
LINE
8
DEFAULT_255_2_778
10
12.6897024
20
0.6118983
11
12.7847024
21
0.6129983
0
LINE
8
DEFAULT_255_2_778
10
13.4192024
20
1.7956983
11
13.4189024
21
1.7961983
0
ARC
8
DEFAULT_255_2_778
10
15.0604885
20
0.4613735
40
0.724472
50
227.2355417
51
269.9915897
0
ARC
8
DEFAULT_255_2_778
10
15.0789157
20
0.4903855
40
0.7583081
50
211.4175348
51
227.7017609
0
ARC
8
DEFAULT_255_2_778
10
13.8093591
20
0.8794145
40
0.7738483
50
180.1637051
51
268.9280608
0
ARC
8
DEFAULT_255_2_778
10
13.8164921
20
0.8771959
40
0.780978
50
179.2439096
51
179.999446
0
ARC
8
DEFAULT_255_2_778
10
13.8147676
20
0.8722291
40
0.7793351
50
114.338558
51
178.8771101
0
ARC
8
DEFAULT_255_2_778
10
13.821139
20
3.4680038
40
0.7739575
50
180.0741968
51
245.1332092
0
ARC
8
DEFAULT_255_2_778
10
13.8201604
20
3.4660493
40
0.7729789
50
91.5400136
51
179.9294154
0
ARC
8
DEFAULT_255_2_778
10
13.8192615
20
3.4569926
40
0.782009
50
89.9984835
51
91.4563387
0
ARC
8
DEFAULT_255_2_778
10
15.1425447
20
3.7487441
40
0.7727063
50
91.12437
51
140.6194521
0
ARC
8
DEFAULT_255_2_778
10
16.0202811
20
3.7612315
40
0.775978
50
1.2235784
51
89.7414905
0
ARC
8
DEFAULT_255_2_778
10
16.0073513
20
3.766181
40
0.7888164
50
0.0007018
51
0.8440904
0
ARC
8
DEFAULT_255_2_778
10
16.0215846
20
3.7663505
40
0.774583
50
296.8709181
51
359.9881789
0
ARC
8
DEFAULT_255_2_778
10
16.0281146
20
0.6746834
40
0.7730135
50
3.7396514
51
62.7979446
0
ARC
8
DEFAULT_255_2_778
10
16.0195616
20
0.6749717
40
0.7815299
50
0.0032817
51
3.6776608
0
ARC
8
DEFAULT_255_2_778
10
16.0284262
20
0.6759248
40
0.7726658
50
273.7367104
51
359.9326456
0
ARC
8
DEFAULT_255_2_778
10
16.5337939
20
-7.0507208
40
6.9704891
50
93.7427504
51
95.0647044
0
ARC
8
DEFAULT_255_2_778
10
16.4442442
20
-6.0474037
40
5.9631839
50
95.0586851
51
96.4571097
0
ARC
8
DEFAULT_255_2_778
10
16.3380699
20
-5.0997673
40
5.0096189
50
96.4693453
51
97.3402429
0
ARC
8
DEFAULT_255_2_778
10
16.1940799
20
-4.0016542
40
3.9021092
50
97.3033345
51
98.9508322
0
ARC
8
DEFAULT_255_2_778
10
15.9500324
20
-2.4655152
40
2.3467073
50
98.9002294
51
101.0168389
0
ARC
8
DEFAULT_255_2_778
10
15.6707481
20
-1.0466316
40
0.9006065
50
100.8264732
51
104.3148869
0
ARC
8
DEFAULT_255_2_778
10
15.5340334
20
-0.4998954
40
0.3370538
50
104.7757422
51
105.8138173
0
ARC
8
DEFAULT_255_2_778
10
14.6022211
20
1.8991159
40
2.2375303
50
289.3371676
51
291.0357126
0
ARC
8
DEFAULT_255_2_778
10
14.9264602
20
0.9891736
40
1.2715655
50
288.9078935
51
289.1280236
0
ARC
8
DEFAULT_255_2_778
10
15.0307236
20
0.6654446
40
0.9315395
50
279.4248802
51
289.2933114
0
ARC
8
DEFAULT_255_2_778
10
15.060211
20
0.5080082
40
0.7714068
50
270.034998
51
279.1791504
0
LINE
8
DEFAULT_255_2_778
10
14.4317821
20
0.0951016
11
13.7948821
21
0.1057016
0
LINE
8
DEFAULT_255_2_778
10
13.4935821
20
1.5823016
11
13.4956821
21
2.7658016
0
LINE
8
DEFAULT_255_2_778
10
13.8192821
20
4.2390016
11
14.5452821
21
4.2390016
0
LINE
8
DEFAULT_255_2_778
10
15.1273821
20
4.5213016
11
16.0237821
21
4.5372016
0
LINE
8
DEFAULT_255_2_778
10
16.3716821
20
3.0754016
11
16.3814821
21
1.3622016
0
LINE
8
DEFAULT_255_2_778
10
15.4421821
20
-0.1755984
11
15.4053821
21
-0.1892984
0
LINE
8
DEFAULT_255_2_778
10
15.0606821
20
-0.2633984
11
15.0603821
21
-0.2630984
0
ARC
8
DEFAULT_255_2_778
10
8.878651
20
1.0995603
40
0.476806
50
269.9585431
51
270.1244733
0
ARC
8
DEFAULT_255_2_778
10
8.878103
20
1.3871093
40
0.7643552
50
232.9891359
51
270.0152192
0
ARC
8
DEFAULT_255_2_778
10
8.8815713
20
1.4068864
40
0.7822887
50
225.799989
51
233.6582518
0
ARC
8
DEFAULT_255_2_778
10
8.0239117
20
1.5506292
40
0.770675
50
269.9928548
51
293.9034684
0
ARC
8
DEFAULT_255_2_778
10
8.0234587
20
1.2904519
40
0.5104979
50
269.8797084
51
270.0400659
0
ARC
8
DEFAULT_255_2_778
10
8.020513
20
1.459869
40
0.6799161
50
267.2158255
51
270.1579056
0
ARC
8
DEFAULT_255_2_778
10
7.1797032
20
1.5933618
40
0.7736069
50
180.1159223
51
267.2351602
0
ARC
8
DEFAULT_255_2_778
10
7.1865266
20
1.5917712
40
0.7804288
50
177.4233987
51
179.9981339
0
ARC
8
DEFAULT_255_2_778
10
7.1766963
20
1.5930644
40
0.7705507
50
91.2923006
51
177.4865946
0
ARC
8
DEFAULT_255_2_778
10
7.1786842
20
1.5696259
40
0.7940295
50
89.9998034
51
91.3975584
0
ARC
8
DEFAULT_255_2_778
10
7.5603522
20
3.795103
40
0.7753731
50
187.7640044
51
252.5150227
0
ARC
8
DEFAULT_255_2_778
10
7.5632451
20
3.7920313
40
0.7778322
50
180.0109218
51
187.5110233
0
ARC
8
DEFAULT_255_2_778
10
7.5597285
20
3.7906483
40
0.7743165
50
97.8787884
51
179.9086353
0
ARC
8
DEFAULT_255_2_778
10
8.2831585
20
3.8759582
40
0.7882972
50
89.990671
51
97.5863836
0
ARC
8
DEFAULT_255_2_778
10
8.2819695
20
3.8889258
40
0.7753307
50
43.2080295
51
89.9026482
0
ARC
8
DEFAULT_255_2_778
10
8.3294345
20
3.9388567
40
0.7065604
50
36.8993803
51
42.8920705
0
ARC
8
DEFAULT_255_2_778
10
8.0594244
20
3.7292648
40
1.0483407
50
35.0633378
51
37.1995141
0
ARC
8
DEFAULT_255_2_778
10
8.0224555
20
3.70131
40
1.0946611
50
27.9299123
51
35.1493618
0
ARC
8
DEFAULT_255_2_778
10
8.327606
20
3.8639878
40
0.7488579
50
22.9306581
51
27.8687427
0
ARC
8
DEFAULT_255_2_778
10
9.6691025
20
1.8181245
40
0.7741319
50
19.8395864
51
89.91234
0
ARC
8
DEFAULT_255_2_778
10
9.6631268
20
1.8201001
40
0.779092
50
8.6069452
51
19.5537687
0
ARC
8
DEFAULT_255_2_778
10
9.6724471
20
1.8217407
40
0.7696312
50
0.0006459
51
8.5900216
0
ARC
8
DEFAULT_255_2_778
10
9.6664626
20
1.8220428
40
0.7756158
50
291.3869415
51
359.9783298
0
ARC
8
DEFAULT_255_2_778
10
9.6613925
20
1.8359749
40
0.7904375
50
290.1581183
51
291.3608769
0
ARC
8
DEFAULT_255_2_778
10
11.3370796
20
-2.840382
40
4.1771093
50
109.6302132
51
112.721443
0
ARC
8
DEFAULT_255_2_778
10
10.9189372
20
-1.8427694
40
3.0954098
50
112.7147288
51
115.4109192
0
ARC
8
DEFAULT_255_2_778
10
10.3760735
20
-0.707266
40
1.8368183
50
115.3145093
51
118.6931902
0
ARC
8
DEFAULT_255_2_778
10
9.8660147
20
0.2255279
40
0.7736797
50
118.7248159
51
121.8725985
0
ARC
8
DEFAULT_255_2_778
10
8.8780523
20
1.3988097
40
0.7760559
50
270.1206768
51
318.3001704
0
LINE
8
DEFAULT_255_2_778
10
7.9874869
20
0.7807554
11
7.1423869
21
0.8206554
0
LINE
8
DEFAULT_255_2_778
10
7.1786869
20
2.3636554
11
7.1892869
21
2.3636554
0
LINE
8
DEFAULT_255_2_778
10
7.1892869
20
2.3636554
11
7.3273869
21
3.0555554
0
LINE
8
DEFAULT_255_2_778
10
7.4535869
20
4.5576554
11
8.1790869
21
4.6573554
0
LINE
8
DEFAULT_255_2_778
10
9.0172869
20
4.1557554
11
9.6538869
21
2.6169554
0
LINE
8
DEFAULT_255_2_778
10
9.6538869
20
2.6169554
11
9.6641869
21
2.5922554
0
LINE
8
DEFAULT_255_2_778
10
9.6641869
20
2.5922554
11
9.6702869
21
2.5922554
0
LINE
8
DEFAULT_255_2_778
10
8.8796869
20
0.6227554
11
8.8796869
21
0.6227554
0
ARC
8
DEFAULT_255_2_778
10
9.9817118
20
0.9979801
40
1.0484627
50
110.594645
51
115.1436471
0
ARC
8
DEFAULT_255_2_778
10
11.4531202
20
-2.2798482
40
4.6412845
50
114.3939501
51
114.5163422
0
ARC
8
DEFAULT_255_2_778
10
12.1361988
20
-3.7779978
40
6.2878107
50
114.5148198
51
114.6034884
0
ARC
8
DEFAULT_255_2_778
10
-51.2402719
20
133.9749494
40
145.3448201
50
294.6714534
51
294.7103331
0
ARC
8
DEFAULT_255_2_778
10
5.9419483
20
9.5047694
40
8.3680657
50
293.7713328
51
294.6250917
0
ARC
8
DEFAULT_255_2_778
10
8.0210757
20
3.7008908
40
0.4928985
50
27.0360321
51
38.4273829
0
ARC
8
DEFAULT_255_2_778
10
8.2833992
20
3.8920097
40
0.1691357
50
42.9436314
51
89.9921206
0
ARC
8
DEFAULT_255_2_778
10
8.2834234
20
3.8922523
40
0.168893
50
90.0002993
51
96.7051625
0
ARC
8
DEFAULT_255_2_778
10
8.2834524
20
3.8919488
40
0.1691977
50
96.7029426
51
97.6561454
0
ARC
8
DEFAULT_255_2_778
10
7.5580685
20
3.7913513
40
0.170211
50
97.9215056
51
179.8867928
0
ARC
8
DEFAULT_255_2_778
10
7.5595354
20
3.7917254
40
0.1716776
50
180.0125986
51
187.4591951
0
ARC
8
DEFAULT_255_2_778
10
7.5572858
20
3.7917936
40
0.1694563
50
187.5808303
51
232.6205932
0
ARC
8
DEFAULT_255_2_778
10
7.5572942
20
3.7917598
40
0.1694344
50
232.6113985
51
269.9899694
0
ARC
8
DEFAULT_255_2_778
10
7.5572665
20
3.7910583
40
0.1687328
50
269.9993297
51
274.5467036
0
ARC
8
DEFAULT_255_2_778
10
7.5572869
20
3.7908728
40
0.1685465
50
274.5447756
51
277.6796865
0
ARC
8
DEFAULT_255_2_778
10
7.1778388
20
1.5918776
40
0.1689632
50
87.1938788
51
89.9984466
0
ARC
8
DEFAULT_255_2_778
10
7.1778706
20
1.591837
40
0.1690036
50
90.0092235
51
132.4002014
0
ARC
8
DEFAULT_255_2_778
10
7.1777089
20
1.5917549
40
0.1689552
50
132.3409595
51
177.5293649
0
ARC
8
DEFAULT_255_2_778
10
7.1775962
20
1.5915213
40
0.1688529
50
177.4485076
51
179.9988264
0
ARC
8
DEFAULT_255_2_778
10
7.1777013
20
1.5915788
40
0.1689579
50
180.0183403
51
222.5894232
0
ARC
8
DEFAULT_255_2_778
10
7.1779385
20
1.5913991
40
0.1690113
50
222.4901434
51
267.582895
0
ARC
8
DEFAULT_255_2_778
10
8.0224344
20
1.5546585
40
0.1722027
50
267.362647
51
269.9992765
0
ARC
8
DEFAULT_255_2_778
10
8.0222975
20
1.5521786
40
0.1697231
50
270.0454761
51
357.1494519
0
ARC
8
DEFAULT_255_2_778
10
7.9745166
20
1.5542685
40
0.217549
50
357.2255548
51
359.9931697
0
ARC
8
DEFAULT_255_2_778
10
8.0342526
20
1.5637413
40
0.1580986
50
356.5555102
51
89.169903
0
ARC
8
DEFAULT_255_2_778
10
8.0207474
20
1.479771
40
0.2425673
50
86.266352
51
90.0323185
0
ARC
8
DEFAULT_255_2_778
10
11.0718835
20
-1.9458777
40
4.1842365
50
119.5071785
51
121.0219812
0
ARC
8
DEFAULT_255_2_778
10
9.5497967
20
0.5917428
40
1.2251442
50
121.1820809
51
123.8572567
0
ARC
8
DEFAULT_255_2_778
10
9.1275519
20
1.2005531
40
0.4844632
50
122.501789
51
142.4011738
0
ARC
8
DEFAULT_255_2_778
10
8.8803051
20
1.3950736
40
0.1699179
50
143.5027176
51
180.0131918
0
ARC
8
DEFAULT_255_2_778
10
8.8804998
20
1.3950292
40
0.1701126
50
179.9982358
51
181.811322
0
ARC
8
DEFAULT_255_2_778
10
8.8802485
20
1.3950198
40
0.1698609
50
181.8108268
51
203.4447617
0
ARC
8
DEFAULT_255_2_778
10
8.8801275
20
1.3949622
40
0.1697269
50
203.4431677
51
263.4649247
0
ARC
8
DEFAULT_255_2_778
10
8.8801245
20
1.394758
40
0.1695237
50
263.4580795
51
269.9986813
0
ARC
8
DEFAULT_255_2_778
10
8.8800384
20
1.3951295
40
0.1698951
50
270.0277283
51
323.4438409
0
ARC
8
DEFAULT_255_2_778
10
9.2439328
20
1.1130791
40
0.2905699
50
126.7406134
51
141.5062775
0
ARC
8
DEFAULT_255_2_778
10
9.6106912
20
0.6406674
40
0.8886023
50
120.2794567
51
127.4698214
0
ARC
8
DEFAULT_255_2_778
10
10.1871544
20
-0.3332298
40
2.0203113
50
115.8925646
51
120.4712689
0
ARC
8
DEFAULT_255_2_778
10
10.5910193
20
-1.1381236
40
2.9207912
50
115.479209
51
116.1247778
0
ARC
8
DEFAULT_255_2_778
10
10.9901294
20
-1.9952314
40
3.8662377
50
111.9988734
51
115.3544227
0
ARC
8
DEFAULT_255_2_778
10
11.3470297
20
-2.8611811
40
4.802834
50
109.8690448
51
112.0768944
0
ARC
8
DEFAULT_255_2_778
10
11.3709276
20
-2.9252652
40
4.8712255
50
109.7143674
51
109.8772183
0
ARC
8
DEFAULT_255_2_778
10
9.6693416
20
1.8204757
40
0.1703495
50
290.0379764
51
359.9787503
0
ARC
8
DEFAULT_255_2_778
10
9.6711601
20
1.8204166
40
0.1685309
50
359.9985843
51
8.086158
0
ARC
8
DEFAULT_255_2_778
10
9.6696135
20
1.8201459
40
0.1701001
50
8.1031673
51
19.6471582
0
ARC
8
DEFAULT_255_2_778
10
9.6704832
20
1.8202943
40
0.1692312
50
19.6988422
51
64.7355386
0
ARC
8
DEFAULT_255_2_778
10
9.6703849
20
1.8193803
40
0.1701001
50
64.8369804
51
89.9786905
0
ARC
8
DEFAULT_255_2_778
10
9.670463
20
1.8181363
40
0.171344
50
90.0049732
51
90.7781299
0
ARC
8
DEFAULT_255_2_778
10
9.6704068
20
1.820998
40
0.1684818
50
90.7722351
51
109.8813378
0
LINE
8
DEFAULT_255_2_778
10
9.3150106
20
1.8466382
11
9.0972106
21
2.3845382
0
LINE
8
DEFAULT_255_2_778
10
9.0972106
20
2.3845382
11
8.4601106
21
3.9249382
0
LINE
8
DEFAULT_255_2_778
10
8.2609106
20
4.0596382
11
7.5346106
21
3.9599382
0
LINE
8
DEFAULT_255_2_778
10
7.5798106
20
3.6238382
11
8.0690106
21
3.6924382
0
LINE
8
DEFAULT_255_2_778
10
8.0690106
20
3.6924382
11
7.6777106
21
1.7368382
0
LINE
8
DEFAULT_255_2_778
10
7.6777106
20
1.7368382
11
7.1861106
21
1.7606382
0
LINE
8
DEFAULT_255_2_778
10
7.1708106
20
1.4225382
11
8.0145106
21
1.3826382
0
LINE
8
DEFAULT_255_2_778
10
8.0206106
20
1.7223382
11
8.0595106
21
1.9805382
0
LINE
8
DEFAULT_255_2_778
10
8.0595106
20
1.9805382
11
8.8432106
21
2.1104382
0
LINE
8
DEFAULT_255_2_778
10
8.8432106
20
2.1104382
11
9.0110106
21
1.6956382
0
LINE
8
DEFAULT_255_2_778
10
9.6131106
20
1.9794382
11
9.6129106
21
1.9794382
0
LINE
8
DEFAULT_255_2_778
10
8.1315106
20
2.2525382
11
8.3392106
21
3.2696382
0
LINE
8
DEFAULT_255_2_778
10
8.3392106
20
3.2696382
11
8.7120106
21
2.3485382
0
LINE
8
DEFAULT_255_2_778
10
8.7120106
20
2.3485382
11
8.1315106
21
2.2525382
0
ARC
8
DEFAULT_255_2_778
10
10.0819675
20
0.914921
40
0.7767106
50
181.2613761
51
269.6737549
0
ARC
8
DEFAULT_255_2_778
10
10.0933683
20
0.9097588
40
0.7880138
50
180.0007448
51
180.8678767
0
ARC
8
DEFAULT_255_2_778
10
10.0797117
20
0.9090777
40
0.7743576
50
109.028223
51
179.950364
0
ARC
8
DEFAULT_255_2_778
10
9.6423977
20
2.6079914
40
0.7610684
50
269.9960197
51
278.6716158
0
ARC
8
DEFAULT_255_2_778
10
9.6383123
20
2.6139472
40
0.7670349
50
269.9972706
51
270.3012279
0
ARC
8
DEFAULT_255_2_778
10
9.6382977
20
2.6142025
40
0.7672902
50
188.2484204
51
269.9983566
0
ARC
8
DEFAULT_255_2_778
10
9.5121657
20
3.4530511
40
0.7713426
50
185.454317
51
188.771715
0
ARC
8
DEFAULT_255_2_778
10
9.510785
20
3.45292
40
0.7699557
50
180.0004189
51
185.4543707
0
ARC
8
DEFAULT_255_2_778
10
9.5108287
20
3.4529061
40
0.7699994
50
139.6229577
51
179.9993841
0
ARC
8
DEFAULT_255_2_778
10
9.5120488
20
3.4555204
40
0.7692401
50
90.5663741
51
139.8301661
0
ARC
8
DEFAULT_255_2_778
10
11.6589219
20
3.5130656
40
0.7767585
50
44.636686
51
89.9024157
0
ARC
8
DEFAULT_255_2_778
10
11.6643773
20
3.5191871
40
0.7685757
50
359.859263
51
44.5977029
0
ARC
8
DEFAULT_255_2_778
10
11.6540232
20
3.5172988
40
0.7789274
50
355.6872461
51
0.0000298
0
ARC
8
DEFAULT_255_2_778
10
11.5915493
20
2.8668389
40
0.8195985
50
0.0004241
51
1.5580089
0
ARC
8
DEFAULT_255_2_778
10
11.6419909
20
2.8593056
40
0.769194
50
295.2532873
51
0.5616005
0
ARC
8
DEFAULT_255_2_778
10
11.6331162
20
2.8822844
40
0.7937648
50
270.1680913
51
295.125041
0
ARC
8
DEFAULT_255_2_778
10
11.6354137
20
2.8464707
40
0.7579477
50
249.5863354
51
270.0023587
0
ARC
8
DEFAULT_255_2_778
10
11.1056302
20
0.9217461
40
0.7765441
50
1.0460703
51
69.9276735
0
ARC
8
DEFAULT_255_2_778
10
11.095938
20
0.9240935
40
0.7861959
50
359.9994882
51
0.8621326
0
ARC
8
DEFAULT_255_2_778
10
11.1168162
20
0.9226832
40
0.7653189
50
315.4641827
51
0.1050522
0
ARC
8
DEFAULT_255_2_778
10
11.1128808
20
0.9185619
40
0.7652549
50
270.3716712
51
315.8907933
0
ARC
8
DEFAULT_255_2_778
10
2.6901581
20
571.8196375
40
571.728433
50
270.8439476
51
270.8446114
0
ARC
8
DEFAULT_255_2_778
10
8.7736686
20
158.2997663
40
158.1638157
50
270.8431683
51
270.8468234
0
ARC
8
DEFAULT_255_2_778
10
-19.8952323
20
2100.9678716
40
2101.0434499
50
270.844547
51
270.8453063
0
ARC
8
DEFAULT_255_2_778
10
-63.222324
20
5037.2685158
40
5037.6637368
50
270.8446117
51
270.8450305
0
ARC
8
DEFAULT_255_2_778
10
1.4472712
20
649.6100236
40
649.528689
50
270.8442294
51
270.8459064
0
ARC
8
DEFAULT_255_2_778
10
7.1282544
20
263.7279505
40
263.6048003
50
270.843309
51
270.845368
0
ARC
8
DEFAULT_255_2_778
10
-258.02139
20
18241.9772726
40
18243.8092769
50
270.8446691
51
270.8449335
0
ARC
8
DEFAULT_255_2_778
10
-860.8891911
20
59133.5450198
40
59139.8208479
50
270.8445106
51
270.8446595
0
ARC
8
DEFAULT_255_2_778
10
-295.3128079
20
20766.5177816
40
20768.6251962
50
270.8439695
51
270.8444417
0
LINE
8
DEFAULT_255_2_778
10
10.5989324
20
0.145673
11
10.5978419
21
0.1456569
0
ARC
8
DEFAULT_255_2_778
10
-252.5917202
20
17866.335228
40
17868.1280087
50
270.8433611
51
270.8439718
0
ARC
8
DEFAULT_255_2_778
10
-82.4692808
20
6309.6250046
40
6310.1656956
50
270.8421782
51
270.8433431
0
ARC
8
DEFAULT_255_2_778
10
-33.1170337
20
2951.8559758
40
2952.0339985
50
270.8407277
51
270.8423029
0
ARC
8
DEFAULT_255_2_778
10
-8.1309459
20
1248.4616932
40
1248.4564729
50
270.8379948
51
270.8412051
0
ARC
8
DEFAULT_255_2_778
10
6.3339582
20
259.4316332
40
259.3206413
50
270.830191
51
270.8383156
0
ARC
8
DEFAULT_255_2_778
10
9.9613368
20
8.8358752
40
8.6986325
50
270.7674331
51
270.8558727
0
LINE
8
DEFAULT_255_2_778
10
9.8272449
20
1.641123
11
9.8267449
21
1.869123
0
LINE
8
DEFAULT_255_2_778
10
9.8267449
20
1.869123
11
9.7571449
21
1.855623
0
LINE
8
DEFAULT_255_2_778
10
8.8789449
20
2.504123
11
8.7498449
21
3.335423
0
LINE
8
DEFAULT_255_2_778
10
9.5044449
20
4.224723
11
10.5826449
21
4.242723
0
LINE
8
DEFAULT_255_2_778
10
10.5826449
20
4.242723
11
11.5994449
21
4.287423
0
LINE
8
DEFAULT_255_2_778
10
11.5994449
20
4.287423
11
11.6102449
21
4.288223
0
LINE
8
DEFAULT_255_2_778
10
11.6102449
20
4.288223
11
11.6602449
21
4.289823
0
LINE
8
DEFAULT_255_2_778
10
12.4307449
20
3.458723
11
12.4108449
21
2.889123
0
LINE
8
DEFAULT_255_2_778
10
11.3710449
20
2.136123
11
11.3721449
21
1.651123
0
LINE
8
DEFAULT_255_2_778
10
10.0778449
20
0.138023
11
10.0775449
21
0.138223
0
ARC
8
DEFAULT_255_2_778
10
11.6149348
20
4.0565603
40
0.3713283
50
273.8727652
51
275.2472717
0
ARC
8
DEFAULT_255_2_778
10
11.2073721
20
9.5934773
40
5.9232191
50
273.8601319
51
274.1887176
0
ARC
8
DEFAULT_255_2_778
10
10.671495
20
17.4687859
40
13.8167382
50
273.6180626
51
273.8787399
0
ARC
8
DEFAULT_255_2_778
10
10.3017049
20
23.3001631
40
19.6598283
50
273.3310429
51
273.6211608
0
ARC
8
DEFAULT_255_2_778
10
10.1183364
20
26.4289869
40
22.7940206
50
273.0743624
51
273.3342066
0
ARC
8
DEFAULT_255_2_778
10
10.0523903
20
27.6479642
40
24.0147803
50
272.7907324
51
273.0754957
0
ARC
8
DEFAULT_255_2_778
10
10.0495977
20
27.6960003
40
24.0628954
50
272.4546281
51
272.7918052
0
ARC
8
DEFAULT_255_2_778
10
10.1044536
20
26.3846481
40
22.7503971
50
271.886063
51
272.4580465
0
ARC
8
DEFAULT_255_2_778
10
10.1991911
20
23.4538082
40
19.8180271
50
271.1377296
51
271.8911912
0
ARC
8
DEFAULT_255_2_778
10
9.5120325
20
3.4553625
40
0.1663273
50
90.2543002
51
140.174003
0
ARC
8
DEFAULT_255_2_778
10
9.5114613
20
3.4521566
40
0.1679656
50
139.2093136
51
179.8383578
0
ARC
8
DEFAULT_255_2_778
10
9.5070215
20
3.4526234
40
0.1635253
50
179.9975212
51
185.1783082
0
ARC
8
DEFAULT_255_2_778
10
9.506743
20
3.4526069
40
0.1632463
50
185.181342
51
188.744711
0
ARC
8
DEFAULT_255_2_778
10
9.6427336
20
2.6167045
40
0.1691984
50
187.7841003
51
269.9452358
0
ARC
8
DEFAULT_255_2_778
10
9.6425594
20
2.6187052
40
0.1711989
50
270.0041818
51
274.2995437
0
ARC
8
DEFAULT_255_2_778
10
9.6428415
20
2.6167879
40
0.1692658
50
274.2529741
51
0.0265494
0
ARC
8
DEFAULT_255_2_778
10
9.6413368
20
2.616881
40
0.1707705
50
359.9950718
51
0.7070059
0
ARC
8
DEFAULT_255_2_778
10
9.6251368
20
2.5995538
40
0.1879649
50
5.9346141
51
9.1192852
0
ARC
8
DEFAULT_255_2_778
10
3.5844952
20
1.7110362
40
6.2935872
50
8.3900801
51
8.8051126
0
ARC
8
DEFAULT_255_2_778
10
-31.1521312
20
-3.631019
40
41.4385803
50
8.752326
51
8.8426563
0
ARC
8
DEFAULT_255_2_778
10
-73.9171003
20
-10.2705955
40
84.715901
50
8.8337042
51
8.8382058
0
ARC
8
DEFAULT_255_2_778
10
-70.5503015
20
-9.7445492
40
81.308255
50
8.8364377
51
8.8410787
0
ARC
8
DEFAULT_255_2_778
10
234.8809027
20
37.7711784
40
227.7968482
50
188.8413758
51
188.8431228
0
ARC
8
DEFAULT_255_2_778
10
615.6584384
20
97.041902
40
613.1597288
50
188.8445816
51
188.8452214
0
LINE
8
DEFAULT_255_2_778
10
9.7897645
20
2.7656961
11
9.7887277
21
2.7723572
0
LINE
8
DEFAULT_255_2_778
10
9.7887277
20
2.7723572
11
9.7709181
21
2.8866963
0
ARC
8
DEFAULT_255_2_778
10
161.4887734
20
26.5168196
40
153.5470297
50
188.8047115
51
188.8527167
0
ARC
8
DEFAULT_255_2_778
10
105.261756
20
17.8014765
40
96.6485707
50
188.7938791
51
188.8010756
0
ARC
8
DEFAULT_255_2_778
10
75.5315352
20
13.2102469
40
66.5659291
50
188.6810016
51
188.8006837
0
ARC
8
DEFAULT_255_2_778
10
40.3720302
20
7.8442763
40
30.9993096
50
188.4819388
51
188.6851291
0
ARC
8
DEFAULT_255_2_778
10
28.4214222
20
6.056887
40
18.9157774
50
188.4233466
51
188.4663302
0
ARC
8
DEFAULT_255_2_778
10
10.0776864
20
0.9106328
40
0.1694709
50
90.7749411
51
135.7498834
0
ARC
8
DEFAULT_255_2_778
10
10.0780472
20
0.910721
40
0.1696681
50
135.8562468
51
180.0202357
0
ARC
8
DEFAULT_255_2_778
10
10.0784257
20
0.9106617
40
0.1700465
50
180.0002215
51
180.7660763
0
ARC
8
DEFAULT_255_2_778
10
10.0785476
20
0.9110515
40
0.1701741
50
180.8967489
51
269.8300334
0
ARC
8
DEFAULT_255_2_778
10
10.0780601
20
0.9125207
40
0.1716425
50
269.9942042
51
270.6122781
0
ARC
8
DEFAULT_255_2_778
10
11.1100362
20
0.9252028
40
0.1689259
50
270.6641747
51
315.8259115
0
ARC
8
DEFAULT_255_2_778
10
11.1104473
20
0.9253974
40
0.1687673
50
315.6812565
51
359.9871828
0
ARC
8
DEFAULT_255_2_778
10
11.1097184
20
0.9253456
40
0.1694964
50
0.0047229
51
0.8933012
0
ARC
8
DEFAULT_255_2_778
10
11.1093529
20
0.9253334
40
0.1698622
50
0.895515
51
90.1890969
0
ARC
8
DEFAULT_255_2_778
10
11.1087931
20
0.9196947
40
0.1754999
50
90.0002568
51
90.4893011
0
ARC
8
DEFAULT_255_2_778
10
13.1372348
20
3.004864
40
1.6714553
50
179.7592178
51
183.2836292
0
ARC
8
DEFAULT_255_2_778
10
12.0702353
20
2.9397005
40
0.6024878
50
182.9089328
51
190.2409379
0
ARC
8
DEFAULT_255_2_778
10
11.6688819
20
2.8657879
40
0.1943926
50
189.8343789
51
203.9144844
0
ARC
8
DEFAULT_255_2_778
10
11.6664713
20
2.8696483
40
0.1938063
50
205.2467878
51
210.7391321
0
ARC
8
DEFAULT_255_2_778
10
11.6327866
20
2.8416656
40
0.1507062
50
208.140093
51
270.8806851
0
ARC
8
DEFAULT_255_2_778
10
11.6348513
20
2.8680236
40
0.1770467
50
270.0814642
51
281.4952911
0
ARC
8
DEFAULT_255_2_778
10
11.6311121
20
2.8856137
40
0.1950294
50
281.5418999
51
295.5715964
0
ARC
8
DEFAULT_255_2_778
10
11.636001
20
2.8626353
40
0.1722796
50
297.4038647
51
1.755227
0
ARC
8
DEFAULT_255_2_778
10
11.6142586
20
2.8679185
40
0.1939411
50
359.9981432
51
1.6061934
0
ARC
8
DEFAULT_255_2_778
10
11.6145414
20
2.8679177
40
0.1936583
50
1.6087707
51
3.2178304
0
ARC
8
DEFAULT_255_2_778
10
11.8321437
20
2.8796951
40
0.0242663
50
179.4920909
51
182.1417687
0
ARC
8
DEFAULT_255_2_778
10
12.0236488
20
2.8805737
40
0.2157716
50
179.9750602
51
180.1761948
0
ARC
8
DEFAULT_255_2_778
10
15.1400787
20
2.8675446
40
3.3322273
50
179.2751698
51
179.7743572
0
ARC
8
DEFAULT_255_2_778
10
23.8524313
20
2.770681
40
12.0451156
50
179.0306344
51
179.3387123
0
ARC
8
DEFAULT_255_2_778
10
27.1482654
20
2.7171659
40
15.3413834
50
178.5784396
51
179.0390404
0
ARC
8
DEFAULT_255_2_778
10
24.3173456
20
2.7927651
40
12.5094605
50
177.7184554
51
178.6029231
0
ARC
8
DEFAULT_255_2_778
10
18.9087795
20
3.0117975
40
7.0964631
50
176.428592
51
177.7470692
0
ARC
8
DEFAULT_255_2_778
10
15.9677028
20
3.1902381
40
4.1499857
50
175.6641483
51
176.3580033
0
ARC
8
DEFAULT_255_2_778
10
11.661013
20
3.5173562
40
0.1691106
50
355.4660881
51
0.0009016
0
ARC
8
DEFAULT_255_2_778
10
11.6606103
20
3.5173458
40
0.1695132
50
0.0044097
51
44.7988412
0
ARC
8
DEFAULT_255_2_778
10
11.6603825
20
3.5167768
40
0.1700759
50
44.8807944
51
90.1145762
0
ARC
8
DEFAULT_255_2_778
10
11.660038
20
3.5161873
40
0.170665
50
89.9985062
51
93.7438132
0
LINE
8
DEFAULT_255_2_778
10
10.5926943
20
3.6396882
11
9.5112943
21
3.6216882
0
LINE
8
DEFAULT_255_2_778
10
9.3453943
20
3.4277882
11
9.4750943
21
2.5937882
0
LINE
8
DEFAULT_255_2_778
10
9.7096943
20
3.2859882
11
10.4269943
21
3.2980882
0
LINE
8
DEFAULT_255_2_778
10
10.4269943
20
3.2980882
11
10.4314943
21
1.0845882
0
LINE
8
DEFAULT_255_2_778
10
10.4314943
20
1.0845882
11
10.0753943
21
1.0800882
0
LINE
8
DEFAULT_255_2_778
10
10.0798943
20
0.7408882
11
11.1119943
21
0.7562882
0
LINE
8
DEFAULT_255_2_778
10
11.1072943
20
1.0951882
11
10.7701943
21
1.0901882
0
LINE
8
DEFAULT_255_2_778
10
10.7701943
20
1.0901882
11
10.7656943
21
3.3046882
0
LINE
8
DEFAULT_255_2_778
10
10.7656943
20
3.3046882
11
11.4784943
21
3.3361882
0
LINE
8
DEFAULT_255_2_778
10
11.4784943
20
3.3361882
11
11.4657943
21
3.0118882
0
LINE
8
DEFAULT_255_2_778
10
11.6488943
20
3.6864882
11
11.6488943
21
3.6867882
0
ARC
8
DEFAULT_255_2_778
10
3.737313
20
1.3558053
40
1.5591449
50
254.9241881
51
270.2615239
0
ARC
8
DEFAULT_255_2_778
10
3.682807
20
1.1489312
40
1.3452145
50
232.2923851
51
254.8740448
0
ARC
8
DEFAULT_255_2_778
10
3.7268592
20
1.1863244
40
1.4017927
50
192.5130898
51
231.8026891
0
ARC
8
DEFAULT_255_2_778
10
3.7430961
20
1.1970182
40
1.4199778
50
184.7658001
51
192.7923883
0
ARC
8
DEFAULT_255_2_778
10
3.7157225
20
1.1942228
40
1.3924667
50
184.2191594
51
184.7447554
0
ARC
8
DEFAULT_255_2_778
10
4.9346255
20
1.7959538
40
2.6137825
50
167.1762499
51
176.153923
0
ARC
8
DEFAULT_255_2_778
10
4.1086612
20
1.9878758
40
1.7658262
50
154.1770078
51
167.2998713
0
ARC
8
DEFAULT_255_2_778
10
3.6087718
20
2.2388568
40
1.206556
50
125.7386263
51
154.5650312
0
ARC
8
DEFAULT_255_2_778
10
3.5674195
20
2.281267
40
1.1480123
50
121.5793534
51
125.2997283
0
ARC
8
DEFAULT_255_2_778
10
3.5634337
20
2.282313
40
1.1450375
50
89.3496911
51
121.4368537
0
ARC
8
DEFAULT_255_2_778
10
3.5729939
20
2.0311209
40
1.3961601
50
80.8658441
51
89.8590028
0
ARC
8
DEFAULT_255_2_778
10
4.3729625
20
2.8996274
40
0.7710494
50
89.9727162
51
138.5955233
0
ARC
8
DEFAULT_255_2_778
10
4.3722122
20
2.8975415
40
0.773136
50
1.1686374
51
89.9171915
0
ARC
8
DEFAULT_255_2_778
10
4.3617587
20
2.8983823
40
0.7835709
50
359.9995906
51
1.0915779
0
ARC
8
DEFAULT_255_2_778
10
3.9459464
20
2.1634524
40
1.1993839
50
0.0116979
51
0.0584891
0
ARC
8
DEFAULT_255_2_778
10
4.381605
20
2.163811
40
0.7637253
50
342.611849
51
359.9914645
0
ARC
8
DEFAULT_255_2_778
10
4.5165787
20
1.4486634
40
0.7679476
50
2.060649
51
39.3491917
0
ARC
8
DEFAULT_255_2_778
10
3.0504061
20
1.3825205
40
2.2484629
50
347.9437723
51
351.9712235
0
ARC
8
DEFAULT_255_2_778
10
3.4479442
20
1.2954685
40
1.8415117
50
342.4268587
51
348.0090337
0
ARC
8
DEFAULT_255_2_778
10
4.039123
20
1.1001711
40
1.2189814
50
330.7837114
51
342.78845
0
ARC
8
DEFAULT_255_2_778
10
3.8359937
20
1.2259286
40
1.4576911
50
326.2038593
51
330.3666673
0
ARC
8
DEFAULT_255_2_778
10
3.6710589
20
1.3427541
40
1.6597471
50
319.4592275
51
326.0194726
0
ARC
8
DEFAULT_255_2_778
10
2.4592053
20
2.3633057
40
3.2440574
50
318.6165892
51
319.6734639
0
ARC
8
DEFAULT_255_2_778
10
4.0661023
20
0.9586441
40
1.1098159
50
307.8448544
51
318.1834426
0
ARC
8
DEFAULT_255_2_778
10
4.0220533
20
1.0141515
40
1.1806742
50
304.8767385
51
307.8802424
0
ARC
8
DEFAULT_255_2_778
10
3.8725902
20
1.2412147
40
1.4524362
50
296.2161952
51
304.5918996
0
ARC
8
DEFAULT_255_2_778
10
3.446387
20
2.0785565
40
2.3919553
50
294.9698352
51
296.5145989
0
ARC
8
DEFAULT_255_2_778
10
3.9802836
20
0.9155449
40
1.1122925
50
282.0406488
51
295.3284408
0
ARC
8
DEFAULT_255_2_778
10
3.9416057
20
1.1364339
40
1.3364158
50
271.5028461
51
281.6868712
0
ARC
8
DEFAULT_255_2_778
10
3.8656331
20
3.3307221
40
3.5319898
50
270.2870736
51
271.8012954
0
LINE
8
DEFAULT_255_2_778
10
2.3270296
20
1.0917767
11
2.3249296
21
1.1412767
0
LINE
8
DEFAULT_255_2_778
10
2.3249296
20
1.1412767
11
2.3188296
21
1.4545767
0
LINE
8
DEFAULT_255_2_778
10
2.3188296
20
1.4545767
11
2.3249296
21
1.9238767
0
LINE
8
DEFAULT_255_2_778
10
2.3249296
20
1.9238767
11
2.3267296
21
1.9712767
0
LINE
8
DEFAULT_255_2_778
10
5.1453296
20
2.8983767
11
5.1453296
21
2.1646767
0
LINE
8
DEFAULT_255_2_778
10
5.2840296
20
1.4762767
11
5.2887296
21
1.3870767
0
LINE
8
DEFAULT_255_2_778
10
5.2887296
20
1.3870767
11
5.2895296
21
1.3544767
0
LINE
8
DEFAULT_255_2_778
10
5.2895296
20
1.3544767
11
5.2768296
21
1.0684767
0
LINE
8
DEFAULT_255_2_778
10
5.2768296
20
1.0684767
11
5.2768296
21
1.0684767
0
LINE
8
DEFAULT_255_2_778
10
3.8833296
20
-0.2012233
11
3.7949296
21
-0.2031233
0
LINE
8
DEFAULT_255_2_778
10
3.7949296
20
-0.2031233
11
3.7446296
21
-0.2039233
0
LINE
8
DEFAULT_255_2_778
10
3.7446296
20
-0.2039233
11
3.7444296
21
-0.2033233
0
ARC
8
DEFAULT_255_2_778
10
4.5126994
20
1.4490572
40
0.1692786
50
90.8726707
51
179.989199
0
ARC
8
DEFAULT_255_2_778
10
4.5176095
20
1.4491828
40
0.1741887
50
180.0308078
51
180.1534962
0
ARC
8
DEFAULT_255_2_778
10
2.9228035
20
1.4139867
40
1.4377142
50
347.62391
51
351.2072346
0
ARC
8
DEFAULT_255_2_778
10
3.488754
20
1.2798616
40
0.8562238
50
341.0961788
51
348.27364
0
ARC
8
DEFAULT_255_2_778
10
4.0516955
20
1.091729
40
0.2627307
50
336.0046826
51
340.1373242
0
ARC
8
DEFAULT_255_2_778
10
4.1710743
20
1.0384129
40
0.1319873
50
330.2987671
51
336.0748717
0
ARC
8
DEFAULT_255_2_778
10
3.6483958
20
1.3530841
40
0.742048
50
316.4173682
51
329.1903353
0
ARC
8
DEFAULT_255_2_778
10
3.9955395
20
1.0356784
40
0.2719268
50
295.2063504
51
314.4367292
0
ARC
8
DEFAULT_255_2_778
10
3.6128304
20
1.7520688
40
1.0838726
50
294.1702422
51
297.3832842
0
ARC
8
DEFAULT_255_2_778
10
3.9715111
20
0.9442398
40
0.2000332
50
293.9290513
51
295.1810447
0
ARC
8
DEFAULT_255_2_778
10
3.9533485
20
1.0089839
40
0.2667544
50
269.1249067
51
291.8539532
0
ARC
8
DEFAULT_255_2_778
10
3.8586835
20
3.3464286
40
2.6057431
50
270.3463539
51
271.9923383
0
ARC
8
DEFAULT_255_2_778
10
3.6348846
20
22.2605759
40
21.5211761
50
270.6337374
51
270.6377682
0
ARC
8
DEFAULT_255_2_778
10
3.7453245
20
1.5249929
40
0.7862492
50
270.0097941
51
271.7635458
0
ARC
8
DEFAULT_255_2_778
10
3.741013
20
1.3629942
40
0.6242663
50
257.5772302
51
270.4080522
0
ARC
8
DEFAULT_255_2_778
10
3.7022068
20
1.1891644
40
0.4461585
50
238.9799356
51
257.6418064
0
ARC
8
DEFAULT_255_2_778
10
3.6799544
20
1.1468598
40
0.3984458
50
214.5517147
51
238.587187
0
ARC
8
DEFAULT_255_2_778
10
3.7160389
20
1.1735069
40
0.4432809
50
209.0661811
51
214.7432244
0
ARC
8
DEFAULT_255_2_778
10
3.769741
20
1.201658
40
0.5038981
50
196.5159094
51
208.8974645
0
ARC
8
DEFAULT_255_2_778
10
3.8175628
20
1.2173223
40
0.5542017
50
189.4500741
51
196.6630371
0
ARC
8
DEFAULT_255_2_778
10
3.7571452
20
1.2077306
40
0.4930294
50
185.2968557
51
189.5033446
0
ARC
8
DEFAULT_255_2_778
10
5.0475415
20
1.7868565
40
1.7853683
50
168.4116894
51
176.1409382
0
ARC
8
DEFAULT_255_2_778
10
4.1429643
20
1.9777968
40
0.8608906
50
156.2585193
51
168.766988
0
ARC
8
DEFAULT_255_2_778
10
3.6504819
20
2.2022113
40
0.3198143
50
130.4670241
51
157.5384922
0
ARC
8
DEFAULT_255_2_778
10
3.5523036
20
2.305004
40
0.1780719
50
121.3265911
51
127.8990256
0
ARC
8
DEFAULT_255_2_778
10
3.5646204
20
2.2813819
40
0.2046615
50
91.8016638
51
120.8337888
0
ARC
8
DEFAULT_255_2_778
10
3.5761553
20
2.1739556
40
0.3125037
50
89.9627747
51
93.2964179
0
ARC
8
DEFAULT_255_2_778
10
3.5677149
20
1.9894095
40
0.497125
50
75.0231672
51
89.0037564
0
ARC
8
DEFAULT_255_2_778
10
3.4328963
20
1.4564874
40
1.0468117
50
67.7904778
51
75.4327618
0
ARC
8
DEFAULT_255_2_778
10
3.2622022
20
1.0104338
40
1.5243298
50
67.34192
51
68.1880036
0
ARC
8
DEFAULT_255_2_778
10
3.5546231
20
1.7508027
40
0.7286148
50
46.7117488
51
66.133891
0
ARC
8
DEFAULT_255_2_778
10
3.3825436
20
1.5461915
40
0.9956573
50
46.2028225
51
47.5770717
0
ARC
8
DEFAULT_255_2_778
10
3.2962745
20
1.4590101
40
1.1182934
50
39.3615026
51
46.1039567
0
ARC
8
DEFAULT_255_2_778
10
3.3060158
20
1.4644735
40
1.1072984
50
35.6199969
51
39.4626086
0
ARC
8
DEFAULT_255_2_778
10
3.6451975
20
1.7056759
40
0.6911022
50
32.7973972
51
35.7417689
0
ARC
8
DEFAULT_255_2_778
10
4.170197
20
2.0431517
40
0.0669953
50
29.4748201
51
33.3937698
0
ARC
8
DEFAULT_255_2_778
10
4.3736029
20
2.1636196
40
0.1694271
50
211.0955342
51
269.9663766
0
ARC
8
DEFAULT_255_2_778
10
4.3735039
20
2.1626771
40
0.1684847
50
269.9998567
51
277.4008497
0
ARC
8
DEFAULT_255_2_778
10
4.3733417
20
2.1638092
40
0.1696282
50
277.405902
51
285.8326766
0
ARC
8
DEFAULT_255_2_778
10
4.3734902
20
2.1636517
40
0.1694363
50
285.7988817
51
0.0065358
0
ARC
8
DEFAULT_255_2_778
10
4.3688317
20
2.1636447
40
0.1740948
50
0.0086634
51
0.4513469
0
ARC
8
DEFAULT_255_2_778
10
4.3701007
20
2.8991599
40
0.1728221
50
359.7534406
51
359.999939
0
ARC
8
DEFAULT_255_2_778
10
4.3734077
20
2.8990639
40
0.1695152
50
0.0323734
51
67.4476986
0
ARC
8
DEFAULT_255_2_778
10
4.3736326
20
2.8995769
40
0.1689551
50
67.4514123
51
86.7940628
0
ARC
8
DEFAULT_255_2_778
10
4.3736292
20
2.8994468
40
0.1690851
50
86.795384
51
90.0005367
0
ARC
8
DEFAULT_255_2_778
10
4.3736029
20
2.8991332
40
0.1693987
50
89.991658
51
135.1910368
0
ARC
8
DEFAULT_255_2_778
10
4.3734949
20
2.898776
40
0.1695742
50
135.0797037
51
179.994162
0
ARC
8
DEFAULT_255_2_778
10
4.3817527
20
2.8988876
40
0.177832
50
180.0303813
51
180.1518991
0
ARC
8
DEFAULT_255_2_778
10
3.6065427
20
1.8435651
40
0.9617701
50
51.601735
51
67.1432745
0
ARC
8
DEFAULT_255_2_778
10
3.0131648
20
0.4327757
40
2.492268
50
67.1709752
51
67.9832681
0
ARC
8
DEFAULT_255_2_778
10
3.3967162
20
1.3800027
40
1.4703336
50
68.0022374
51
70.1656156
0
ARC
8
DEFAULT_255_2_778
10
3.4571635
20
1.5451404
40
1.2944825
50
70.2023425
51
71.2160542
0
ARC
8
DEFAULT_255_2_778
10
3.5113596
20
1.7110054
40
1.1200024
50
71.1086727
51
77.302453
0
ARC
8
DEFAULT_255_2_778
10
3.5710557
20
1.9905599
40
0.8341694
50
77.0818938
51
89.5978473
0
ARC
8
DEFAULT_255_2_778
10
3.5748989
20
2.1976463
40
0.6270658
50
89.8161841
51
100.6705816
0
ARC
8
DEFAULT_255_2_778
10
3.5559092
20
2.2974428
40
0.5254787
50
100.6506516
51
117.8205187
0
ARC
8
DEFAULT_255_2_778
10
3.5491819
20
2.3127239
40
0.5088256
50
117.9536222
51
121.6189402
0
ARC
8
DEFAULT_255_2_778
10
3.6067768
20
2.2368248
40
0.6037238
50
122.4971935
51
154.3765586
0
ARC
8
DEFAULT_255_2_778
10
4.0502637
20
2.0088737
40
1.1022605
50
153.6620466
51
167.4343838
0
ARC
8
DEFAULT_255_2_778
10
4.899839
20
1.8097941
40
1.9748204
50
167.1593506
51
175.3006752
0
ARC
8
DEFAULT_255_2_778
10
5.6187322
20
1.7342279
40
2.6975377
50
174.9520058
51
175.8931607
0
ARC
8
DEFAULT_255_2_778
10
2.9905238
20
1.1478504
40
0.0627134
50
178.9348718
51
185.7051054
0
ARC
8
DEFAULT_255_2_778
10
3.6751253
20
1.1938999
40
0.7488315
50
184.0036734
51
191.5884122
0
ARC
8
DEFAULT_255_2_778
10
3.8019652
20
1.2186123
40
0.8780511
50
191.505482
51
200.2484807
0
ARC
8
DEFAULT_255_2_778
10
3.8056683
20
1.2193945
40
0.8817962
50
200.2128852
51
204.644053
0
ARC
8
DEFAULT_255_2_778
10
3.7273367
20
1.1785433
40
0.793578
50
204.3214957
51
226.1076477
0
ARC
8
DEFAULT_255_2_778
10
3.6727728
20
1.1281067
40
0.7194148
50
226.4543496
51
247.6166902
0
ARC
8
DEFAULT_255_2_778
10
3.7143121
20
1.2343711
40
0.8334937
50
247.7580169
51
263.0214403
0
ARC
8
DEFAULT_255_2_778
10
3.74312
20
1.4385919
40
1.0397086
50
262.8130197
51
270.1134662
0
ARC
8
DEFAULT_255_2_778
10
3.7450216
20
1.5724475
40
1.1735624
50
270.0076856
51
271.7236628
0
ARC
8
DEFAULT_255_2_778
10
2.6255782
20
130.8431446
40
130.447618
50
270.5490578
51
270.5507603
0
ARC
8
DEFAULT_255_2_778
10
3.8963804
20
1.6673523
40
1.2659115
50
269.2358353
51
276.8639736
0
ARC
8
DEFAULT_255_2_778
10
3.9756613
20
0.9358399
40
0.5302388
50
277.8054339
51
295.1874885
0
ARC
8
DEFAULT_255_2_778
10
3.5924396
20
1.7787966
40
1.4561885
50
294.716823
51
298.051244
0
ARC
8
DEFAULT_255_2_778
10
4.0098084
20
1.019464
40
0.5898918
50
296.9580044
51
316.9278899
0
ARC
8
DEFAULT_255_2_778
10
3.6470355
20
1.3515948
40
1.0817257
50
317.1993174
51
329.619106
0
ARC
8
DEFAULT_255_2_778
10
3.998038
20
1.1176866
40
0.6610696
50
331.7231181
51
344.5123384
0
ARC
8
DEFAULT_255_2_778
10
3.2529494
20
1.342624
40
1.439278
50
343.8034148
51
349.2150678
0
ARC
8
DEFAULT_255_2_778
10
2.9490598
20
1.4056534
40
1.7496015
50
349.0496461
51
351.1761337
0
ARC
8
DEFAULT_255_2_778
10
2.9648381
20
1.4026575
40
1.7335503
50
351.1939841
51
351.7436669
0
ARC
8
DEFAULT_255_2_778
10
-13.3154039
20
1.8521039
40
18.0093716
50
357.7775624
51
358.0968684
0
ARC
8
DEFAULT_255_2_778
10
-15.8850111
20
1.9373629
40
20.5803928
50
358.097214
51
358.3765815
0
ARC
8
DEFAULT_255_2_778
10
4.512745
20
1.4489011
40
0.1692907
50
0.7497089
51
45.7751443
0
ARC
8
DEFAULT_255_2_778
10
4.512654
20
1.4484633
40
0.1696681
50
45.8562468
51
90.0202357
0
ARC
8
DEFAULT_255_2_778
10
4.5125948
20
1.4480848
40
0.1700465
50
90.0002215
51
90.7660763
0
LINE
8
DEFAULT_255_2_778
10
4.3434212
20
1.4487162
11
4.3479212
21
1.3535162
0
LINE
8
DEFAULT_255_2_778
10
4.3479212
20
1.3535162
11
4.3436212
21
1.1942162
0
LINE
8
DEFAULT_255_2_778
10
3.8729212
20
0.7407162
11
3.7695212
21
0.7391162
0
LINE
8
DEFAULT_255_2_778
10
3.2662212
20
1.1622162
11
3.2602212
21
1.4527162
0
LINE
8
DEFAULT_255_2_778
10
3.2602212
20
1.4527162
11
3.2662212
21
1.9070162
0
LINE
8
DEFAULT_255_2_778
10
4.5429212
20
2.1650162
11
4.5429212
21
2.8984162
0
LINE
8
DEFAULT_255_2_778
10
4.2039212
20
2.8984162
11
4.2039212
21
2.5973162
0
LINE
8
DEFAULT_255_2_778
10
2.9281212
20
1.9274162
11
2.9278212
21
1.9181162
0
LINE
8
DEFAULT_255_2_778
10
2.9278212
20
1.9181162
11
2.9215212
21
1.4485162
0
LINE
8
DEFAULT_255_2_778
10
2.9215212
20
1.4485162
11
2.9278212
21
1.1490162
0
LINE
8
DEFAULT_255_2_778
10
3.7803212
20
0.3994162
11
3.8756212
21
0.4015162
0
LINE
8
DEFAULT_255_2_778
10
4.6871212
20
1.3543162
11
4.6820212
21
1.4511162
0
LINE
8
DEFAULT_255_2_778
10
4.5103212
20
1.6181162
11
4.5101212
21
1.6183162
0
ARC
8
DEFAULT_255_2_778
10
1.077573
20
0.5923721
40
0.7756184
50
184.1781407
51
269.7298414
0
ARC
8
DEFAULT_255_2_778
10
6.8057871
20
0.8807682
40
6.510874
50
180.2899434
51
182.8938467
0
ARC
8
DEFAULT_255_2_778
10
6.8071467
20
0.8805006
40
6.5122324
50
180.0007052
51
180.2875283
0
ARC
8
DEFAULT_255_2_778
10
6.7424551
20
0.8806835
40
6.4475407
50
177.005868
51
180.0023377
0
ARC
8
DEFAULT_255_2_778
10
1.0867486
20
1.7158058
40
0.7677198
50
138.2354042
51
179.1374958
0
ARC
8
DEFAULT_255_2_778
10
1.9888204
20
2.645146
40
1.5327962
50
185.4768872
51
195.8246147
0
ARC
8
DEFAULT_255_2_778
10
2.3052522
20
2.6792533
40
1.8510426
50
179.9265718
51
185.5929636
0
ARC
8
DEFAULT_255_2_778
10
2.6423501
20
2.6784856
40
2.1881412
50
174.418025
51
179.9177804
0
ARC
8
DEFAULT_255_2_778
10
2.9240113
20
2.6541215
40
2.4708386
50
172.7704871
51
174.4910357
0
ARC
8
DEFAULT_255_2_778
10
4.2682697
20
2.573942
40
3.814987
50
170.4587342
51
173.4327079
0
ARC
8
DEFAULT_255_2_778
10
2.2688947
20
2.9111846
40
1.7873702
50
160.8979861
51
170.4960839
0
ARC
8
DEFAULT_255_2_778
10
1.8962917
20
3.0319601
40
1.3957815
50
155.9927342
51
160.5774106
0
ARC
8
DEFAULT_255_2_778
10
1.7968553
20
3.0757789
40
1.2871191
50
152.150258
51
155.9736939
0
ARC
8
DEFAULT_255_2_778
10
1.6026025
20
3.1924216
40
1.0609476
50
94.6037994
51
152.8192008
0
ARC
8
DEFAULT_255_2_778
10
1.6347741
20
3.0049176
40
1.2505448
50
89.9706002
51
95.3835244
0
ARC
8
DEFAULT_255_2_778
10
1.6533284
20
3.2123704
40
1.0425058
50
79.9130325
51
86.8113872
0
ARC
8
DEFAULT_255_2_778
10
2.3461831
20
3.6623166
40
0.7698457
50
89.9982881
51
131.5151162
0
LINE
8
DEFAULT_255_2_778
10
2.3462061
20
4.4321624
11
2.3466158
21
4.4321623
0
ARC
8
DEFAULT_255_2_778
10
2.3426494
20
3.6570806
40
0.7751725
50
1.510719
51
89.1228789
0
ARC
8
DEFAULT_255_2_778
10
2.3288357
20
3.657124
40
0.7889804
50
359.9989381
51
1.4811187
0
ARC
8
DEFAULT_255_2_778
10
2.4200053
20
3.6569226
40
0.6978109
50
359.9539908
51
0.0153353
0
ARC
8
DEFAULT_255_2_778
10
2.3050313
20
2.6013313
40
0.7719358
50
337.116891
51
349.8625132
0
ARC
8
DEFAULT_255_2_778
10
2.0827177
20
1.5097093
40
1.2238532
50
1.026053
51
40.2924662
0
ARC
8
DEFAULT_255_2_778
10
1.8684488
20
1.4861694
40
1.4386442
50
0.5931398
51
1.8106237
0
ARC
8
DEFAULT_255_2_778
10
2.0680411
20
1.4876125
40
1.2390477
50
359.999266
51
0.621953
0
ARC
8
DEFAULT_255_2_778
10
1.9772245
20
1.5010044
40
1.3299319
50
315.7786495
51
359.4223622
0
ARC
8
DEFAULT_255_2_778
10
1.8607984
20
1.5914375
40
1.4765307
50
310.5350909
51
316.4146779
0
ARC
8
DEFAULT_255_2_778
10
1.8568177
20
1.5891284
40
1.4773698
50
270.1240301
51
310.7106217
0
ARC
8
DEFAULT_255_2_778
10
1.8591442
20
1.5777593
40
1.4659973
50
263.3712446
51
270.0340648
0
ARC
8
DEFAULT_255_2_778
10
1.077364
20
0.5832966
40
0.7667414
50
273.346041
51
318.6916759
0
LINE
8
DEFAULT_255_2_778
10
0.3040158
20
0.5358623
11
0.3032158
21
0.5520623
0
LINE
8
DEFAULT_255_2_778
10
0.3037158
20
1.2174623
11
0.3191158
21
1.7254623
0
LINE
8
DEFAULT_255_2_778
10
0.3191158
20
1.7254623
11
0.3191158
21
1.7273623
0
LINE
8
DEFAULT_255_2_778
10
0.4728158
20
2.9650623
11
0.4783158
21
3.0102623
0
LINE
8
DEFAULT_255_2_778
10
1.6354158
20
4.2554623
11
1.7113158
21
4.2532623
0
LINE
8
DEFAULT_255_2_778
10
2.3466158
20
4.4321623
11
2.3545158
21
4.4321623
0
LINE
8
DEFAULT_255_2_778
10
3.1178158
20
3.6563623
11
3.1178158
21
3.6476623
0
LINE
8
DEFAULT_255_2_778
10
3.1178158
20
3.6476623
11
3.0675158
21
2.4813623
0
LINE
8
DEFAULT_255_2_778
10
3.0675158
20
2.4813623
11
3.0649158
21
2.4654623
0
LINE
8
DEFAULT_255_2_778
10
1.6899158
20
0.1215623
11
1.6533158
21
0.0771623
0
LINE
8
DEFAULT_255_2_778
10
1.1221158
20
-0.1821377
11
1.0739158
21
-0.1837377
0
LINE
8
DEFAULT_255_2_778
10
1.0739158
20
-0.1837377
11
1.0739158
21
-0.1832377
0
ARC
8
DEFAULT_255_2_778
10
1.6707701
20
2.546681
40
0.2627872
50
198.1398286
51
266.0478234
0
ARC
8
DEFAULT_255_2_778
10
1.9200293
20
2.6296813
40
0.5255008
50
182.7244625
51
198.2784677
0
ARC
8
DEFAULT_255_2_778
10
2.2923369
20
2.6612936
40
0.8989972
50
179.9175805
51
183.6090884
0
ARC
8
DEFAULT_255_2_778
10
2.6000973
20
2.660569
40
1.2067585
50
176.341623
51
179.9041986
0
ARC
8
DEFAULT_255_2_778
10
3.0290308
20
2.6337005
40
1.6365324
50
173.5301155
51
176.3610652
0
ARC
8
DEFAULT_255_2_778
10
3.381532
20
2.5958459
40
1.9910552
50
172.7585938
51
173.5907376
0
ARC
8
DEFAULT_255_2_778
10
7.2626512
20
2.17591
40
5.8940868
50
172.6551265
51
172.9872659
0
ARC
8
DEFAULT_255_2_778
10
6.1983535
20
2.3126151
40
4.8210455
50
172.5187328
51
172.6494457
0
ARC
8
DEFAULT_255_2_778
10
3.853231
20
2.6343202
40
2.4540371
50
169.421294
51
172.83689
0
ARC
8
DEFAULT_255_2_778
10
2.107858
20
2.9682899
40
0.6770625
50
159.6237093
51
170.0870719
0
ARC
8
DEFAULT_255_2_778
10
1.6274271
20
3.1563257
40
0.1614734
50
119.0181026
51
162.8157562
0
ARC
8
DEFAULT_255_2_778
10
1.6285196
20
3.1179889
40
0.1963219
50
87.5712046
51
113.862593
0
ARC
8
DEFAULT_255_2_778
10
1.6361875
20
2.8629414
40
0.4511934
50
87.0055193
51
89.9172356
0
ARC
8
DEFAULT_255_2_778
10
1.6222281
20
3.0423209
40
0.2737822
50
51.1014863
51
82.1211641
0
ARC
8
DEFAULT_255_2_778
10
1.4340151
20
2.7557939
40
0.6158703
50
50.764618
51
54.2143919
0
ARC
8
DEFAULT_255_2_778
10
2.0214794
20
3.4004249
40
0.2593546
50
220.2589763
51
221.1854665
0
ARC
8
DEFAULT_255_2_778
10
2.0491526
20
3.4246418
40
0.2961277
50
221.1859267
51
221.9910506
0
ARC
8
DEFAULT_255_2_778
10
2.0785782
20
3.4510909
40
0.3356931
50
221.9863007
51
222.6900733
0
ARC
8
DEFAULT_255_2_778
10
2.1153274
20
3.4849437
40
0.3856582
50
222.6849808
51
223.2912381
0
ARC
8
DEFAULT_255_2_778
10
2.158985
20
3.5261252
40
0.4456739
50
223.2962193
51
223.8147886
0
ARC
8
DEFAULT_255_2_778
10
2.2040377
20
3.5693811
40
0.5081306
50
223.8171954
51
224.2662738
0
ARC
8
DEFAULT_255_2_778
10
2.2635139
20
3.6274253
40
0.5912362
50
224.2712783
51
224.6519474
0
ARC
8
DEFAULT_255_2_778
10
2.3098426
20
3.6732473
40
0.6563975
50
224.6552236
51
224.9930696
0
ARC
8
DEFAULT_255_2_778
10
2.3678737
20
3.7311383
40
0.7383668
50
224.9861552
51
225.281809
0
ARC
8
DEFAULT_255_2_778
10
2.4877424
20
3.8521446
40
0.9086931
50
225.2797094
51
225.5159895
0
ARC
8
DEFAULT_255_2_778
10
2.6176346
20
3.9846273
40
1.0942293
50
225.5244108
51
225.8146553
0
ARC
8
DEFAULT_255_2_778
10
0.2796268
20
1.5167139
40
2.3054436
50
44.1283968
51
46.8965697
0
ARC
8
DEFAULT_255_2_778
10
1.3294926
20
2.5516956
40
0.8313296
50
41.6800313
51
43.3080836
0
ARC
8
DEFAULT_255_2_778
10
1.4912556
20
2.6904495
40
0.618259
50
29.1963795
51
42.0448331
0
ARC
8
DEFAULT_255_2_778
10
1.5524266
20
2.7277433
40
0.5466742
50
22.5081947
51
28.9116929
0
ARC
8
DEFAULT_255_2_778
10
1.0790287
20
2.5178322
40
1.0644439
50
15.3527113
51
23.191653
0
ARC
8
DEFAULT_255_2_778
10
1.4430666
20
2.6228481
40
0.6856104
50
6.2750936
51
14.9444279
0
ARC
8
DEFAULT_255_2_778
10
1.3130709
20
2.6080651
40
0.8164431
50
4.260436
51
6.3091746
0
ARC
8
DEFAULT_255_2_778
10
-5.7815964
20
1.7008212
40
7.9678605
50
6.2663594
51
6.9772489
0
ARC
8
DEFAULT_255_2_778
10
2.3049715
20
2.6019786
40
0.1692631
50
190.7115065
51
269.9790207
0
ARC
8
DEFAULT_255_2_778
10
2.3049093
20
2.6044606
40
0.1717451
50
270.0000774
51
270.3497715
0
ARC
8
DEFAULT_255_2_778
10
2.3051296
20
2.6019397
40
0.169223
50
270.2804118
51
349.9533344
0
ARC
8
DEFAULT_255_2_778
10
-273.7374656
20
14.2351415
40
276.4553385
50
357.5821658
51
357.657334
0
ARC
8
DEFAULT_255_2_778
10
-253.6101403
20
13.415908
40
256.3113481
50
357.6564013
51
357.8185544
0
ARC
8
DEFAULT_255_2_778
10
2.3433958
20
3.6603608
40
0.1720636
50
359.7529046
51
359.9999344
0
ARC
8
DEFAULT_255_2_778
10
2.3461321
20
3.6603967
40
0.1693272
50
359.9877714
51
89.5514328
0
ARC
8
DEFAULT_255_2_778
10
2.3470386
20
3.6995197
40
0.1301997
50
89.8155381
51
90.0615303
0
ARC
8
DEFAULT_255_2_778
10
2.3466056
20
3.6596674
40
0.1700524
50
89.9012261
51
179.5783941
0
ARC
8
DEFAULT_255_2_778
10
1.53782
20
2.8500091
40
0.8184718
50
39.0927106
51
77.1137984
0
ARC
8
DEFAULT_255_2_778
10
1.6515361
20
3.187903
40
0.4650839
50
81.4910478
51
86.7062251
0
ARC
8
DEFAULT_255_2_778
10
1.6348687
20
2.8529724
40
0.8004232
50
86.8926044
51
89.1915449
0
ARC
8
DEFAULT_255_2_778
10
1.6357159
20
2.8976018
40
0.7557863
50
89.2080251
51
89.9985315
0
ARC
8
DEFAULT_255_2_778
10
1.6295416
20
3.0634447
40
0.5899761
50
89.3984889
51
105.812409
0
ARC
8
DEFAULT_255_2_778
10
1.5868149
20
3.2171306
40
0.4304641
50
105.914602
51
137.1299543
0
ARC
8
DEFAULT_255_2_778
10
1.7944483
20
3.0626566
40
0.6883044
50
139.4652954
51
168.2800489
0
ARC
8
DEFAULT_255_2_778
10
2.7638369
20
2.8066423
40
1.6903424
50
166.4572662
51
172.3172794
0
ARC
8
DEFAULT_255_2_778
10
6.2154631
20
2.3219476
40
5.1758173
50
172.108
51
173.1717519
0
ARC
8
DEFAULT_255_2_778
10
2.8798294
20
2.6576032
40
1.824385
50
172.693645
51
176.1116467
0
ARC
8
DEFAULT_255_2_778
10
2.5879066
20
2.6772958
40
1.5317987
50
176.1060808
51
179.9425414
0
ARC
8
DEFAULT_255_2_778
10
2.1377727
20
2.6678098
40
1.0817203
50
179.4161805
51
193.5506726
0
ARC
8
DEFAULT_255_2_778
10
1.7075127
20
2.5578804
40
0.6377092
50
193.0064499
51
221.1815436
0
ARC
8
DEFAULT_255_2_778
10
1.654665
20
2.5326497
40
0.5815366
50
222.7392253
51
256.0774636
0
ARC
8
DEFAULT_255_2_778
10
1.7242708
20
2.7500643
40
0.8094553
50
254.9980385
51
261.2087477
0
ARC
8
DEFAULT_255_2_778
10
1.1028753
20
-1.3540211
40
3.341411
50
76.292074
51
81.434277
0
ARC
8
DEFAULT_255_2_778
10
1.5973303
20
0.6453106
40
1.2818723
50
65.8757703
51
76.5863777
0
ARC
8
DEFAULT_255_2_778
10
1.9314762
20
1.3697927
40
0.4841755
50
40.7797438
51
66.9236202
0
ARC
8
DEFAULT_255_2_778
10
2.0606141
20
1.4953644
40
0.3045608
50
359.3893932
51
38.7589793
0
ARC
8
DEFAULT_255_2_778
10
2.0589758
20
1.4890081
40
0.3061977
50
0.003633
51
0.5820642
0
ARC
8
DEFAULT_255_2_778
10
2.0511958
20
1.4892052
40
0.3139777
50
353.0942004
51
359.9675774
0
ARC
8
DEFAULT_255_2_778
10
1.9552582
20
1.5123675
40
0.4121636
50
313.7522673
51
351.5010594
0
ARC
8
DEFAULT_255_2_778
10
1.8628769
20
1.5897449
40
0.532106
50
310.5149714
51
315.1759811
0
ARC
8
DEFAULT_255_2_778
10
1.8569775
20
1.5948679
40
0.5398344
50
270.0109764
51
310.6377481
0
ARC
8
DEFAULT_255_2_778
10
1.8570869
20
1.5940633
40
0.5390298
50
264.4266196
51
269.9993672
0
ARC
8
DEFAULT_255_2_778
10
1.8571735
20
1.5949115
40
0.5398824
50
261.1762286
51
264.4262145
0
ARC
8
DEFAULT_255_2_778
10
1.9004357
20
1.8299686
40
0.7788225
50
250.4998756
51
260.683808
0
ARC
8
DEFAULT_255_2_778
10
2.1967246
20
2.1128416
40
1.1592103
50
238.6242697
51
241.323279
0
ARC
8
DEFAULT_255_2_778
10
2.2474283
20
2.2005796
40
1.2605196
50
233.6955046
51
238.7329602
0
ARC
8
DEFAULT_255_2_778
10
2.140498
20
2.0518717
40
1.0773694
50
232.6598943
51
233.5958865
0
ARC
8
DEFAULT_255_2_778
10
1.8753313
20
1.726293
40
0.657818
50
217.458296
51
233.8220909
0
ARC
8
DEFAULT_255_2_778
10
1.7454623
20
1.5886743
40
0.4720019
50
192.6923808
51
213.7829053
0
ARC
8
DEFAULT_255_2_778
10
2.216951
20
1.7147835
40
0.9598742
50
185.7505785
51
193.8524783
0
ARC
8
DEFAULT_255_2_778
10
2.3914048
20
1.7366788
40
1.135652
50
184.6294593
51
185.9677849
0
ARC
8
DEFAULT_255_2_778
10
1.088875
20
1.7166516
40
0.1721948
50
359.3235508
51
359.9995809
0
ARC
8
DEFAULT_255_2_778
10
1.0912152
20
1.7162843
40
0.169855
50
0.1234925
51
89.1085597
0
ARC
8
DEFAULT_255_2_778
10
1.090863
20
1.7175442
40
0.1686011
50
88.9822262
51
90.0033786
0
ARC
8
DEFAULT_255_2_778
10
1.090872
20
1.7171226
40
0.1690228
50
90.006439
51
134.1893495
0
ARC
8
DEFAULT_255_2_778
10
1.0911781
20
1.71656
40
0.1696397
50
134.1310287
51
179.1357513
0
ARC
8
DEFAULT_255_2_778
10
6.1250804
20
0.8996421
40
5.2274017
50
176.8738212
51
178.6066157
0
ARC
8
DEFAULT_255_2_778
10
6.7273287
20
0.8841078
40
5.8298498
50
178.5979175
51
180.007521
0
ARC
8
DEFAULT_255_2_778
10
6.9452421
20
0.8834126
40
6.0477633
50
180.0006641
51
181.0312655
0
ARC
8
DEFAULT_255_2_778
10
6.7899271
20
0.8805275
40
5.8924213
50
181.0303977
51
181.6103678
0
ARC
8
DEFAULT_255_2_778
10
6.4222401
20
0.8700482
40
5.5245852
50
181.6088923
51
182.1305197
0
ARC
8
DEFAULT_255_2_778
10
5.8786375
20
0.8498046
40
4.9806059
50
182.1302827
51
182.5282533
0
ARC
8
DEFAULT_255_2_778
10
5.1425636
20
0.8169316
40
4.2437984
50
182.5232396
51
182.9898196
0
ARC
8
DEFAULT_255_2_778
10
4.2218985
20
0.7690609
40
3.3218895
50
182.9935277
51
183.0462367
0
ARC
8
DEFAULT_255_2_778
10
4.6103833
20
0.7892978
40
3.7109009
50
183.0394985
51
183.0830378
0
ARC
8
DEFAULT_255_2_778
10
-2.2863971
20
0.4118094
40
3.1962056
50
2.9898191
51
3.1907951
0
ARC
8
DEFAULT_255_2_778
10
1.0748584
20
0.5894152
40
0.1697507
50
183.6804245
51
269.9255997
0
ARC
8
DEFAULT_255_2_778
10
1.0746288
20
0.5917441
40
0.1720793
50
270.0030412
51
273.6747292
0
ARC
8
DEFAULT_255_2_778
10
1.0747612
20
0.5894193
40
0.1697507
50
273.6804245
51
359.9255997
0
ARC
8
DEFAULT_255_2_778
10
1.0724324
20
0.5891898
40
0.1720793
50
0.0030412
51
3.6747292
0
ARC
8
DEFAULT_255_2_778
10
1.9402691
20
1.9955375
40
1.2875169
50
236.8789682
51
260.0932364
0
ARC
8
DEFAULT_255_2_778
10
1.8602073
20
1.5720991
40
0.8566393
50
260.4957108
51
265.1916
0
ARC
8
DEFAULT_255_2_778
10
1.8600996
20
1.5709749
40
0.8555099
50
265.1924768
51
269.9999229
0
ARC
8
DEFAULT_255_2_778
10
1.8576064
20
1.5888264
40
0.8733651
50
270.163485
51
310.832649
0
ARC
8
DEFAULT_255_2_778
10
1.9287829
20
1.5287886
40
0.7815365
50
309.7623941
51
345.4061812
0
ARC
8
DEFAULT_255_2_778
10
2.0492239
20
1.4885017
40
0.6548875
50
346.1621297
51
359.9235252
0
ARC
8
DEFAULT_255_2_778
10
2.0686296
20
1.487627
40
0.6354811
50
0.000051
51
0.7385962
0
ARC
8
DEFAULT_255_2_778
10
2.0013333
20
1.4938689
40
0.7027272
50
0.1589715
51
17.4292391
0
ARC
8
DEFAULT_255_2_778
10
2.0443861
20
1.4904859
40
0.6628604
50
18.8230191
51
60.5959854
0
ARC
8
DEFAULT_255_2_778
10
1.7186823
20
0.9687293
40
1.2776108
50
59.3589307
51
73.1736888
0
ARC
8
DEFAULT_255_2_778
10
1.4454002
20
0.1205286
40
2.1686641
50
72.7495898
51
78.3758238
0
ARC
8
DEFAULT_255_2_778
10
1.1928386
20
-1.06994
40
3.3856138
50
78.2486855
51
80.3577616
0
ARC
8
DEFAULT_255_2_778
10
0.4738693
20
-5.3216822
40
7.6977158
50
80.3825901
51
81.1951269
0
LINE
8
DEFAULT_255_2_778
10
1.4063578
20
2.8468187
11
1.4126578
21
2.8955187
0
LINE
8
DEFAULT_255_2_778
10
2.1386578
20
2.5705187
11
2.1386578
21
2.5705187
0
LINE
8
DEFAULT_255_2_778
10
2.1765578
20
3.6609187
11
2.1730578
21
3.3661187
0
LINE
8
DEFAULT_255_2_778
10
1.0763578
20
2.9373187
11
1.0702578
21
2.8896187
0
LINE
8
DEFAULT_255_2_778
10
1.2594578
20
1.6450187
11
1.2610578
21
1.7146187
0
LINE
8
DEFAULT_255_2_778
10
0.9215578
20
1.7191187
11
0.9054578
21
1.1847187
0
LINE
8
DEFAULT_255_2_778
10
1.2441578
20
0.6002187
11
1.2367578
21
0.9172187
0
LINE
8
DEFAULT_255_2_778
10
1.6521578
20
2.2853187
11
1.6526578
21
2.2845187
0
ARC
8
DEFAULT_255_2_778
10
6.934637
20
1.1941731
40
1.2193016
50
249.2142652
51
269.4470333
0
ARC
8
DEFAULT_255_2_778
10
7.0461799
20
1.5419239
40
1.5841178
50
248.7784912
51
249.9060028
0
ARC
8
DEFAULT_255_2_778
10
6.8166667
20
0.9468548
40
0.9463248
50
227.9224067
51
248.6906707
0
ARC
8
DEFAULT_255_2_778
10
6.8832502
20
1.0272315
40
1.0506127
50
224.8234779
51
228.1646825
0
ARC
8
DEFAULT_255_2_778
10
5.8503569
20
0.9901751
40
0.7601031
50
278.1390757
51
292.241911
0
ARC
8
DEFAULT_255_2_778
10
5.0289092
20
0.9001374
40
0.7902094
50
269.9681194
51
278.1087036
0
ARC
8
DEFAULT_255_2_778
10
5.0319064
20
0.8860791
40
0.7761584
50
188.3975509
51
269.7462924
0
ARC
8
DEFAULT_255_2_778
10
5.0290225
20
0.8852316
40
0.7731818
50
185.8911422
51
188.3666354
0
ARC
8
DEFAULT_255_2_778
10
5.0234743
20
0.8847142
40
0.7676097
50
180.0041772
51
185.8952263
0
ARC
8
DEFAULT_255_2_778
10
5.0216052
20
0.8840079
40
0.7657409
50
143.1604097
51
179.9513409
0
ARC
8
DEFAULT_255_2_778
10
5.026533
20
0.8847842
40
0.7692275
50
120.7987771
51
143.4267591
0
ARC
8
DEFAULT_255_2_778
10
5.1466392
20
2.2379469
40
0.7709695
50
180.0013808
51
228.1308401
0
ARC
8
DEFAULT_255_2_778
10
5.5132546
20
2.2391208
40
1.1375857
50
180.012012
51
180.0600588
0
ARC
8
DEFAULT_255_2_778
10
5.1436297
20
2.2389473
40
0.7679607
50
144.3143055
51
180.0048538
0
ARC
8
DEFAULT_255_2_778
10
4.939326
20
3.3361362
40
0.772926
50
188.2349235
51
237.1332969
0
ARC
8
DEFAULT_255_2_778
10
4.9309768
20
3.3371649
40
0.7648134
50
184.8081263
51
188.4007768
0
ARC
8
DEFAULT_255_2_778
10
4.9302216
20
3.3371023
40
0.7640555
50
179.9997822
51
184.8081993
0
ARC
8
DEFAULT_255_2_778
10
4.930775
20
3.3370871
40
0.7646089
50
143.1323741
51
179.9986444
0
ARC
8
DEFAULT_255_2_778
10
4.9344493
20
3.3409182
40
0.7652682
50
98.0056683
51
143.5268976
0
ARC
8
DEFAULT_255_2_778
10
5.721286
20
-1.9566754
40
6.1209564
50
97.802235
51
98.3928898
0
ARC
8
DEFAULT_255_2_778
10
5.7785892
20
-2.3731599
40
6.5413644
50
97.2667285
51
97.8042782
0
ARC
8
DEFAULT_255_2_778
10
5.8060421
20
-2.5877517
40
6.7577051
50
96.685988
51
97.2674827
0
ARC
8
DEFAULT_255_2_778
10
5.808363
20
-2.6046015
40
6.7747106
50
95.0788278
51
96.6888915
0
ARC
8
DEFAULT_255_2_778
10
5.7571253
20
-1.9961486
40
6.1641112
50
92.4207375
51
95.1051101
0
ARC
8
DEFAULT_255_2_778
10
5.7137052
20
-0.9869094
40
5.1539387
50
90.0381939
51
92.412357
0
ARC
8
DEFAULT_255_2_778
10
5.7226289
20
0.2413656
40
3.9256822
50
84.4266942
51
90.1803861
0
ARC
8
DEFAULT_255_2_778
10
5.8544515
20
1.5506312
40
2.6098063
50
76.249182
51
84.5154895
0
ARC
8
DEFAULT_255_2_778
10
6.0739026
20
2.4315652
40
1.7019617
50
64.0435086
51
76.3758812
0
ARC
8
DEFAULT_255_2_778
10
6.3297644
20
2.9412707
40
1.1317056
50
38.5069243
51
64.395878
0
ARC
8
DEFAULT_255_2_778
10
6.3808642
20
2.9937613
40
1.0590775
50
30.396107
51
38.0059268
0
ARC
8
DEFAULT_255_2_778
10
6.4059548
20
3.0088051
40
1.0298241
50
28.9358573
51
30.3804886
0
ARC
8
DEFAULT_255_2_778
10
6.3982999
20
3.0045882
40
1.0385637
50
21.3823604
51
28.9351271
0
ARC
8
DEFAULT_255_2_778
10
6.4156832
20
3.0111273
40
1.0199928
50
11.481309
51
21.3963352
0
ARC
8
DEFAULT_255_2_778
10
6.4210976
20
3.0127448
40
1.0143649
50
0.347853
51
11.4526492
0
ARC
8
DEFAULT_255_2_778
10
6.3940766
20
3.0121034
40
1.0413895
50
0.0012928
51
0.3741152
0
ARC
8
DEFAULT_255_2_778
10
6.3591625
20
3.0135145
40
1.0763045
50
349.4010062
51
359.9261322
0
ARC
8
DEFAULT_255_2_778
10
6.2165987
20
3.0406668
40
1.2214302
50
340.0592479
51
349.3791157
0
ARC
8
DEFAULT_255_2_778
10
5.993956
20
3.1215016
40
1.4582932
50
331.9985794
51
340.0570283
0
ARC
8
DEFAULT_255_2_778
10
5.713056
20
3.269635
40
1.7758579
50
325.8652588
51
332.0336953
0
ARC
8
DEFAULT_255_2_778
10
4.9463362
20
1.5965906
40
2.336714
50
6.808927
51
16.8295365
0
ARC
8
DEFAULT_255_2_778
10
7.2749298
20
1.1074028
40
0.7662257
50
72.8422109
51
90.034413
0
ARC
8
DEFAULT_255_2_778
10
7.2740352
20
1.1020455
40
0.7716088
50
29.2334016
51
72.8960975
0
ARC
8
DEFAULT_255_2_778
10
7.2732051
20
1.0997478
40
0.7734569
50
0.0568981
51
29.3518951
0
ARC
8
DEFAULT_255_2_778
10
7.2800406
20
1.1005619
40
0.766621
50
350.1855247
51
359.9965621
0
ARC
8
DEFAULT_255_2_778
10
7.2698571
20
1.1023781
40
0.776965
50
342.8235491
51
350.1815612
0
ARC
8
DEFAULT_255_2_778
10
6.379712
20
1.3639446
40
1.7047036
50
331.8358227
51
343.2595817
0
ARC
8
DEFAULT_255_2_778
10
6.9128912
20
1.0735423
40
1.0975923
50
295.1161578
51
332.0633076
0
ARC
8
DEFAULT_255_2_778
10
6.9241011
20
1.0135971
40
1.0386694
50
269.9320642
51
295.959852
0
LINE
8
DEFAULT_255_2_778
10
5.9579696
20
0.2377283
11
5.1403696
21
0.1178283
0
LINE
8
DEFAULT_255_2_778
10
4.6326696
20
1.5455283
11
4.6320696
21
1.6638283
0
LINE
8
DEFAULT_255_2_778
10
7.2665696
20
1.8736283
11
7.2744696
21
1.8736283
0
LINE
8
DEFAULT_255_2_778
10
6.9228696
20
-0.0250717
11
6.9228696
21
-0.0250717
0
ARC
8
DEFAULT_255_2_778
10
7.2741549
20
1.1020261
40
0.1685909
50
72.6588054
51
88.6472308
0
ARC
8
DEFAULT_255_2_778
10
7.2741101
20
1.1011335
40
0.1694842
50
88.6392104
51
89.9970055
0
ARC
8
DEFAULT_255_2_778
10
7.2741203
20
1.1012699
40
0.1693477
50
90.0004593
51
117.8128018
0
ARC
8
DEFAULT_255_2_778
10
7.2743961
20
1.1009601
40
0.1697505
50
117.846348
51
162.8362692
0
ARC
8
DEFAULT_255_2_778
10
6.216775
20
1.4175277
40
0.9342396
50
336.3484263
51
343.4273678
0
ARC
8
DEFAULT_255_2_778
10
6.7806162
20
1.1656057
40
0.3167283
50
321.741706
51
337.1738621
0
ARC
8
DEFAULT_255_2_778
10
6.9237817
20
1.0559744
40
0.1364503
50
290.3450003
51
320.6651472
0
ARC
8
DEFAULT_255_2_778
10
7.0593741
20
0.7313423
40
0.2155445
50
114.1404824
51
115.5219395
0
ARC
8
DEFAULT_255_2_778
10
6.9238824
20
1.0180181
40
0.1015427
50
268.873682
51
294.8189754
0
ARC
8
DEFAULT_255_2_778
10
6.9308185
20
1.167796
40
0.2514597
50
250.2126595
51
267.9643736
0
ARC
8
DEFAULT_255_2_778
10
7.0387969
20
1.5195805
40
0.619274
50
248.5867895
51
251.8307636
0
ARC
8
DEFAULT_255_2_778
10
6.885663
20
1.0347097
40
0.1171478
50
214.427179
51
231.4802657
0
ARC
8
DEFAULT_255_2_778
10
7.0643627
20
1.1770042
40
0.3453817
50
214.2257156
51
217.1391195
0
ARC
8
DEFAULT_255_2_778
10
7.0646473
20
1.178283
40
0.3463377
50
207.4183895
51
214.3741592
0
ARC
8
DEFAULT_255_2_778
10
6.9840618
20
1.1353972
40
0.2550582
50
205.1614529
51
207.2027489
0
ARC
8
DEFAULT_255_2_778
10
6.8994424
20
1.0921136
40
0.1600971
50
196.6920867
51
204.0165613
0
ARC
8
DEFAULT_255_2_778
10
7.0948196
20
1.1541421
40
0.3650727
50
194.7487488
51
197.2095123
0
ARC
8
DEFAULT_255_2_778
10
7.6259444
20
1.2867915
40
0.9124942
50
189.8265242
51
194.313271
0
ARC
8
DEFAULT_255_2_778
10
9.0476149
20
1.5372237
40
2.356051
50
186.2067661
51
189.9269065
0
ARC
8
DEFAULT_255_2_778
10
9.0569184
20
1.5480764
40
2.3664936
50
183.2035598
51
186.4436302
0
ARC
8
DEFAULT_255_2_778
10
8.0411219
20
1.4880078
40
1.3489315
50
181.4210945
51
183.0672828
0
ARC
8
DEFAULT_255_2_778
10
3.0344415
20
1.3707241
40
3.6591241
50
1.3127519
51
5.6491826
0
ARC
8
DEFAULT_255_2_778
10
4.5296508
20
1.522555
40
2.1562346
50
5.5453034
51
12.0988872
0
ARC
8
DEFAULT_255_2_778
10
5.4661758
20
1.7275855
40
1.1975452
50
11.8988486
51
22.5151288
0
ARC
8
DEFAULT_255_2_778
10
5.965117
20
1.9387333
40
0.6557919
50
22.1660387
51
41.317134
0
ARC
8
DEFAULT_255_2_778
10
6.0701735
20
2.0213411
40
0.522399
50
42.1196839
51
42.8109752
0
ARC
8
DEFAULT_255_2_778
10
6.001754
20
3.0530064
40
0.81354
50
303.7222779
51
319.9062505
0
ARC
8
DEFAULT_255_2_778
10
6.687222
20
2.464907
40
0.089992
50
133.6151976
51
134.5361419
0
ARC
8
DEFAULT_255_2_778
10
6.6182893
20
2.5375969
40
0.010188
50
312.2888083
51
334.768649
0
ARC
8
DEFAULT_255_2_778
10
5.5881738
20
3.3451105
40
1.3188332
50
322.0054181
51
330.9803559
0
ARC
8
DEFAULT_255_2_778
10
6.0569176
20
3.0885053
40
0.7844627
50
330.7610399
51
344.8641402
0
ARC
8
DEFAULT_255_2_778
10
6.3171064
20
3.0157252
40
0.5143017
50
345.1223473
51
359.6480418
0
ARC
8
DEFAULT_255_2_778
10
6.4180878
20
3.0144001
40
0.4133147
50
359.7457426
51
30.5290916
0
ARC
8
DEFAULT_255_2_778
10
6.3515924
20
2.9630799
40
0.4967709
50
31.7318749
51
61.4097437
0
ARC
8
DEFAULT_255_2_778
10
6.1215994
20
2.568285
40
0.9535766
50
60.6272614
51
74.1170954
0
ARC
8
DEFAULT_255_2_778
10
5.8998538
20
1.8069173
40
1.7465703
50
73.9558666
51
83.0074259
0
ARC
8
DEFAULT_255_2_778
10
5.7473075
20
0.6336048
40
2.9297392
50
82.8397907
51
88.5839114
0
ARC
8
DEFAULT_255_2_778
10
5.7115684
20
-0.3210627
40
3.8850173
50
88.4049374
51
90.0173218
0
ARC
8
DEFAULT_255_2_778
10
5.7162019
20
-1.1683994
40
4.7323574
50
90.0703186
51
93.1823616
0
ARC
8
DEFAULT_255_2_778
10
5.7628194
20
-2.0788169
40
5.6439605
50
93.1418016
51
94.9118408
0
ARC
8
DEFAULT_255_2_778
10
5.7973928
20
-2.4952766
40
6.0618512
50
94.9003844
51
95.8738289
0
ARC
8
DEFAULT_255_2_778
10
5.8102715
20
-2.6224844
40
6.1897092
50
95.8719116
51
96.74097
0
ARC
8
DEFAULT_255_2_778
10
5.8042871
20
-2.5721186
40
6.138989
50
96.7406806
51
97.1981538
0
ARC
8
DEFAULT_255_2_778
10
5.7835563
20
-2.4083381
40
5.9739017
50
97.1977174
51
97.682176
0
ARC
8
DEFAULT_255_2_778
10
5.7464669
20
-2.133738
40
5.6968081
50
97.6816877
51
98.0641752
0
ARC
8
DEFAULT_255_2_778
10
5.7009304
20
-1.8126355
40
5.3724928
50
98.063735
51
98.4268987
0
ARC
8
DEFAULT_255_2_778
10
4.9383773
20
3.3344303
40
0.1692464
50
98.4164267
51
179.9022579
0
ARC
8
DEFAULT_255_2_778
10
4.9395826
20
3.3347613
40
0.1704515
50
180.0142198
51
188.5044117
0
ARC
8
DEFAULT_255_2_778
10
4.9366645
20
3.3321937
40
0.1671991
50
187.782078
51
270.1259998
0
ARC
8
DEFAULT_255_2_778
10
4.9369857
20
3.3361254
40
0.1711304
50
270.0155713
51
278.6777323
0
ARC
8
DEFAULT_255_2_778
10
5.1474701
20
2.2373611
40
0.169393
50
89.988112
51
134.9932785
0
ARC
8
DEFAULT_255_2_778
10
5.1475134
20
2.2373828
40
0.1694081
50
135.0088329
51
179.9759275
0
ARC
8
DEFAULT_255_2_778
10
5.1478817
20
2.2373773
40
0.1697765
50
179.9741017
51
224.8918514
0
ARC
8
DEFAULT_255_2_778
10
5.147534
20
2.2374012
40
0.1695472
50
224.9805114
51
269.9902923
0
ARC
8
DEFAULT_255_2_778
10
5.0275335
20
0.8817012
40
0.1694934
50
98.2182969
51
158.3424997
0
ARC
8
DEFAULT_255_2_778
10
5.0276129
20
0.8815235
40
0.1696328
50
158.2965978
51
177.6659451
0
ARC
8
DEFAULT_255_2_778
10
5.0281655
20
0.8814958
40
0.170186
50
177.6642193
51
179.9975856
0
ARC
8
DEFAULT_255_2_778
10
5.0277191
20
0.8814469
40
0.1697395
50
179.9810656
51
218.2965494
0
ARC
8
DEFAULT_255_2_778
10
5.0277622
20
0.8814118
40
0.1697515
50
218.278226
51
269.9583967
0
ARC
8
DEFAULT_255_2_778
10
5.0276304
20
0.8809175
40
0.1692571
50
270.002888
51
278.0760278
0
ARC
8
DEFAULT_255_2_778
10
5.0284317
20
0.8752761
40
0.163559
50
278.075755
51
278.3576508
0
ARC
8
DEFAULT_255_2_778
10
5.8455007
20
1.0012017
40
0.1694291
50
278.3158568
51
359.9243487
0
ARC
8
DEFAULT_255_2_778
10
5.8440478
20
1.0009376
40
0.1708821
50
0.0135426
51
8.1470319
0
ARC
8
DEFAULT_255_2_778
10
5.8445276
20
1.0004923
40
0.170471
50
8.3180421
51
89.9963731
0
ARC
8
DEFAULT_255_2_778
10
5.844568
20
0.9991109
40
0.1718525
50
90.0098734
51
97.8470103
0
ARC
8
DEFAULT_255_2_778
10
5.0357757
20
5.5126732
40
3.4493137
50
278.9283304
51
286.5029725
0
ARC
8
DEFAULT_255_2_778
10
6.0499766
20
1.9569288
40
0.2508634
50
90.023967
51
97.8288802
0
ARC
8
DEFAULT_255_2_778
10
6.0498867
20
1.963015
40
0.2447772
50
87.522481
51
90.0035135
0
ARC
8
DEFAULT_255_2_778
10
6.0500268
20
1.9658645
40
0.2419243
50
83.9784443
51
87.5264548
0
ARC
8
DEFAULT_255_2_778
10
6.0673568
20
2.0194402
40
0.1871869
50
39.3787424
51
87.5357047
0
ARC
8
DEFAULT_255_2_778
10
6.0010333
20
1.9701125
40
0.2697774
50
35.5211636
51
38.539865
0
ARC
8
DEFAULT_255_2_778
10
5.955899
20
1.9383396
40
0.3249724
50
28.4474455
51
35.457118
0
ARC
8
DEFAULT_255_2_778
10
5.8658049
20
1.888014
40
0.4281629
50
25.7778762
51
28.6257517
0
ARC
8
DEFAULT_255_2_778
10
5.6488232
20
1.7901715
40
0.6661314
50
15.6294235
51
25.2397911
0
ARC
8
DEFAULT_255_2_778
10
5.0933575
20
1.6298798
40
1.2442523
50
9.5246781
51
15.84651
0
ARC
8
DEFAULT_255_2_778
10
4.2404567
20
1.4836109
40
2.1096011
50
4.9450699
51
9.609442
0
ARC
8
DEFAULT_255_2_778
10
3.0595629
20
1.3774042
40
3.2952569
50
1.7085322
51
5.0149242
0
ARC
8
DEFAULT_255_2_778
10
2.2361726
20
1.3452904
40
4.1192456
50
1.3905586
51
1.8135478
0
ARC
8
DEFAULT_255_2_778
10
8.0253446
20
1.4943117
40
1.6718593
50
181.6814833
51
183.3788691
0
ARC
8
DEFAULT_255_2_778
10
9.3724311
20
1.5693232
40
3.0210285
50
183.2932621
51
184.8758787
0
ARC
8
DEFAULT_255_2_778
10
9.2126715
20
1.5505539
40
2.8602562
50
184.7732723
51
188.289179
0
ARC
8
DEFAULT_255_2_778
10
7.829136
20
1.3406601
40
1.4609376
50
187.9661083
51
194.8745484
0
ARC
8
DEFAULT_255_2_778
10
6.9400287
20
1.1047649
40
0.5410689
50
194.9006549
51
204.2248833
0
ARC
8
DEFAULT_255_2_778
10
6.9712256
20
1.1271815
40
0.5787671
50
204.9814304
51
209.2071107
0
ARC
8
DEFAULT_255_2_778
10
7.0403177
20
1.1640579
40
0.6570712
50
209.0739823
51
216.7780624
0
ARC
8
DEFAULT_255_2_778
10
6.9866341
20
1.1249193
40
0.5906404
50
216.8549639
51
219.2179274
0
ARC
8
DEFAULT_255_2_778
10
6.8496584
20
0.9995041
40
0.40536
50
217.725274
51
247.0051627
0
ARC
8
DEFAULT_255_2_778
10
7.0839829
20
1.6296408
40
1.0773951
50
248.6250632
51
249.0155075
0
ARC
8
DEFAULT_255_2_778
10
6.9633425
20
1.296294
40
0.7229849
50
248.4815664
51
259.9676526
0
ARC
8
DEFAULT_255_2_778
10
6.9241675
20
1.0946919
40
0.5176526
50
260.3501923
51
269.856018
0
ARC
8
DEFAULT_255_2_778
10
6.9244828
20
1.0169727
40
0.4399347
50
269.7895159
51
290.3326248
0
ARC
8
DEFAULT_255_2_778
10
6.9212366
20
1.0239939
40
0.4476468
50
290.4099706
51
295.6776486
0
ARC
8
DEFAULT_255_2_778
10
6.9027014
20
1.0838513
40
0.509708
50
294.6398369
51
333.216314
0
ARC
8
DEFAULT_255_2_778
10
6.4116897
20
1.3467591
40
1.0665982
50
332.4943156
51
342.6447955
0
ARC
8
DEFAULT_255_2_778
10
5.8166093
20
1.5526843
40
1.69612
50
342.00157
51
342.7690932
0
ARC
8
DEFAULT_255_2_778
10
7.2751341
20
1.1005891
40
0.1691347
50
342.6862833
51
358.222538
0
ARC
8
DEFAULT_255_2_778
10
7.2750203
20
1.1005915
40
0.1692487
50
358.2229216
51
359.9975118
0
ARC
8
DEFAULT_255_2_778
10
7.2750779
20
1.1005778
40
0.169191
50
0.0021378
51
27.8259545
0
ARC
8
DEFAULT_255_2_778
10
7.2748526
20
1.1005544
40
0.1694012
50
27.7973745
51
72.8851624
0
ARC
8
DEFAULT_255_2_778
10
5.9816351
20
3.1039124
40
0.5014212
50
313.7175105
51
319.1819651
0
ARC
8
DEFAULT_255_2_778
10
5.9542217
20
3.1297561
40
0.539049
50
311.2337606
51
313.9250385
0
ARC
8
DEFAULT_255_2_778
10
6.0663694
20
2.9971699
40
0.3654331
50
301.6099594
51
311.7125815
0
ARC
8
DEFAULT_255_2_778
10
5.9530612
20
3.269113
40
0.6580307
50
285.1869068
51
297.5981389
0
ARC
8
DEFAULT_255_2_778
10
3.5414133
20
11.0389028
40
8.7930966
50
286.9471287
51
287.0898177
0
ARC
8
DEFAULT_255_2_778
10
5.0421693
20
5.391206
40
2.9568907
50
280.2987659
51
289.2803122
0
ARC
8
DEFAULT_255_2_778
10
5.6984643
20
-1.4349285
40
4.6894087
50
90.0158899
51
91.59906
0
ARC
8
DEFAULT_255_2_778
10
5.7090086
20
-0.2654746
40
3.5199746
50
85.1298439
51
90.1928019
0
ARC
8
DEFAULT_255_2_778
10
5.8551914
20
1.3946388
40
1.8534503
50
78.2642854
51
85.275592
0
ARC
8
DEFAULT_255_2_778
10
6.0834724
20
2.4667785
40
0.75731
50
66.5441457
51
78.6757417
0
ARC
8
DEFAULT_255_2_778
10
6.3031444
20
2.9549647
40
0.2221421
50
38.0862417
51
68.401781
0
ARC
8
DEFAULT_255_2_778
10
6.385201
20
3.0286377
40
0.1123536
50
30.2001098
51
34.3249539
0
ARC
8
DEFAULT_255_2_778
10
6.4132678
20
3.0465178
40
0.0791134
50
357.4906697
51
29.2332079
0
ARC
8
DEFAULT_255_2_778
10
6.2254988
20
3.0590094
40
0.2672832
50
332.5615464
51
356.5777037
0
ARC
8
DEFAULT_255_2_778
10
5.7182942
20
3.297634
40
0.8276783
50
322.8271933
51
334.0802874
0
ARC
8
DEFAULT_255_2_778
10
5.366493
20
3.5453866
40
1.257788
50
322.2792054
51
323.517442
0
LINE
8
DEFAULT_255_2_778
10
4.9628053
20
3.166954
11
5.2279053
21
3.198454
0
LINE
8
DEFAULT_255_2_778
10
5.2279053
20
3.198454
11
5.2313053
21
2.409454
0
LINE
8
DEFAULT_255_2_778
10
5.2313053
20
2.409454
11
5.1475053
21
2.406754
0
LINE
8
DEFAULT_255_2_778
10
5.1475053
20
2.067854
11
5.2329053
21
2.069954
0
LINE
8
DEFAULT_255_2_778
10
5.2329053
20
2.069954
11
5.2366053
21
1.083554
0
LINE
8
DEFAULT_255_2_778
10
5.2366053
20
1.083554
11
5.0033053
21
1.049454
0
LINE
8
DEFAULT_255_2_778
10
5.0522053
20
0.713454
11
5.8700053
21
0.833554
0
LINE
8
DEFAULT_255_2_778
10
5.8211053
20
1.169354
11
5.5756053
21
1.132854
0
LINE
8
DEFAULT_255_2_778
10
5.5756053
20
1.132854
11
5.5711053
21
2.105154
0
LINE
8
DEFAULT_255_2_778
10
6.0156053
20
2.205454
11
6.0158053
21
2.205454
0
LINE
8
DEFAULT_255_2_778
10
7.3247053
20
1.262454
11
7.3244053
21
1.262954
0
LINE
8
DEFAULT_255_2_778
10
6.1045053
20
2.627654
11
6.0185053
21
2.600154
0
LINE
8
DEFAULT_255_2_778
10
5.5708053
20
2.481954
11
5.5676053
21
3.252654
0
LINE
8
DEFAULT_255_2_778
10
6.3614053
20
2.775854
11
6.3611053
21
2.776154
0
ARC
8
DEFAULT_255_2_778
10
12.6447562
20
1.5646272
40
1.5560639
50
254.9268014
51
270.2751699
0
ARC
8
DEFAULT_255_2_778
10
12.5904741
20
1.3584098
40
1.3428258
50
232.3527202
51
254.8750477
0
ARC
8
DEFAULT_255_2_778
10
12.63535
20
1.3967401
40
1.4006378
50
192.5149902
51
231.8569213
0
ARC
8
DEFAULT_255_2_778
10
12.6529224
20
1.4078983
40
1.4202282
50
184.770494
51
192.8008257
0
ARC
8
DEFAULT_255_2_778
10
12.6241379
20
1.4049789
40
1.3913007
50
183.758347
51
184.7492695
0
ARC
8
DEFAULT_255_2_778
10
13.8386164
20
2.0103405
40
2.6081016
50
167.2555563
51
176.2398119
0
ARC
8
DEFAULT_255_2_778
10
13.0146751
20
2.200633
40
1.7624844
50
154.2172359
51
167.3804092
0
ARC
8
DEFAULT_255_2_778
10
12.51603
20
2.4508345
40
1.204681
50
125.1404407
51
154.6168979
0
ARC
8
DEFAULT_255_2_778
10
12.4798438
20
2.4875713
40
1.1538426
50
121.5951675
51
124.7210388
0
ARC
8
DEFAULT_255_2_778
10
12.4727051
20
2.4962094
40
1.142746
50
89.3469674
51
121.5172074
0
ARC
8
DEFAULT_255_2_778
10
12.4839811
20
2.2451701
40
1.3937122
50
80.9365783
51
89.9281303
0
ARC
8
DEFAULT_255_2_778
10
13.2808558
20
3.1122848
40
0.7697967
50
89.9943738
51
138.58802
0
LINE
8
DEFAULT_255_2_778
10
13.2809314
20
3.8820816
11
13.2816293
21
3.8820812
0
ARC
8
DEFAULT_255_2_778
10
13.2809746
20
3.1091
40
0.7729815
50
1.5405659
51
89.9514718
0
ARC
8
DEFAULT_255_2_778
10
13.2715526
20
3.110002
40
0.7823767
50
359.998483
51
1.4559856
0
ARC
8
DEFAULT_255_2_778
10
13.290257
20
2.3754355
40
0.7636723
50
340.7040059
51
0.0109307
0
ARC
8
DEFAULT_255_2_778
10
13.4252022
20
1.6260706
40
0.7682532
50
2.8135616
51
40.3109821
0
ARC
8
DEFAULT_255_2_778
10
13.9752642
20
1.3172607
40
0.2139777
50
350.3742921
51
355.6635665
0
ARC
8
DEFAULT_255_2_778
10
12.0329379
20
1.5843046
40
2.1744806
50
348.9528363
51
351.9948343
0
ARC
8
DEFAULT_255_2_778
10
12.2354039
20
1.5413167
40
1.967532
50
343.2897185
51
349.0517111
0
ARC
8
DEFAULT_255_2_778
10
12.5924132
20
1.4374327
40
1.5957319
50
340.5875606
51
343.1764483
0
ARC
8
DEFAULT_255_2_778
10
12.9873029
20
1.2906365
40
1.1745235
50
330.785885
51
340.9389444
0
ARC
8
DEFAULT_255_2_778
10
12.6941226
20
1.4731191
40
1.5195633
50
324.6465346
51
330.1759018
0
ARC
8
DEFAULT_255_2_778
10
12.6644466
20
1.4941535
40
1.5559378
50
324.4845584
51
324.6471057
0
ARC
8
DEFAULT_255_2_778
10
12.4089913
20
1.6870117
40
1.8759232
50
318.2352181
51
324.2225316
0
ARC
8
DEFAULT_255_2_778
10
11.173434
20
2.7605532
40
3.5126362
50
318.4012934
51
318.597881
0
ARC
8
DEFAULT_255_2_778
10
12.9934575
20
1.146469
40
1.0799941
50
306.7757639
51
318.3324697
0
ARC
8
DEFAULT_255_2_778
10
12.9221965
20
1.2389779
40
1.1967565
50
303.6340714
51
306.8569279
0
ARC
8
DEFAULT_255_2_778
10
12.7341576
20
1.5367659
40
1.5488673
50
295.6538234
51
303.3240345
0
ARC
8
DEFAULT_255_2_778
10
12.255023
20
2.4973442
40
2.6222398
50
295.0409893
51
296.0042702
0
ARC
8
DEFAULT_255_2_778
10
12.8876304
20
1.1326608
40
1.118077
50
282.0489413
51
295.2705239
0
ARC
8
DEFAULT_255_2_778
10
12.8497356
20
1.3494929
40
1.3380678
50
271.5288582
51
281.6976844
0
ARC
8
DEFAULT_255_2_778
10
12.7745342
20
3.4959821
40
3.4858453
50
270.2892066
51
271.823164
0
LINE
8
DEFAULT_255_2_778
10
11.2358293
20
1.3137812
11
11.2361293
21
1.3137812
0
LINE
8
DEFAULT_255_2_778
10
11.2361293
20
1.3137812
11
11.2279293
21
1.6531812
0
LINE
8
DEFAULT_255_2_778
10
11.2279293
20
1.6531812
11
11.2279293
21
1.6738812
0
LINE
8
DEFAULT_255_2_778
10
11.2279293
20
1.6738812
11
11.2361293
21
2.1813812
0
LINE
8
DEFAULT_255_2_778
10
14.0539293
20
3.1099812
11
14.0539293
21
2.3755812
0
LINE
8
DEFAULT_255_2_778
10
14.1925293
20
1.6637812
11
14.1978293
21
1.5275812
0
LINE
8
DEFAULT_255_2_778
10
14.1978293
20
1.5275812
11
14.1886293
21
1.3010812
0
LINE
8
DEFAULT_255_2_778
10
12.7921293
20
0.0101812
11
12.7008293
21
0.0090812
0
LINE
8
DEFAULT_255_2_778
10
12.7008293
20
0.0090812
11
12.6513293
21
0.0082812
0
LINE
8
DEFAULT_255_2_778
10
12.6513293
20
0.0082812
11
12.6522293
21
0.0085812
0
ARC
8
DEFAULT_255_2_778
10
13.422028
20
1.6270014
40
0.1692257
50
91.0583162
51
179.9716454
0
LINE
8
DEFAULT_255_2_778
10
13.2528023
20
1.6270852
11
13.2528024
21
1.6268983
0
ARC
8
DEFAULT_255_2_778
10
14.1442317
20
1.691957
40
0.8938003
50
184.1741833
51
184.7533751
0
ARC
8
DEFAULT_255_2_778
10
3.8889526
20
0.8672051
40
9.3945931
50
4.4635361
51
4.5831689
0
ARC
8
DEFAULT_255_2_778
10
8.3017077
20
1.213011
40
4.9683094
50
4.4175416
51
4.4481286
0
ARC
8
DEFAULT_255_2_778
10
12.1057661
20
1.5014061
40
1.1533516
50
3.2543344
51
4.6891043
0
ARC
8
DEFAULT_255_2_778
10
13.213186
20
1.5648698
40
0.0441175
50
0.4266657
51
2.6115262
0
ARC
8
DEFAULT_255_2_778
10
11.8433056
20
1.6265842
40
1.4268972
50
347.5088968
51
351.0947136
0
ARC
8
DEFAULT_255_2_778
10
12.3955212
20
1.4941438
40
0.8591642
50
340.9367881
51
348.1669744
0
ARC
8
DEFAULT_255_2_778
10
12.9459931
20
1.3093312
40
0.2785658
50
336.6818099
51
339.8850913
0
ARC
8
DEFAULT_255_2_778
10
13.0701889
20
1.2550886
40
0.1430444
50
330.4300893
51
336.9424847
0
ARC
8
DEFAULT_255_2_778
10
12.7345147
20
1.4464816
40
0.5294487
50
324.6804252
51
330.3419344
0
ARC
8
DEFAULT_255_2_778
10
12.3633974
20
1.7232871
40
0.9923538
50
318.4779105
51
324.0279594
0
ARC
8
DEFAULT_255_2_778
10
10.4036859
20
3.4012247
40
3.5721667
50
318.8942021
51
319.1650228
0
ARC
8
DEFAULT_255_2_778
10
12.9032127
20
1.2513679
40
0.2763477
50
295.3656805
51
314.0353029
0
ARC
8
DEFAULT_255_2_778
10
12.2654949
20
2.4568676
40
1.6399133
50
295.2875436
51
297.4557311
0
ARC
8
DEFAULT_255_2_778
10
12.8827674
20
1.153763
40
0.1980088
50
293.9241386
51
294.857331
0
ARC
8
DEFAULT_255_2_778
10
12.8609267
20
1.2314193
40
0.278089
50
268.4217333
51
291.5483927
0
ARC
8
DEFAULT_255_2_778
10
12.7665665
20
3.9247928
40
2.9726216
50
270.3574647
51
271.6713546
0
ARC
8
DEFAULT_255_2_778
10
12.5261948
20
26.1084391
40
25.1575425
50
270.5828341
51
270.5896897
0
ARC
8
DEFAULT_255_2_778
10
12.6538624
20
1.7328699
40
0.7824821
50
270.010597
51
271.8557971
0
ARC
8
DEFAULT_255_2_778
10
12.6495955
20
1.5713717
40
0.6209995
50
257.5525027
51
270.4070387
0
ARC
8
DEFAULT_255_2_778
10
12.6110864
20
1.3992766
40
0.4446496
50
238.8484368
51
257.6181764
0
ARC
8
DEFAULT_255_2_778
10
12.5897923
20
1.3586352
40
0.3988628
50
214.3887167
51
238.4461642
0
ARC
8
DEFAULT_255_2_778
10
12.6265739
20
1.3857265
40
0.4445201
50
209.1037991
51
214.5926281
0
ARC
8
DEFAULT_255_2_778
10
12.6801578
20
1.4138376
40
0.5050137
50
196.5595907
51
208.9334924
0
ARC
8
DEFAULT_255_2_778
10
12.7273654
20
1.4293742
40
0.5546934
50
189.4996071
51
196.7080748
0
ARC
8
DEFAULT_255_2_778
10
12.6641801
20
1.4192769
40
0.4907084
50
185.3412268
51
189.5543985
0
ARC
8
DEFAULT_255_2_778
10
13.9379996
20
2.001353
40
1.7662796
50
168.3876585
51
176.2004195
0
ARC
8
DEFAULT_255_2_778
10
13.0503805
20
2.1891223
40
0.8590485
50
156.204648
51
168.7383631
0
ARC
8
DEFAULT_255_2_778
10
12.5614849
20
2.41246
40
0.3216807
50
130.5534429
51
157.4688457
0
ARC
8
DEFAULT_255_2_778
10
12.4626034
20
2.5157986
40
0.179052
50
121.4799441
51
128.0106069
0
ARC
8
DEFAULT_255_2_778
10
12.4745082
20
2.4916718
40
0.2058591
50
91.6493106
51
120.7990494
0
ARC
8
DEFAULT_255_2_778
10
12.4858092
20
2.3844369
40
0.3134823
50
89.9666564
51
93.1500274
0
ARC
8
DEFAULT_255_2_778
10
12.4773392
20
2.2009393
40
0.4970553
50
75.0231993
51
89.0025799
0
ARC
8
DEFAULT_255_2_778
10
12.3415283
20
1.6641929
40
1.0506929
50
67.8163909
51
75.4328839
0
ARC
8
DEFAULT_255_2_778
10
12.1665028
20
1.2066062
40
1.5405309
50
67.3766045
51
68.214496
0
ARC
8
DEFAULT_255_2_778
10
12.4679921
20
1.9679812
40
0.7219142
50
46.5960842
51
66.2186273
0
ARC
8
DEFAULT_255_2_778
10
12.2937382
20
1.7613805
40
0.9918706
50
46.1022739
51
47.4835567
0
ARC
8
DEFAULT_255_2_778
10
12.2013353
20
1.6683644
40
1.1229676
50
39.2903905
51
45.9957053
0
ARC
8
DEFAULT_255_2_778
10
12.1810696
20
1.6493622
40
1.1506869
50
35.6916508
51
39.383673
0
ARC
8
DEFAULT_255_2_778
10
12.39028
20
1.7991658
40
0.893374
50
33.4467654
51
35.7168158
0
ARC
8
DEFAULT_255_2_778
10
13.2882514
20
2.3899579
40
0.1815248
50
212.8243889
51
214.2486534
0
ARC
8
DEFAULT_255_2_778
10
13.2825733
20
2.3768163
40
0.1696089
50
211.6576824
51
270.094614
0
ARC
8
DEFAULT_255_2_778
10
13.2828505
20
2.3777474
40
0.1705396
50
270.0009543
51
276.6204393
0
ARC
8
DEFAULT_255_2_778
10
13.2827587
20
2.3784026
40
0.1712011
50
276.6256718
51
285.4625577
0
ARC
8
DEFAULT_255_2_778
10
13.2826414
20
2.3764603
40
0.1693614
50
285.6760207
51
359.9113694
0
ARC
8
DEFAULT_255_2_778
10
13.2825127
20
3.1102934
40
0.1694897
50
0.0354508
51
45.0275354
0
ARC
8
DEFAULT_255_2_778
10
13.2828262
20
3.1107622
40
0.1689365
50
44.9903631
51
90.0158094
0
LINE
8
DEFAULT_255_2_778
10
13.2827795
20
3.2796987
11
13.2824024
21
3.2796983
0
ARC
8
DEFAULT_255_2_778
10
13.2830043
20
3.1094951
40
0.1702042
50
90.2026264
51
179.695969
0
ARC
8
DEFAULT_255_2_778
10
12.5049411
20
2.0376217
40
0.9817057
50
51.7430683
51
66.9569824
0
ARC
8
DEFAULT_255_2_778
10
11.8643467
20
0.5017
40
2.6458468
50
67.2105981
51
67.9783233
0
ARC
8
DEFAULT_255_2_778
10
12.2995294
20
1.5762394
40
1.4865287
50
67.9986065
51
70.1470696
0
ARC
8
DEFAULT_255_2_778
10
12.3640277
20
1.7522912
40
1.2990363
50
70.185731
51
71.2001776
0
ARC
8
DEFAULT_255_2_778
10
12.4197682
20
1.9226724
40
1.1197837
50
71.0906421
51
77.2821037
0
ARC
8
DEFAULT_255_2_778
10
12.4799839
20
2.2040286
40
0.8320798
50
77.0615901
51
89.5967455
0
ARC
8
DEFAULT_255_2_778
10
12.4838089
20
2.4109415
40
0.6251496
50
89.8138283
51
100.7753132
0
ARC
8
DEFAULT_255_2_778
10
12.4650073
20
2.5092505
40
0.5250589
50
100.765454
51
117.7185749
0
ARC
8
DEFAULT_255_2_778
10
12.4586644
20
2.5237613
40
0.5092644
50
117.8461907
51
121.6680113
0
ARC
8
DEFAULT_255_2_778
10
12.5154337
20
2.4481379
40
0.6034928
50
122.4859089
51
154.4560333
0
ARC
8
DEFAULT_255_2_778
10
12.9586117
20
2.2209503
40
1.101404
50
153.7339129
51
167.4944469
0
ARC
8
DEFAULT_255_2_778
10
13.8046797
20
2.0236515
40
1.9701435
50
167.2206321
51
175.3645158
0
ARC
8
DEFAULT_255_2_778
10
14.5165438
20
1.9495435
40
2.6857179
50
175.0160225
51
175.9591838
0
ARC
8
DEFAULT_255_2_778
10
12.7218524
20
2.1162208
40
0.8846381
50
178.5375558
51
179.3067488
0
ARC
8
DEFAULT_255_2_778
10
37.1968337
20
1.7280913
40
25.3626909
50
179.0989763
51
179.1764962
0
ARC
8
DEFAULT_255_2_778
10
144.6243177
20
0.1710701
40
132.8014576
50
179.1709418
51
179.2036156
0
ARC
8
DEFAULT_255_2_778
10
429.8546449
20
-3.8085746
40
418.0595463
50
179.2015844
51
179.21628
0
LINE
8
DEFAULT_255_2_778
10
11.8342079
20
1.9096723
11
11.8341064
21
1.9022565
0
ARC
8
DEFAULT_255_2_778
10
890.5976497
20
-10.1134491
40
878.8456873
50
179.2166194
51
179.2248885
0
ARC
8
DEFAULT_255_2_778
10
960.1318556
20
-11.0608504
40
948.3863467
50
179.2244857
51
179.2282703
0
ARC
8
DEFAULT_255_2_778
10
1381.9415356
20
-16.7400787
40
1370.2342575
50
179.2283775
51
179.2298177
0
ARC
8
DEFAULT_255_2_778
10
-746.1789991
20
11.8550182
40
758.0783818
50
359.2298651
51
359.2308216
0
ARC
8
DEFAULT_255_2_778
10
12.5791181
20
1.4044214
40
0.7433964
50
183.9664976
51
191.4309766
0
ARC
8
DEFAULT_255_2_778
10
12.7085426
20
1.429355
40
0.875196
50
191.3516815
51
199.9036554
0
ARC
8
DEFAULT_255_2_778
10
12.7150171
20
1.4310404
40
0.8818579
50
199.8634047
51
204.6755535
0
ARC
8
DEFAULT_255_2_778
10
12.6360948
20
1.3898886
40
0.7929746
50
204.3543388
51
226.1012138
0
ARC
8
DEFAULT_255_2_778
10
12.5807748
20
1.3386232
40
0.7176894
50
226.4456962
51
247.5918927
0
ARC
8
DEFAULT_255_2_778
10
12.6215581
20
1.4429814
40
0.829717
50
247.7353633
51
263.0088462
0
ARC
8
DEFAULT_255_2_778
10
12.6500933
20
1.6450108
40
1.0337243
50
262.8019472
51
270.1132163
0
ARC
8
DEFAULT_255_2_778
10
12.6519586
20
1.7792698
40
1.1679813
50
270.0087019
51
271.851859
0
ARC
8
DEFAULT_255_2_778
10
11.6977095
20
124.3053384
40
123.6971162
50
270.5034952
51
270.5041062
0
ARC
8
DEFAULT_255_2_778
10
12.8048517
20
1.8732049
40
1.2603358
50
269.1439296
51
276.9872791
0
ARC
8
DEFAULT_255_2_778
10
12.8839388
20
1.1504595
40
0.5334204
50
277.9993196
51
295.1221794
0
ARC
8
DEFAULT_255_2_778
10
12.4998518
20
1.9911561
40
1.4576837
50
294.7619923
51
298.2841406
0
ARC
8
DEFAULT_255_2_778
10
12.9246169
20
1.2244629
40
0.5813542
50
297.2237723
51
317.0158924
0
ARC
8
DEFAULT_255_2_778
10
12.5416268
20
1.5752146
40
1.1006781
50
317.2517589
51
329.458917
0
ARC
8
DEFAULT_255_2_778
10
12.9029285
20
1.3306458
40
0.6657719
50
331.7866718
51
344.2849902
0
ARC
8
DEFAULT_255_2_778
10
12.5267005
20
1.4547073
40
1.0616838
50
343.3393459
51
343.4681622
0
ARC
8
DEFAULT_255_2_778
10
12.153605
20
1.5587729
40
1.4489821
50
343.7212302
51
349.0984705
0
ARC
8
DEFAULT_255_2_778
10
11.9456998
20
1.6039074
40
1.6616787
50
348.926045
51
351.1662838
0
ARC
8
DEFAULT_255_2_778
10
12.4380451
20
1.5270624
40
1.1633727
50
351.1823045
51
352.0022893
0
ARC
8
DEFAULT_255_2_778
10
13.3829544
20
1.3802843
40
0.2076966
50
355.8346593
51
358.2578387
0
ARC
8
DEFAULT_255_2_778
10
8.5075845
20
1.5743485
40
5.0869186
50
357.7424812
51
358.1125519
0
ARC
8
DEFAULT_255_2_778
10
-10.2532674
20
2.2089942
40
23.8585004
50
358.0731923
51
358.1843783
0
ARC
8
DEFAULT_255_2_778
10
-28.3012295
20
2.7863883
40
41.9156958
50
358.1771531
51
358.1889053
0
ARC
8
DEFAULT_255_2_778
10
-47.7542749
20
3.3976721
40
61.3783429
50
358.1924726
51
358.2545144
0
ARC
8
DEFAULT_255_2_778
10
-56.2578047
20
3.6590383
40
69.8858881
50
358.2526866
51
358.2706429
0
ARC
8
DEFAULT_255_2_778
10
-33.3182786
20
2.9665578
40
46.9359124
50
358.270505
51
358.2806463
0
ARC
8
DEFAULT_255_2_778
10
13.5912697
20
1.5589059
40
0.0052679
50
353.3765463
51
1.5635423
0
ARC
8
DEFAULT_255_2_778
10
13.2991532
20
1.5502207
40
0.2975135
50
1.7005413
51
4.1911867
0
ARC
8
DEFAULT_255_2_778
10
10.7773053
20
1.3878156
40
2.8245751
50
3.7380635
51
4.1801644
0
ARC
8
DEFAULT_255_2_778
10
9.1059476
20
1.2690624
40
4.500144
50
4.1369667
51
4.1803666
0
ARC
8
DEFAULT_255_2_778
10
5.7575742
20
1.0231566
40
7.8575349
50
4.1888761
51
4.4038855
0
ARC
8
DEFAULT_255_2_778
10
7.0237475
20
1.1205891
40
6.5876183
50
4.4045851
51
4.4280331
0
ARC
8
DEFAULT_255_2_778
10
13.4221141
20
1.6262506
40
0.1696139
50
0.9957692
51
45.9696656
0
ARC
8
DEFAULT_255_2_778
10
13.4221287
20
1.6257901
40
0.1699352
50
46.0811379
51
89.9700975
0
ARC
8
DEFAULT_255_2_778
10
13.4222298
20
1.6259938
40
0.1697313
50
90.0041827
51
91.0220055
0
LINE
8
DEFAULT_255_2_778
10
13.2573024
20
1.5651983
11
13.2530024
21
1.4056983
0
LINE
8
DEFAULT_255_2_778
10
12.7821024
20
0.9521983
11
12.6792024
21
0.9507983
0
LINE
8
DEFAULT_255_2_778
10
12.1756024
20
1.3735983
11
12.1703024
21
1.6643983
0
LINE
8
DEFAULT_255_2_778
10
12.1703024
20
1.6643983
11
12.1756024
21
2.1183983
0
LINE
8
DEFAULT_255_2_778
10
13.4520024
20
2.3761983
11
13.4520024
21
3.1103983
0
LINE
8
DEFAULT_255_2_778
10
13.1128024
20
3.1103983
11
13.1128024
21
2.8084983
0
LINE
8
DEFAULT_255_2_778
10
11.8309024
20
1.6656983
11
11.8375024
21
1.3529983
0
LINE
8
DEFAULT_255_2_778
10
12.6897024
20
0.6118983
11
12.7847024
21
0.6129983
0
LINE
8
DEFAULT_255_2_778
10
13.4192024
20
1.7956983
11
13.4189024
21
1.7961983
0
ARC
8
DEFAULT_255_2_778
10
15.0604885
20
0.4613735
40
0.724472
50
227.2355417
51
269.9915897
0
ARC
8
DEFAULT_255_2_778
10
15.0789157
20
0.4903855
40
0.7583081
50
211.4175348
51
227.7017609
0
ARC
8
DEFAULT_255_2_778
10
13.8093591
20
0.8794145
40
0.7738483
50
180.1637051
51
268.9280608
0
ARC
8
DEFAULT_255_2_778
10
13.8164921
20
0.8771959
40
0.780978
50
179.2439096
51
179.999446
0
ARC
8
DEFAULT_255_2_778
10
13.8147676
20
0.8722291
40
0.7793351
50
114.338558
51
178.8771101
0
ARC
8
DEFAULT_255_2_778
10
13.821139
20
3.4680038
40
0.7739575
50
180.0741968
51
245.1332092
0
ARC
8
DEFAULT_255_2_778
10
13.8201604
20
3.4660493
40
0.7729789
50
91.5400136
51
179.9294154
0
ARC
8
DEFAULT_255_2_778
10
13.8192615
20
3.4569926
40
0.782009
50
89.9984835
51
91.4563387
0
ARC
8
DEFAULT_255_2_778
10
15.1425447
20
3.7487441
40
0.7727063
50
91.12437
51
140.6194521
0
ARC
8
DEFAULT_255_2_778
10
16.0202811
20
3.7612315
40
0.775978
50
1.2235784
51
89.7414905
0
ARC
8
DEFAULT_255_2_778
10
16.0073513
20
3.766181
40
0.7888164
50
0.0007018
51
0.8440904
0
ARC
8
DEFAULT_255_2_778
10
16.0215846
20
3.7663505
40
0.774583
50
296.8709181
51
359.9881789
0
ARC
8
DEFAULT_255_2_778
10
16.0281146
20
0.6746834
40
0.7730135
50
3.7396514
51
62.7979446
0
ARC
8
DEFAULT_255_2_778
10
16.0195616
20
0.6749717
40
0.7815299
50
0.0032817
51
3.6776608
0
ARC
8
DEFAULT_255_2_778
10
16.0284262
20
0.6759248
40
0.7726658
50
273.7367104
51
359.9326456
0
ARC
8
DEFAULT_255_2_778
10
16.5337939
20
-7.0507208
40
6.9704891
50
93.7427504
51
95.0647044
0
ARC
8
DEFAULT_255_2_778
10
16.4442442
20
-6.0474037
40
5.9631839
50
95.0586851
51
96.4571097
0
ARC
8
DEFAULT_255_2_778
10
16.3380699
20
-5.0997673
40
5.0096189
50
96.4693453
51
97.3402429
0
ARC
8
DEFAULT_255_2_778
10
16.1940799
20
-4.0016542
40
3.9021092
50
97.3033345
51
98.9508322
0
ARC
8
DEFAULT_255_2_778
10
15.9500324
20
-2.4655152
40
2.3467073
50
98.9002294
51
101.0168389
0
ARC
8
DEFAULT_255_2_778
10
15.6707481
20
-1.0466316
40
0.9006065
50
100.8264732
51
104.3148869
0
ARC
8
DEFAULT_255_2_778
10
15.5340334
20
-0.4998954
40
0.3370538
50
104.7757422
51
105.8138173
0
ARC
8
DEFAULT_255_2_778
10
14.6022211
20
1.8991159
40
2.2375303
50
289.3371676
51
291.0357126
0
ARC
8
DEFAULT_255_2_778
10
14.9264602
20
0.9891736
40
1.2715655
50
288.9078935
51
289.1280236
0
ARC
8
DEFAULT_255_2_778
10
15.0307236
20
0.6654446
40
0.9315395
50
279.4248802
51
289.2933114
0
ARC
8
DEFAULT_255_2_778
10
15.060211
20
0.5080082
40
0.7714068
50
270.034998
51
279.1791504
0
LINE
8
DEFAULT_255_2_778
10
14.4317821
20
0.0951016
11
13.7948821
21
0.1057016
0
LINE
8
DEFAULT_255_2_778
10
13.4935821
20
1.5823016
11
13.4956821
21
2.7658016
0
LINE
8
DEFAULT_255_2_778
10
13.8192821
20
4.2390016
11
14.5452821
21
4.2390016
0
LINE
8
DEFAULT_255_2_778
10
15.1273821
20
4.5213016
11
16.0237821
21
4.5372016
0
LINE
8
DEFAULT_255_2_778
10
16.3716821
20
3.0754016
11
16.3814821
21
1.3622016
0
LINE
8
DEFAULT_255_2_778
10
15.4421821
20
-0.1755984
11
15.4053821
21
-0.1892984
0
LINE
8
DEFAULT_255_2_778
10
15.0606821
20
-0.2633984
11
15.0603821
21
-0.2630984
0
ARC
8
DEFAULT_255_2_778
10
16.0291166
20
0.6754082
40
0.1693223
50
3.7437389
51
89.9131067
0
ARC
8
DEFAULT_255_2_778
10
16.0293876
20
0.6730627
40
0.1716676
50
90.004734
51
93.7440977
0
ARC
8
DEFAULT_255_2_778
10
16.0230199
20
3.7650011
40
0.1702743
50
271.1972266
51
0.020258
0
ARC
8
DEFAULT_255_2_778
10
16.0212169
20
3.7650594
40
0.1720775
50
0.0006138
51
0.8006442
0
ARC
8
DEFAULT_255_2_778
10
16.0239894
20
3.7651475
40
0.1693041
50
0.7839446
51
45.8682569
0
ARC
8
DEFAULT_255_2_778
10
16.0239907
20
3.7652673
40
0.1692173
50
45.8403265
51
90.0236275
0
ARC
8
DEFAULT_255_2_778
10
16.0239349
20
3.7630815
40
0.171403
50
90.0046907
51
90.8882985
0
ARC
8
DEFAULT_255_2_778
10
15.141894
20
3.7501471
40
0.1695386
50
90.9180407
51
179.9709207
0
ARC
8
DEFAULT_255_2_778
10
15.1469631
20
3.7502482
40
0.1746076
50
180.0049604
51
180.9136822
0
ARC
8
DEFAULT_255_2_778
10
15.1419359
20
3.7502253
40
0.1695807
50
180.9330187
51
269.9844976
0
ARC
8
DEFAULT_255_2_778
10
15.1419012
20
3.7517334
40
0.1710888
50
269.9962667
51
270.8628699
0
ARC
8
DEFAULT_255_2_778
10
14.7097486
20
3.4670931
40
0.1697292
50
270.0098226
51
359.9901535
0
ARC
8
DEFAULT_255_2_778
10
14.7097484
20
3.4670347
40
0.1697292
50
0.0098514
51
89.9901317
0
ARC
8
DEFAULT_255_2_778
10
13.8197069
20
3.4670346
40
0.1697293
50
90.0098802
51
179.9900959
0
ARC
8
DEFAULT_255_2_778
10
13.8197068
20
3.467093
40
0.1697292
50
180.0098106
51
269.9901486
0
ARC
8
DEFAULT_255_2_778
10
13.8078963
20
0.8730396
40
0.1742466
50
89.0853951
51
89.9950349
0
ARC
8
DEFAULT_255_2_778
10
13.808074
20
0.8777684
40
0.1695178
50
90.054943
51
179.0888946
0
ARC
8
DEFAULT_255_2_778
10
13.8096471
20
0.8778874
40
0.1710889
50
179.1371301
51
180.0037333
0
ARC
8
DEFAULT_255_2_778
10
13.808139
20
0.8779222
40
0.1695807
50
180.0155024
51
269.0669813
0
ARC
8
DEFAULT_255_2_778
10
14.7238077
20
0.8633906
40
0.1703519
50
269.0144613
51
270.0068125
0
ARC
8
DEFAULT_255_2_778
10
14.7237073
20
0.86243
40
0.1693914
50
270.0408222
51
359.0981688
0
ARC
8
DEFAULT_255_2_778
10
14.7199476
20
0.8627296
40
0.1731555
50
359.0186205
51
359.9951577
0
ARC
8
DEFAULT_255_2_778
10
14.723734
20
0.8626171
40
0.169369
50
0.0331142
51
89.0717956
0
ARC
8
DEFAULT_255_2_778
10
14.3747621
20
6.4073895
40
5.7317376
50
280.7079606
51
280.7297396
0
ARC
8
DEFAULT_255_2_778
10
23.5559527
20
-42.1798133
40
43.7153103
50
100.699656
51
100.7024667
0
ARC
8
DEFAULT_255_2_778
10
14.047634
20
8.1380599
40
7.4930533
50
280.67326
51
280.6905523
0
ARC
8
DEFAULT_255_2_778
10
14.0960202
20
7.8794929
40
7.2299983
50
280.6583301
51
280.6759509
0
ARC
8
DEFAULT_255_2_778
10
14.0550294
20
8.0947202
40
7.4490939
50
280.6446222
51
280.6619983
0
ARC
8
DEFAULT_255_2_778
10
24.9828709
20
-50.081598
40
51.7446703
50
100.6375899
51
100.6401075
0
ARC
8
DEFAULT_255_2_778
10
14.0675252
20
8.0206926
40
7.3740319
50
280.6202911
51
280.6377823
0
ARC
8
DEFAULT_255_2_778
10
14.1179621
20
7.7508501
40
7.0995161
50
280.6037285
51
280.6215733
0
ARC
8
DEFAULT_255_2_778
10
24.4256697
20
-47.3453767
40
48.9526297
50
100.5956961
51
100.5982382
0
ARC
8
DEFAULT_255_2_778
10
14.2105975
20
7.2486886
40
6.5888834
50
280.5780448
51
280.5965973
0
ARC
8
DEFAULT_255_2_778
10
0.0282608
20
83.2163269
40
83.8690278
50
280.5735959
51
280.5750276
0
ARC
8
DEFAULT_255_2_778
10
0.8007846
20
79.1507855
40
79.7307635
50
280.5624968
51
280.5639763
0
ARC
8
DEFAULT_255_2_778
10
14.5235764
20
5.5561182
40
4.8676212
50
280.541271
51
280.5650783
0
ARC
8
DEFAULT_255_2_778
10
2.2650052
20
71.4459986
40
71.8881322
50
280.5377326
51
280.5393163
0
ARC
8
DEFAULT_255_2_778
10
14.7062862
20
4.5615884
40
3.8564501
50
280.5171664
51
280.5461698
0
ARC
8
DEFAULT_255_2_778
10
12.0879179
20
18.6530333
40
18.1890936
50
280.5182671
51
280.5243087
0
ARC
8
DEFAULT_255_2_778
10
12.2121508
20
17.9891346
40
17.513672
50
280.5089901
51
280.5151549
0
ARC
8
DEFAULT_255_2_778
10
12.3205867
20
17.3939225
40
16.9086665
50
280.5093021
51
280.5155759
0
ARC
8
DEFAULT_255_2_778
10
12.4439321
20
16.7449636
40
16.2480961
50
280.4926279
51
280.499043
0
ARC
8
DEFAULT_255_2_778
10
12.5519121
20
16.1626092
40
15.6558157
50
280.4856379
51
280.4921798
0
ARC
8
DEFAULT_255_2_778
10
12.6472066
20
15.6368439
40
15.1214881
50
280.4864863
51
280.4931416
0
ARC
8
DEFAULT_255_2_778
10
18.1753795
20
-14.432619
40
15.4519421
50
100.349623
51
100.737226
0
ARC
8
DEFAULT_255_2_778
10
15.5387777
20
-0.6313938
40
1.4012689
50
99.9520242
51
107.1251891
0
ARC
8
DEFAULT_255_2_778
10
15.2238734
20
0.3607987
40
0.3604467
50
105.7292352
51
136.5547434
0
ARC
8
DEFAULT_255_2_778
10
15.0865861
20
0.4985364
40
0.1661491
50
138.4844298
51
179.1976283
0
ARC
8
DEFAULT_255_2_778
10
15.0878906
20
0.4983673
40
0.1674559
50
179.1460262
51
180.004544
0
ARC
8
DEFAULT_255_2_778
10
15.0866216
20
0.4980856
40
0.1661874
50
179.9074763
51
228.5805642
0
ARC
8
DEFAULT_255_2_778
10
15.0595498
20
0.4583333
40
0.1186195
50
225.6821642
51
270.5939173
0
ARC
8
DEFAULT_255_2_778
10
15.0393547
20
0.6659834
40
0.3269659
50
273.757033
51
293.5323857
0
ARC
8
DEFAULT_255_2_778
10
3.2011556
20
32.1303833
40
33.944272
50
290.6464176
51
290.7198727
0
ARC
8
DEFAULT_255_2_778
10
15.9120367
20
-1.4926786
40
2.0012094
50
110.3387191
51
110.5178518
0
ARC
8
DEFAULT_255_2_778
10
15.3562144
20
0.0623662
40
0.3502892
50
107.3798953
51
113.7605325
0
ARC
8
DEFAULT_255_2_778
10
15.5011109
20
-0.3898703
40
0.8251667
50
103.9243912
51
107.6017825
0
ARC
8
DEFAULT_255_2_778
10
15.6161306
20
-0.836194
40
1.28606
50
103.2029658
51
104.1131029
0
ARC
8
DEFAULT_255_2_778
10
15.8201172
20
-1.7486209
40
2.2209814
50
99.4717615
51
102.950025
0
ARC
8
DEFAULT_255_2_778
10
16.1677638
20
-3.7963111
40
4.2979682
50
96.9811241
51
99.5508963
0
ARC
8
DEFAULT_255_2_778
10
16.4279758
20
-5.8802615
40
6.3980976
50
94.8892261
51
97.0258509
0
ARC
8
DEFAULT_255_2_778
10
16.5305553
20
-7.0231198
40
7.5455418
50
93.7269861
51
94.9256817
0
ARC
8
DEFAULT_255_2_778
10
16.0289264
20
0.6755773
40
0.1694807
50
273.7726063
51
318.7648393
0
ARC
8
DEFAULT_255_2_778
10
16.0291267
20
0.6755423
40
0.169307
50
318.7290753
51
0.0387938
0
ARC
8
DEFAULT_255_2_778
10
16.0280293
20
0.6756548
40
0.1704043
50
0.0007116
51
3.7042232
0
LINE
8
DEFAULT_255_2_778
10
16.0181777
20
0.8443639
11
15.7799777
21
0.8239639
0
LINE
8
DEFAULT_255_2_778
10
15.7799777
20
0.8239639
11
15.7657777
21
3.5909639
0
LINE
8
DEFAULT_255_2_778
10
15.7657777
20
3.5909639
11
16.0265777
21
3.5947639
0
LINE
8
DEFAULT_255_2_778
10
16.0212777
20
3.9344639
11
15.1391777
21
3.9196639
0
LINE
8
DEFAULT_255_2_778
10
15.1444777
20
3.5806639
11
15.4264777
21
3.5857639
0
LINE
8
DEFAULT_255_2_778
10
15.4264777
20
3.5857639
11
15.4336777
21
2.4112639
0
LINE
8
DEFAULT_255_2_778
10
15.4336777
20
2.4112639
11
14.4369777
21
2.2445639
0
LINE
8
DEFAULT_255_2_778
10
14.4369777
20
2.2445639
11
14.4388777
21
3.2973639
0
LINE
8
DEFAULT_255_2_778
10
14.4388777
20
3.2973639
11
14.7097777
21
3.2973639
0
LINE
8
DEFAULT_255_2_778
10
14.7097777
20
3.6367639
11
13.8196777
21
3.6367639
0
LINE
8
DEFAULT_255_2_778
10
13.8196777
20
3.2973639
11
14.0998777
21
3.2973639
0
LINE
8
DEFAULT_255_2_778
10
14.0998777
20
3.2973639
11
14.0959777
21
1.0422639
0
LINE
8
DEFAULT_255_2_778
10
14.0959777
20
1.0422639
11
13.8106777
21
1.0472639
0
LINE
8
DEFAULT_255_2_778
10
13.8053777
20
0.7083639
11
14.7208777
21
0.6930639
0
LINE
8
DEFAULT_255_2_778
10
14.7264777
20
1.0319639
11
14.4345777
21
1.0367639
0
LINE
8
DEFAULT_255_2_778
10
14.4345777
20
1.0367639
11
14.4364777
21
1.9013639
0
LINE
8
DEFAULT_255_2_778
10
14.4364777
20
1.9013639
11
15.4360777
21
2.0680639
0
LINE
8
DEFAULT_255_2_778
10
15.4360777
20
2.0680639
11
15.4418777
21
0.7758639
0
LINE
8
DEFAULT_255_2_778
10
15.2164777
20
0.3837639
11
15.2150777
21
0.3829639
0
LINE
8
DEFAULT_255_2_778
10
16.1980777
20
0.6866639
11
16.1980777
21
0.6864639
0
ARC
8
DEFAULT_255_2_778
10
8.878651
20
1.0995603
40
0.476806
50
269.9585431
51
270.1244733
0
ARC
8
DEFAULT_255_2_778
10
8.878103
20
1.3871093
40
0.7643552
50
232.9891359
51
270.0152192
0
ARC
8
DEFAULT_255_2_778
10
8.8815713
20
1.4068864
40
0.7822887
50
225.799989
51
233.6582518
0
ARC
8
DEFAULT_255_2_778
10
8.0239117
20
1.5506292
40
0.770675
50
269.9928548
51
293.9034684
0
ARC
8
DEFAULT_255_2_778
10
8.0234587
20
1.2904519
40
0.5104979
50
269.8797084
51
270.0400659
0
ARC
8
DEFAULT_255_2_778
10
8.020513
20
1.459869
40
0.6799161
50
267.2158255
51
270.1579056
0
ARC
8
DEFAULT_255_2_778
10
7.1797032
20
1.5933618
40
0.7736069
50
180.1159223
51
267.2351602
0
ARC
8
DEFAULT_255_2_778
10
7.1865266
20
1.5917712
40
0.7804288
50
177.4233987
51
179.9981339
0
ARC
8
DEFAULT_255_2_778
10
7.1766963
20
1.5930644
40
0.7705507
50
91.2923006
51
177.4865946
0
ARC
8
DEFAULT_255_2_778
10
7.1786842
20
1.5696259
40
0.7940295
50
89.9998034
51
91.3975584
0
ARC
8
DEFAULT_255_2_778
10
7.5603522
20
3.795103
40
0.7753731
50
187.7640044
51
252.5150227
0
ARC
8
DEFAULT_255_2_778
10
7.5632451
20
3.7920313
40
0.7778322
50
180.0109218
51
187.5110233
0
ARC
8
DEFAULT_255_2_778
10
7.5597285
20
3.7906483
40
0.7743165
50
97.8787884
51
179.9086353
0
ARC
8
DEFAULT_255_2_778
10
8.2831585
20
3.8759582
40
0.7882972
50
89.990671
51
97.5863836
0
ARC
8
DEFAULT_255_2_778
10
8.2819695
20
3.8889258
40
0.7753307
50
43.2080295
51
89.9026482
0
ARC
8
DEFAULT_255_2_778
10
8.3294345
20
3.9388567
40
0.7065604
50
36.8993803
51
42.8920705
0
ARC
8
DEFAULT_255_2_778
10
8.0594244
20
3.7292648
40
1.0483407
50
35.0633378
51
37.1995141
0
ARC
8
DEFAULT_255_2_778
10
8.0224555
20
3.70131
40
1.0946611
50
27.9299123
51
35.1493618
0
ARC
8
DEFAULT_255_2_778
10
8.327606
20
3.8639878
40
0.7488579
50
22.9306581
51
27.8687427
0
ARC
8
DEFAULT_255_2_778
10
9.6691025
20
1.8181245
40
0.7741319
50
19.8395864
51
89.91234
0
ARC
8
DEFAULT_255_2_778
10
9.6631268
20
1.8201001
40
0.779092
50
8.6069452
51
19.5537687
0
ARC
8
DEFAULT_255_2_778
10
9.6724471
20
1.8217407
40
0.7696312
50
0.0006459
51
8.5900216
0
ARC
8
DEFAULT_255_2_778
10
9.6664626
20
1.8220428
40
0.7756158
50
291.3869415
51
359.9783298
0
ARC
8
DEFAULT_255_2_778
10
9.6613925
20
1.8359749
40
0.7904375
50
290.1581183
51
291.3608769
0
ARC
8
DEFAULT_255_2_778
10
11.3370796
20
-2.840382
40
4.1771093
50
109.6302132
51
112.721443
0
ARC
8
DEFAULT_255_2_778
10
10.9189372
20
-1.8427694
40
3.0954098
50
112.7147288
51
115.4109192
0
ARC
8
DEFAULT_255_2_778
10
10.3760735
20
-0.707266
40
1.8368183
50
115.3145093
51
118.6931902
0
ARC
8
DEFAULT_255_2_778
10
9.8660147
20
0.2255279
40
0.7736797
50
118.7248159
51
121.8725985
0
ARC
8
DEFAULT_255_2_778
10
8.8780523
20
1.3988097
40
0.7760559
50
270.1206768
51
318.3001704
0
LINE
8
DEFAULT_255_2_778
10
7.9874869
20
0.7807554
11
7.1423869
21
0.8206554
0
LINE
8
DEFAULT_255_2_778
10
7.1786869
20
2.3636554
11
7.1892869
21
2.3636554
0
LINE
8
DEFAULT_255_2_778
10
7.1892869
20
2.3636554
11
7.3273869
21
3.0555554
0
LINE
8
DEFAULT_255_2_778
10
7.4535869
20
4.5576554
11
8.1790869
21
4.6573554
0
LINE
8
DEFAULT_255_2_778
10
9.0172869
20
4.1557554
11
9.6538869
21
2.6169554
0
LINE
8
DEFAULT_255_2_778
10
9.6538869
20
2.6169554
11
9.6641869
21
2.5922554
0
LINE
8
DEFAULT_255_2_778
10
9.6641869
20
2.5922554
11
9.6702869
21
2.5922554
0
LINE
8
DEFAULT_255_2_778
10
8.8796869
20
0.6227554
11
8.8796869
21
0.6227554
0
ARC
8
DEFAULT_255_2_778
10
9.9817118
20
0.9979801
40
1.0484627
50
110.594645
51
115.1436471
0
ARC
8
DEFAULT_255_2_778
10
11.4531202
20
-2.2798482
40
4.6412845
50
114.3939501
51
114.5163422
0
ARC
8
DEFAULT_255_2_778
10
12.1361988
20
-3.7779978
40
6.2878107
50
114.5148198
51
114.6034884
0
ARC
8
DEFAULT_255_2_778
10
-51.2402719
20
133.9749494
40
145.3448201
50
294.6714534
51
294.7103331
0
ARC
8
DEFAULT_255_2_778
10
5.9419483
20
9.5047694
40
8.3680657
50
293.7713328
51
294.6250917
0
ARC
8
DEFAULT_255_2_778
10
8.0210757
20
3.7008908
40
0.4928985
50
27.0360321
51
38.4273829
0
ARC
8
DEFAULT_255_2_778
10
8.2833992
20
3.8920097
40
0.1691357
50
42.9436314
51
89.9921206
0
ARC
8
DEFAULT_255_2_778
10
8.2834234
20
3.8922523
40
0.168893
50
90.0002993
51
96.7051625
0
ARC
8
DEFAULT_255_2_778
10
8.2834524
20
3.8919488
40
0.1691977
50
96.7029426
51
97.6561454
0
ARC
8
DEFAULT_255_2_778
10
7.5580685
20
3.7913513
40
0.170211
50
97.9215056
51
179.8867928
0
ARC
8
DEFAULT_255_2_778
10
7.5595354
20
3.7917254
40
0.1716776
50
180.0125986
51
187.4591951
0
ARC
8
DEFAULT_255_2_778
10
7.5572858
20
3.7917936
40
0.1694563
50
187.5808303
51
232.6205932
0
ARC
8
DEFAULT_255_2_778
10
7.5572942
20
3.7917598
40
0.1694344
50
232.6113985
51
269.9899694
0
ARC
8
DEFAULT_255_2_778
10
7.5572665
20
3.7910583
40
0.1687328
50
269.9993297
51
274.5467036
0
ARC
8
DEFAULT_255_2_778
10
7.5572869
20
3.7908728
40
0.1685465
50
274.5447756
51
277.6796865
0
ARC
8
DEFAULT_255_2_778
10
7.1778388
20
1.5918776
40
0.1689632
50
87.1938788
51
89.9984466
0
ARC
8
DEFAULT_255_2_778
10
7.1778706
20
1.591837
40
0.1690036
50
90.0092235
51
132.4002014
0
ARC
8
DEFAULT_255_2_778
10
7.1777089
20
1.5917549
40
0.1689552
50
132.3409595
51
177.5293649
0
ARC
8
DEFAULT_255_2_778
10
7.1775962
20
1.5915213
40
0.1688529
50
177.4485076
51
179.9988264
0
ARC
8
DEFAULT_255_2_778
10
7.1777013
20
1.5915788
40
0.1689579
50
180.0183403
51
222.5894232
0
ARC
8
DEFAULT_255_2_778
10
7.1779385
20
1.5913991
40
0.1690113
50
222.4901434
51
267.582895
0
ARC
8
DEFAULT_255_2_778
10
8.0224344
20
1.5546585
40
0.1722027
50
267.362647
51
269.9992765
0
ARC
8
DEFAULT_255_2_778
10
8.0222975
20
1.5521786
40
0.1697231
50
270.0454761
51
357.1494519
0
ARC
8
DEFAULT_255_2_778
10
7.9745166
20
1.5542685
40
0.217549
50
357.2255548
51
359.9931697
0
ARC
8
DEFAULT_255_2_778
10
8.0342526
20
1.5637413
40
0.1580986
50
356.5555102
51
89.169903
0
ARC
8
DEFAULT_255_2_778
10
8.0207474
20
1.479771
40
0.2425673
50
86.266352
51
90.0323185
0
ARC
8
DEFAULT_255_2_778
10
11.0718835
20
-1.9458777
40
4.1842365
50
119.5071785
51
121.0219812
0
ARC
8
DEFAULT_255_2_778
10
9.5497967
20
0.5917428
40
1.2251442
50
121.1820809
51
123.8572567
0
ARC
8
DEFAULT_255_2_778
10
9.1275519
20
1.2005531
40
0.4844632
50
122.501789
51
142.4011738
0
ARC
8
DEFAULT_255_2_778
10
8.8803051
20
1.3950736
40
0.1699179
50
143.5027176
51
180.0131918
0
ARC
8
DEFAULT_255_2_778
10
8.8804998
20
1.3950292
40
0.1701126
50
179.9982358
51
181.811322
0
ARC
8
DEFAULT_255_2_778
10
8.8802485
20
1.3950198
40
0.1698609
50
181.8108268
51
203.4447617
0
ARC
8
DEFAULT_255_2_778
10
8.8801275
20
1.3949622
40
0.1697269
50
203.4431677
51
263.4649247
0
ARC
8
DEFAULT_255_2_778
10
8.8801245
20
1.394758
40
0.1695237
50
263.4580795
51
269.9986813
0
ARC
8
DEFAULT_255_2_778
10
8.8800384
20
1.3951295
40
0.1698951
50
270.0277283
51
323.4438409
0
ARC
8
DEFAULT_255_2_778
10
9.2439328
20
1.1130791
40
0.2905699
50
126.7406134
51
141.5062775
0
ARC
8
DEFAULT_255_2_778
10
9.6106912
20
0.6406674
40
0.8886023
50
120.2794567
51
127.4698214
0
ARC
8
DEFAULT_255_2_778
10
10.1871544
20
-0.3332298
40
2.0203113
50
115.8925646
51
120.4712689
0
ARC
8
DEFAULT_255_2_778
10
10.5910193
20
-1.1381236
40
2.9207912
50
115.479209
51
116.1247778
0
ARC
8
DEFAULT_255_2_778
10
10.9901294
20
-1.9952314
40
3.8662377
50
111.9988734
51
115.3544227
0
ARC
8
DEFAULT_255_2_778
10
11.3470297
20
-2.8611811
40
4.802834
50
109.8690448
51
112.0768944
0
ARC
8
DEFAULT_255_2_778
10
11.3709276
20
-2.9252652
40
4.8712255
50
109.7143674
51
109.8772183
0
ARC
8
DEFAULT_255_2_778
10
9.6693416
20
1.8204757
40
0.1703495
50
290.0379764
51
359.9787503
0
ARC
8
DEFAULT_255_2_778
10
9.6711601
20
1.8204166
40
0.1685309
50
359.9985843
51
8.086158
0
ARC
8
DEFAULT_255_2_778
10
9.6696135
20
1.8201459
40
0.1701001
50
8.1031673
51
19.6471582
0
ARC
8
DEFAULT_255_2_778
10
9.6704832
20
1.8202943
40
0.1692312
50
19.6988422
51
64.7355386
0
ARC
8
DEFAULT_255_2_778
10
9.6703849
20
1.8193803
40
0.1701001
50
64.8369804
51
89.9786905
0
ARC
8
DEFAULT_255_2_778
10
9.670463
20
1.8181363
40
0.171344
50
90.0049732
51
90.7781299
0
ARC
8
DEFAULT_255_2_778
10
9.6704068
20
1.820998
40
0.1684818
50
90.7722351
51
109.8813378
0
LINE
8
DEFAULT_255_2_778
10
9.3150106
20
1.8466382
11
9.0972106
21
2.3845382
0
LINE
8
DEFAULT_255_2_778
10
9.0972106
20
2.3845382
11
8.4601106
21
3.9249382
0
LINE
8
DEFAULT_255_2_778
10
8.2609106
20
4.0596382
11
7.5346106
21
3.9599382
0
LINE
8
DEFAULT_255_2_778
10
7.5798106
20
3.6238382
11
8.0690106
21
3.6924382
0
LINE
8
DEFAULT_255_2_778
10
8.0690106
20
3.6924382
11
7.6777106
21
1.7368382
0
LINE
8
DEFAULT_255_2_778
10
7.6777106
20
1.7368382
11
7.1861106
21
1.7606382
0
LINE
8
DEFAULT_255_2_778
10
7.1708106
20
1.4225382
11
8.0145106
21
1.3826382
0
LINE
8
DEFAULT_255_2_778
10
8.0206106
20
1.7223382
11
8.0595106
21
1.9805382
0
LINE
8
DEFAULT_255_2_778
10
8.0595106
20
1.9805382
11
8.8432106
21
2.1104382
0
LINE
8
DEFAULT_255_2_778
10
8.8432106
20
2.1104382
11
9.0110106
21
1.6956382
0
LINE
8
DEFAULT_255_2_778
10
9.6131106
20
1.9794382
11
9.6129106
21
1.9794382
0
LINE
8
DEFAULT_255_2_778
10
8.1315106
20
2.2525382
11
8.3392106
21
3.2696382
0
LINE
8
DEFAULT_255_2_778
10
8.3392106
20
3.2696382
11
8.7120106
21
2.3485382
0
LINE
8
DEFAULT_255_2_778
10
8.7120106
20
2.3485382
11
8.1315106
21
2.2525382
0
ARC
8
DEFAULT_255_2_778
10
10.0819675
20
0.914921
40
0.7767106
50
181.2613761
51
269.6737549
0
ARC
8
DEFAULT_255_2_778
10
10.0933683
20
0.9097588
40
0.7880138
50
180.0007448
51
180.8678767
0
ARC
8
DEFAULT_255_2_778
10
10.0797117
20
0.9090777
40
0.7743576
50
109.028223
51
179.950364
0
ARC
8
DEFAULT_255_2_778
10
9.6423977
20
2.6079914
40
0.7610684
50
269.9960197
51
278.6716158
0
ARC
8
DEFAULT_255_2_778
10
9.6383123
20
2.6139472
40
0.7670349
50
269.9972706
51
270.3012279
0
ARC
8
DEFAULT_255_2_778
10
9.6382977
20
2.6142025
40
0.7672902
50
188.2484204
51
269.9983566
0
ARC
8
DEFAULT_255_2_778
10
9.5121657
20
3.4530511
40
0.7713426
50
185.454317
51
188.771715
0
ARC
8
DEFAULT_255_2_778
10
9.510785
20
3.45292
40
0.7699557
50
180.0004189
51
185.4543707
0
ARC
8
DEFAULT_255_2_778
10
9.5108287
20
3.4529061
40
0.7699994
50
139.6229577
51
179.9993841
0
ARC
8
DEFAULT_255_2_778
10
9.5120488
20
3.4555204
40
0.7692401
50
90.5663741
51
139.8301661
0
ARC
8
DEFAULT_255_2_778
10
11.6589219
20
3.5130656
40
0.7767585
50
44.636686
51
89.9024157
0
ARC
8
DEFAULT_255_2_778
10
11.6643773
20
3.5191871
40
0.7685757
50
359.859263
51
44.5977029
0
ARC
8
DEFAULT_255_2_778
10
11.6540232
20
3.5172988
40
0.7789274
50
355.6872461
51
0.0000298
0
ARC
8
DEFAULT_255_2_778
10
11.5915493
20
2.8668389
40
0.8195985
50
0.0004241
51
1.5580089
0
ARC
8
DEFAULT_255_2_778
10
11.6419909
20
2.8593056
40
0.769194
50
295.2532873
51
0.5616005
0
ARC
8
DEFAULT_255_2_778
10
11.6331162
20
2.8822844
40
0.7937648
50
270.1680913
51
295.125041
0
ARC
8
DEFAULT_255_2_778
10
11.6354137
20
2.8464707
40
0.7579477
50
249.5863354
51
270.0023587
0
ARC
8
DEFAULT_255_2_778
10
11.1056302
20
0.9217461
40
0.7765441
50
1.0460703
51
69.9276735
0
ARC
8
DEFAULT_255_2_778
10
11.095938
20
0.9240935
40
0.7861959
50
359.9994882
51
0.8621326
0
ARC
8
DEFAULT_255_2_778
10
11.1168162
20
0.9226832
40
0.7653189
50
315.4641827
51
0.1050522
0
ARC
8
DEFAULT_255_2_778
10
11.1128808
20
0.9185619
40
0.7652549
50
270.3716712
51
315.8907933
0
ARC
8
DEFAULT_255_2_778
10
2.6901581
20
571.8196375
40
571.728433
50
270.8439476
51
270.8446114
0
ARC
8
DEFAULT_255_2_778
10
8.7736686
20
158.2997663
40
158.1638157
50
270.8431683
51
270.8468234
0
ARC
8
DEFAULT_255_2_778
10
-19.8952323
20
2100.9678716
40
2101.0434499
50
270.844547
51
270.8453063
0
ARC
8
DEFAULT_255_2_778
10
-63.222324
20
5037.2685158
40
5037.6637368
50
270.8446117
51
270.8450305
0
ARC
8
DEFAULT_255_2_778
10
1.4472712
20
649.6100236
40
649.528689
50
270.8442294
51
270.8459064
0
ARC
8
DEFAULT_255_2_778
10
7.1282544
20
263.7279505
40
263.6048003
50
270.843309
51
270.845368
0
ARC
8
DEFAULT_255_2_778
10
-258.02139
20
18241.9772726
40
18243.8092769
50
270.8446691
51
270.8449335
0
ARC
8
DEFAULT_255_2_778
10
-860.8891911
20
59133.5450198
40
59139.8208479
50
270.8445106
51
270.8446595
0
ARC
8
DEFAULT_255_2_778
10
-295.3128079
20
20766.5177816
40
20768.6251962
50
270.8439695
51
270.8444417
0
LINE
8
DEFAULT_255_2_778
10
10.5989324
20
0.145673
11
10.5978419
21
0.1456569
0
ARC
8
DEFAULT_255_2_778
10
-252.5917202
20
17866.335228
40
17868.1280087
50
270.8433611
51
270.8439718
0
ARC
8
DEFAULT_255_2_778
10
-82.4692808
20
6309.6250046
40
6310.1656956
50
270.8421782
51
270.8433431
0
ARC
8
DEFAULT_255_2_778
10
-33.1170337
20
2951.8559758
40
2952.0339985
50
270.8407277
51
270.8423029
0
ARC
8
DEFAULT_255_2_778
10
-8.1309459
20
1248.4616932
40
1248.4564729
50
270.8379948
51
270.8412051
0
ARC
8
DEFAULT_255_2_778
10
6.3339582
20
259.4316332
40
259.3206413
50
270.830191
51
270.8383156
0
ARC
8
DEFAULT_255_2_778
10
9.9613368
20
8.8358752
40
8.6986325
50
270.7674331
51
270.8558727
0
LINE
8
DEFAULT_255_2_778
10
9.8272449
20
1.641123
11
9.8267449
21
1.869123
0
LINE
8
DEFAULT_255_2_778
10
9.8267449
20
1.869123
11
9.7571449
21
1.855623
0
LINE
8
DEFAULT_255_2_778
10
8.8789449
20
2.504123
11
8.7498449
21
3.335423
0
LINE
8
DEFAULT_255_2_778
10
9.5044449
20
4.224723
11
10.5826449
21
4.242723
0
LINE
8
DEFAULT_255_2_778
10
10.5826449
20
4.242723
11
11.5994449
21
4.287423
0
LINE
8
DEFAULT_255_2_778
10
11.5994449
20
4.287423
11
11.6102449
21
4.288223
0
LINE
8
DEFAULT_255_2_778
10
11.6102449
20
4.288223
11
11.6602449
21
4.289823
0
LINE
8
DEFAULT_255_2_778
10
12.4307449
20
3.458723
11
12.4108449
21
2.889123
0
LINE
8
DEFAULT_255_2_778
10
11.3710449
20
2.136123
11
11.3721449
21
1.651123
0
LINE
8
DEFAULT_255_2_778
10
10.0778449
20
0.138023
11
10.0775449
21
0.138223
0
ARC
8
DEFAULT_255_2_778
10
11.6149348
20
4.0565603
40
0.3713283
50
273.8727652
51
275.2472717
0
ARC
8
DEFAULT_255_2_778
10
11.2073721
20
9.5934773
40
5.9232191
50
273.8601319
51
274.1887176
0
ARC
8
DEFAULT_255_2_778
10
10.671495
20
17.4687859
40
13.8167382
50
273.6180626
51
273.8787399
0
ARC
8
DEFAULT_255_2_778
10
10.3017049
20
23.3001631
40
19.6598283
50
273.3310429
51
273.6211608
0
ARC
8
DEFAULT_255_2_778
10
10.1183364
20
26.4289869
40
22.7940206
50
273.0743624
51
273.3342066
0
ARC
8
DEFAULT_255_2_778
10
10.0523903
20
27.6479642
40
24.0147803
50
272.7907324
51
273.0754957
0
ARC
8
DEFAULT_255_2_778
10
10.0495977
20
27.6960003
40
24.0628954
50
272.4546281
51
272.7918052
0
ARC
8
DEFAULT_255_2_778
10
10.1044536
20
26.3846481
40
22.7503971
50
271.886063
51
272.4580465
0
ARC
8
DEFAULT_255_2_778
10
10.1991911
20
23.4538082
40
19.8180271
50
271.1377296
51
271.8911912
0
ARC
8
DEFAULT_255_2_778
10
9.5120325
20
3.4553625
40
0.1663273
50
90.2543002
51
140.174003
0
ARC
8
DEFAULT_255_2_778
10
9.5114613
20
3.4521566
40
0.1679656
50
139.2093136
51
179.8383578
0
ARC
8
DEFAULT_255_2_778
10
9.5070215
20
3.4526234
40
0.1635253
50
179.9975212
51
185.1783082
0
ARC
8
DEFAULT_255_2_778
10
9.506743
20
3.4526069
40
0.1632463
50
185.181342
51
188.744711
0
ARC
8
DEFAULT_255_2_778
10
9.6427336
20
2.6167045
40
0.1691984
50
187.7841003
51
269.9452358
0
ARC
8
DEFAULT_255_2_778
10
9.6425594
20
2.6187052
40
0.1711989
50
270.0041818
51
274.2995437
0
ARC
8
DEFAULT_255_2_778
10
9.6428415
20
2.6167879
40
0.1692658
50
274.2529741
51
0.0265494
0
ARC
8
DEFAULT_255_2_778
10
9.6413368
20
2.616881
40
0.1707705
50
359.9950718
51
0.7070059
0
ARC
8
DEFAULT_255_2_778
10
9.6251368
20
2.5995538
40
0.1879649
50
5.9346141
51
9.1192852
0
ARC
8
DEFAULT_255_2_778
10
3.5844952
20
1.7110362
40
6.2935872
50
8.3900801
51
8.8051126
0
ARC
8
DEFAULT_255_2_778
10
-31.1521312
20
-3.631019
40
41.4385803
50
8.752326
51
8.8426563
0
ARC
8
DEFAULT_255_2_778
10
-73.9171003
20
-10.2705955
40
84.715901
50
8.8337042
51
8.8382058
0
ARC
8
DEFAULT_255_2_778
10
-70.5503015
20
-9.7445492
40
81.308255
50
8.8364377
51
8.8410787
0
ARC
8
DEFAULT_255_2_778
10
234.8809027
20
37.7711784
40
227.7968482
50
188.8413758
51
188.8431228
0
ARC
8
DEFAULT_255_2_778
10
615.6584384
20
97.041902
40
613.1597288
50
188.8445816
51
188.8452214
0
LINE
8
DEFAULT_255_2_778
10
9.7897645
20
2.7656961
11
9.7887277
21
2.7723572
0
LINE
8
DEFAULT_255_2_778
10
9.7887277
20
2.7723572
11
9.7709181
21
2.8866963
0
ARC
8
DEFAULT_255_2_778
10
161.4887734
20
26.5168196
40
153.5470297
50
188.8047115
51
188.8527167
0
ARC
8
DEFAULT_255_2_778
10
105.261756
20
17.8014765
40
96.6485707
50
188.7938791
51
188.8010756
0
ARC
8
DEFAULT_255_2_778
10
75.5315352
20
13.2102469
40
66.5659291
50
188.6810016
51
188.8006837
0
ARC
8
DEFAULT_255_2_778
10
40.3720302
20
7.8442763
40
30.9993096
50
188.4819388
51
188.6851291
0
ARC
8
DEFAULT_255_2_778
10
28.4214222
20
6.056887
40
18.9157774
50
188.4233466
51
188.4663302
0
ARC
8
DEFAULT_255_2_778
10
10.0776864
20
0.9106328
40
0.1694709
50
90.7749411
51
135.7498834
0
ARC
8
DEFAULT_255_2_778
10
10.0780472
20
0.910721
40
0.1696681
50
135.8562468
51
180.0202357
0
ARC
8
DEFAULT_255_2_778
10
10.0784257
20
0.9106617
40
0.1700465
50
180.0002215
51
180.7660763
0
ARC
8
DEFAULT_255_2_778
10
10.0785476
20
0.9110515
40
0.1701741
50
180.8967489
51
269.8300334
0
ARC
8
DEFAULT_255_2_778
10
10.0780601
20
0.9125207
40
0.1716425
50
269.9942042
51
270.6122781
0
ARC
8
DEFAULT_255_2_778
10
11.1100362
20
0.9252028
40
0.1689259
50
270.6641747
51
315.8259115
0
ARC
8
DEFAULT_255_2_778
10
11.1104473
20
0.9253974
40
0.1687673
50
315.6812565
51
359.9871828
0
ARC
8
DEFAULT_255_2_778
10
11.1097184
20
0.9253456
40
0.1694964
50
0.0047229
51
0.8933012
0
ARC
8
DEFAULT_255_2_778
10
11.1093529
20
0.9253334
40
0.1698622
50
0.895515
51
90.1890969
0
ARC
8
DEFAULT_255_2_778
10
11.1087931
20
0.9196947
40
0.1754999
50
90.0002568
51
90.4893011
0
ARC
8
DEFAULT_255_2_778
10
13.1372348
20
3.004864
40
1.6714553
50
179.7592178
51
183.2836292
0
ARC
8
DEFAULT_255_2_778
10
12.0702353
20
2.9397005
40
0.6024878
50
182.9089328
51
190.2409379
0
ARC
8
DEFAULT_255_2_778
10
11.6688819
20
2.8657879
40
0.1943926
50
189.8343789
51
203.9144844
0
ARC
8
DEFAULT_255_2_778
10
11.6664713
20
2.8696483
40
0.1938063
50
205.2467878
51
210.7391321
0
ARC
8
DEFAULT_255_2_778
10
11.6327866
20
2.8416656
40
0.1507062
50
208.140093
51
270.8806851
0
ARC
8
DEFAULT_255_2_778
10
11.6348513
20
2.8680236
40
0.1770467
50
270.0814642
51
281.4952911
0
ARC
8
DEFAULT_255_2_778
10
11.6311121
20
2.8856137
40
0.1950294
50
281.5418999
51
295.5715964
0
ARC
8
DEFAULT_255_2_778
10
11.636001
20
2.8626353
40
0.1722796
50
297.4038647
51
1.755227
0
ARC
8
DEFAULT_255_2_778
10
11.6142586
20
2.8679185
40
0.1939411
50
359.9981432
51
1.6061934
0
ARC
8
DEFAULT_255_2_778
10
11.6145414
20
2.8679177
40
0.1936583
50
1.6087707
51
3.2178304
0
ARC
8
DEFAULT_255_2_778
10
11.8321437
20
2.8796951
40
0.0242663
50
179.4920909
51
182.1417687
0
ARC
8
DEFAULT_255_2_778
10
12.0236488
20
2.8805737
40
0.2157716
50
179.9750602
51
180.1761948
0
ARC
8
DEFAULT_255_2_778
10
15.1400787
20
2.8675446
40
3.3322273
50
179.2751698
51
179.7743572
0
ARC
8
DEFAULT_255_2_778
10
23.8524313
20
2.770681
40
12.0451156
50
179.0306344
51
179.3387123
0
ARC
8
DEFAULT_255_2_778
10
27.1482654
20
2.7171659
40
15.3413834
50
178.5784396
51
179.0390404
0
ARC
8
DEFAULT_255_2_778
10
24.3173456
20
2.7927651
40
12.5094605
50
177.7184554
51
178.6029231
0
ARC
8
DEFAULT_255_2_778
10
18.9087795
20
3.0117975
40
7.0964631
50
176.428592
51
177.7470692
0
ARC
8
DEFAULT_255_2_778
10
15.9677028
20
3.1902381
40
4.1499857
50
175.6641483
51
176.3580033
0
ARC
8
DEFAULT_255_2_778
10
11.661013
20
3.5173562
40
0.1691106
50
355.4660881
51
0.0009016
0
ARC
8
DEFAULT_255_2_778
10
11.6606103
20
3.5173458
40
0.1695132
50
0.0044097
51
44.7988412
0
ARC
8
DEFAULT_255_2_778
10
11.6603825
20
3.5167768
40
0.1700759
50
44.8807944
51
90.1145762
0
ARC
8
DEFAULT_255_2_778
10
11.660038
20
3.5161873
40
0.170665
50
89.9985062
51
93.7438132
0
LINE
8
DEFAULT_255_2_778
10
10.5926943
20
3.6396882
11
9.5112943
21
3.6216882
0
LINE
8
DEFAULT_255_2_778
10
9.3453943
20
3.4277882
11
9.4750943
21
2.5937882
0
LINE
8
DEFAULT_255_2_778
10
9.7096943
20
3.2859882
11
10.4269943
21
3.2980882
0
LINE
8
DEFAULT_255_2_778
10
10.4269943
20
3.2980882
11
10.4314943
21
1.0845882
0
LINE
8
DEFAULT_255_2_778
10
10.4314943
20
1.0845882
11
10.0753943
21
1.0800882
0
LINE
8
DEFAULT_255_2_778
10
10.0798943
20
0.7408882
11
11.1119943
21
0.7562882
0
LINE
8
DEFAULT_255_2_778
10
11.1072943
20
1.0951882
11
10.7701943
21
1.0901882
0
LINE
8
DEFAULT_255_2_778
10
10.7701943
20
1.0901882
11
10.7656943
21
3.3046882
0
LINE
8
DEFAULT_255_2_778
10
10.7656943
20
3.3046882
11
11.4784943
21
3.3361882
0
LINE
8
DEFAULT_255_2_778
10
11.4784943
20
3.3361882
11
11.4657943
21
3.0118882
0
LINE
8
DEFAULT_255_2_778
10
11.6488943
20
3.6864882
11
11.6488943
21
3.6867882
0
ARC
8
DEFAULT_255_2_778
10
3.737313
20
1.3558053
40
1.5591449
50
254.9241881
51
270.2615239
0
ARC
8
DEFAULT_255_2_778
10
3.682807
20
1.1489312
40
1.3452145
50
232.2923851
51
254.8740448
0
ARC
8
DEFAULT_255_2_778
10
3.7268592
20
1.1863244
40
1.4017927
50
192.5130898
51
231.8026891
0
ARC
8
DEFAULT_255_2_778
10
3.7430961
20
1.1970182
40
1.4199778
50
184.7658001
51
192.7923883
0
ARC
8
DEFAULT_255_2_778
10
3.7157225
20
1.1942228
40
1.3924667
50
184.2191594
51
184.7447554
0
ARC
8
DEFAULT_255_2_778
10
4.9346255
20
1.7959538
40
2.6137825
50
167.1762499
51
176.153923
0
ARC
8
DEFAULT_255_2_778
10
4.1086612
20
1.9878758
40
1.7658262
50
154.1770078
51
167.2998713
0
ARC
8
DEFAULT_255_2_778
10
3.6087718
20
2.2388568
40
1.206556
50
125.7386263
51
154.5650312
0
ARC
8
DEFAULT_255_2_778
10
3.5674195
20
2.281267
40
1.1480123
50
121.5793534
51
125.2997283
0
ARC
8
DEFAULT_255_2_778
10
3.5634337
20
2.282313
40
1.1450375
50
89.3496911
51
121.4368537
0
ARC
8
DEFAULT_255_2_778
10
3.5729939
20
2.0311209
40
1.3961601
50
80.8658441
51
89.8590028
0
ARC
8
DEFAULT_255_2_778
10
4.3729625
20
2.8996274
40
0.7710494
50
89.9727162
51
138.5955233
0
ARC
8
DEFAULT_255_2_778
10
4.3722122
20
2.8975415
40
0.773136
50
1.1686374
51
89.9171915
0
ARC
8
DEFAULT_255_2_778
10
4.3617587
20
2.8983823
40
0.7835709
50
359.9995906
51
1.0915779
0
ARC
8
DEFAULT_255_2_778
10
3.9459464
20
2.1634524
40
1.1993839
50
0.0116979
51
0.0584891
0
ARC
8
DEFAULT_255_2_778
10
4.381605
20
2.163811
40
0.7637253
50
342.611849
51
359.9914645
0
ARC
8
DEFAULT_255_2_778
10
4.5165787
20
1.4486634
40
0.7679476
50
2.060649
51
39.3491917
0
ARC
8
DEFAULT_255_2_778
10
3.0504061
20
1.3825205
40
2.2484629
50
347.9437723
51
351.9712235
0
ARC
8
DEFAULT_255_2_778
10
3.4479442
20
1.2954685
40
1.8415117
50
342.4268587
51
348.0090337
0
ARC
8
DEFAULT_255_2_778
10
4.039123
20
1.1001711
40
1.2189814
50
330.7837114
51
342.78845
0
ARC
8
DEFAULT_255_2_778
10
3.8359937
20
1.2259286
40
1.4576911
50
326.2038593
51
330.3666673
0
ARC
8
DEFAULT_255_2_778
10
3.6710589
20
1.3427541
40
1.6597471
50
319.4592275
51
326.0194726
0
ARC
8
DEFAULT_255_2_778
10
2.4592053
20
2.3633057
40
3.2440574
50
318.6165892
51
319.6734639
0
ARC
8
DEFAULT_255_2_778
10
4.0661023
20
0.9586441
40
1.1098159
50
307.8448544
51
318.1834426
0
ARC
8
DEFAULT_255_2_778
10
4.0220533
20
1.0141515
40
1.1806742
50
304.8767385
51
307.8802424
0
ARC
8
DEFAULT_255_2_778
10
3.8725902
20
1.2412147
40
1.4524362
50
296.2161952
51
304.5918996
0
ARC
8
DEFAULT_255_2_778
10
3.446387
20
2.0785565
40
2.3919553
50
294.9698352
51
296.5145989
0
ARC
8
DEFAULT_255_2_778
10
3.9802836
20
0.9155449
40
1.1122925
50
282.0406488
51
295.3284408
0
ARC
8
DEFAULT_255_2_778
10
3.9416057
20
1.1364339
40
1.3364158
50
271.5028461
51
281.6868712
0
ARC
8
DEFAULT_255_2_778
10
3.8656331
20
3.3307221
40
3.5319898
50
270.2870736
51
271.8012954
0
LINE
8
DEFAULT_255_2_778
10
2.3270296
20
1.0917767
11
2.3249296
21
1.1412767
0
LINE
8
DEFAULT_255_2_778
10
2.3249296
20
1.1412767
11
2.3188296
21
1.4545767
0
LINE
8
DEFAULT_255_2_778
10
2.3188296
20
1.4545767
11
2.3249296
21
1.9238767
0
LINE
8
DEFAULT_255_2_778
10
2.3249296
20
1.9238767
11
2.3267296
21
1.9712767
0
LINE
8
DEFAULT_255_2_778
10
5.1453296
20
2.8983767
11
5.1453296
21
2.1646767
0
LINE
8
DEFAULT_255_2_778
10
5.2840296
20
1.4762767
11
5.2887296
21
1.3870767
0
LINE
8
DEFAULT_255_2_778
10
5.2887296
20
1.3870767
11
5.2895296
21
1.3544767
0
LINE
8
DEFAULT_255_2_778
10
5.2895296
20
1.3544767
11
5.2768296
21
1.0684767
0
LINE
8
DEFAULT_255_2_778
10
5.2768296
20
1.0684767
11
5.2768296
21
1.0684767
0
LINE
8
DEFAULT_255_2_778
10
3.8833296
20
-0.2012233
11
3.7949296
21
-0.2031233
0
LINE
8
DEFAULT_255_2_778
10
3.7949296
20
-0.2031233
11
3.7446296
21
-0.2039233
0
LINE
8
DEFAULT_255_2_778
10
3.7446296
20
-0.2039233
11
3.7444296
21
-0.2033233
0
ARC
8
DEFAULT_255_2_778
10
4.5126994
20
1.4490572
40
0.1692786
50
90.8726707
51
179.989199
0
ARC
8
DEFAULT_255_2_778
10
4.5176095
20
1.4491828
40
0.1741887
50
180.0308078
51
180.1534962
0
ARC
8
DEFAULT_255_2_778
10
2.9228035
20
1.4139867
40
1.4377142
50
347.62391
51
351.2072346
0
ARC
8
DEFAULT_255_2_778
10
3.488754
20
1.2798616
40
0.8562238
50
341.0961788
51
348.27364
0
ARC
8
DEFAULT_255_2_778
10
4.0516955
20
1.091729
40
0.2627307
50
336.0046826
51
340.1373242
0
ARC
8
DEFAULT_255_2_778
10
4.1710743
20
1.0384129
40
0.1319873
50
330.2987671
51
336.0748717
0
ARC
8
DEFAULT_255_2_778
10
3.6483958
20
1.3530841
40
0.742048
50
316.4173682
51
329.1903353
0
ARC
8
DEFAULT_255_2_778
10
3.9955395
20
1.0356784
40
0.2719268
50
295.2063504
51
314.4367292
0
ARC
8
DEFAULT_255_2_778
10
3.6128304
20
1.7520688
40
1.0838726
50
294.1702422
51
297.3832842
0
ARC
8
DEFAULT_255_2_778
10
3.9715111
20
0.9442398
40
0.2000332
50
293.9290513
51
295.1810447
0
ARC
8
DEFAULT_255_2_778
10
3.9533485
20
1.0089839
40
0.2667544
50
269.1249067
51
291.8539532
0
ARC
8
DEFAULT_255_2_778
10
3.8586835
20
3.3464286
40
2.6057431
50
270.3463539
51
271.9923383
0
ARC
8
DEFAULT_255_2_778
10
3.6348846
20
22.2605759
40
21.5211761
50
270.6337374
51
270.6377682
0
ARC
8
DEFAULT_255_2_778
10
3.7453245
20
1.5249929
40
0.7862492
50
270.0097941
51
271.7635458
0
ARC
8
DEFAULT_255_2_778
10
3.741013
20
1.3629942
40
0.6242663
50
257.5772302
51
270.4080522
0
ARC
8
DEFAULT_255_2_778
10
3.7022068
20
1.1891644
40
0.4461585
50
238.9799356
51
257.6418064
0
ARC
8
DEFAULT_255_2_778
10
3.6799544
20
1.1468598
40
0.3984458
50
214.5517147
51
238.587187
0
ARC
8
DEFAULT_255_2_778
10
3.7160389
20
1.1735069
40
0.4432809
50
209.0661811
51
214.7432244
0
ARC
8
DEFAULT_255_2_778
10
3.769741
20
1.201658
40
0.5038981
50
196.5159094
51
208.8974645
0
ARC
8
DEFAULT_255_2_778
10
3.8175628
20
1.2173223
40
0.5542017
50
189.4500741
51
196.6630371
0
ARC
8
DEFAULT_255_2_778
10
3.7571452
20
1.2077306
40
0.4930294
50
185.2968557
51
189.5033446
0
ARC
8
DEFAULT_255_2_778
10
5.0475415
20
1.7868565
40
1.7853683
50
168.4116894
51
176.1409382
0
ARC
8
DEFAULT_255_2_778
10
4.1429643
20
1.9777968
40
0.8608906
50
156.2585193
51
168.766988
0
ARC
8
DEFAULT_255_2_778
10
3.6504819
20
2.2022113
40
0.3198143
50
130.4670241
51
157.5384922
0
ARC
8
DEFAULT_255_2_778
10
3.5523036
20
2.305004
40
0.1780719
50
121.3265911
51
127.8990256
0
ARC
8
DEFAULT_255_2_778
10
3.5646204
20
2.2813819
40
0.2046615
50
91.8016638
51
120.8337888
0
ARC
8
DEFAULT_255_2_778
10
3.5761553
20
2.1739556
40
0.3125037
50
89.9627747
51
93.2964179
0
ARC
8
DEFAULT_255_2_778
10
3.5677149
20
1.9894095
40
0.497125
50
75.0231672
51
89.0037564
0
ARC
8
DEFAULT_255_2_778
10
3.4328963
20
1.4564874
40
1.0468117
50
67.7904778
51
75.4327618
0
ARC
8
DEFAULT_255_2_778
10
3.2622022
20
1.0104338
40
1.5243298
50
67.34192
51
68.1880036
0
ARC
8
DEFAULT_255_2_778
10
3.5546231
20
1.7508027
40
0.7286148
50
46.7117488
51
66.133891
0
ARC
8
DEFAULT_255_2_778
10
3.3825436
20
1.5461915
40
0.9956573
50
46.2028225
51
47.5770717
0
ARC
8
DEFAULT_255_2_778
10
3.2962745
20
1.4590101
40
1.1182934
50
39.3615026
51
46.1039567
0
ARC
8
DEFAULT_255_2_778
10
3.3060158
20
1.4644735
40
1.1072984
50
35.6199969
51
39.4626086
0
ARC
8
DEFAULT_255_2_778
10
3.6451975
20
1.7056759
40
0.6911022
50
32.7973972
51
35.7417689
0
ARC
8
DEFAULT_255_2_778
10
4.170197
20
2.0431517
40
0.0669953
50
29.4748201
51
33.3937698
0
ARC
8
DEFAULT_255_2_778
10
4.3736029
20
2.1636196
40
0.1694271
50
211.0955342
51
269.9663766
0
ARC
8
DEFAULT_255_2_778
10
4.3735039
20
2.1626771
40
0.1684847
50
269.9998567
51
277.4008497
0
ARC
8
DEFAULT_255_2_778
10
4.3733417
20
2.1638092
40
0.1696282
50
277.405902
51
285.8326766
0
ARC
8
DEFAULT_255_2_778
10
4.3734902
20
2.1636517
40
0.1694363
50
285.7988817
51
0.0065358
0
ARC
8
DEFAULT_255_2_778
10
4.3688317
20
2.1636447
40
0.1740948
50
0.0086634
51
0.4513469
0
ARC
8
DEFAULT_255_2_778
10
4.3701007
20
2.8991599
40
0.1728221
50
359.7534406
51
359.999939
0
ARC
8
DEFAULT_255_2_778
10
4.3734077
20
2.8990639
40
0.1695152
50
0.0323734
51
67.4476986
0
ARC
8
DEFAULT_255_2_778
10
4.3736326
20
2.8995769
40
0.1689551
50
67.4514123
51
86.7940628
0
ARC
8
DEFAULT_255_2_778
10
4.3736292
20
2.8994468
40
0.1690851
50
86.795384
51
90.0005367
0
ARC
8
DEFAULT_255_2_778
10
4.3736029
20
2.8991332
40
0.1693987
50
89.991658
51
135.1910368
0
ARC
8
DEFAULT_255_2_778
10
4.3734949
20
2.898776
40
0.1695742
50
135.0797037
51
179.994162
0
ARC
8
DEFAULT_255_2_778
10
4.3817527
20
2.8988876
40
0.177832
50
180.0303813
51
180.1518991
0
ARC
8
DEFAULT_255_2_778
10
3.6065427
20
1.8435651
40
0.9617701
50
51.601735
51
67.1432745
0
ARC
8
DEFAULT_255_2_778
10
3.0131648
20
0.4327757
40
2.492268
50
67.1709752
51
67.9832681
0
ARC
8
DEFAULT_255_2_778
10
3.3967162
20
1.3800027
40
1.4703336
50
68.0022374
51
70.1656156
0
ARC
8
DEFAULT_255_2_778
10
3.4571635
20
1.5451404
40
1.2944825
50
70.2023425
51
71.2160542
0
ARC
8
DEFAULT_255_2_778
10
3.5113596
20
1.7110054
40
1.1200024
50
71.1086727
51
77.302453
0
ARC
8
DEFAULT_255_2_778
10
3.5710557
20
1.9905599
40
0.8341694
50
77.0818938
51
89.5978473
0
ARC
8
DEFAULT_255_2_778
10
3.5748989
20
2.1976463
40
0.6270658
50
89.8161841
51
100.6705816
0
ARC
8
DEFAULT_255_2_778
10
3.5559092
20
2.2974428
40
0.5254787
50
100.6506516
51
117.8205187
0
ARC
8
DEFAULT_255_2_778
10
3.5491819
20
2.3127239
40
0.5088256
50
117.9536222
51
121.6189402
0
ARC
8
DEFAULT_255_2_778
10
3.6067768
20
2.2368248
40
0.6037238
50
122.4971935
51
154.3765586
0
ARC
8
DEFAULT_255_2_778
10
4.0502637
20
2.0088737
40
1.1022605
50
153.6620466
51
167.4343838
0
ARC
8
DEFAULT_255_2_778
10
4.899839
20
1.8097941
40
1.9748204
50
167.1593506
51
175.3006752
0
ARC
8
DEFAULT_255_2_778
10
5.6187322
20
1.7342279
40
2.6975377
50
174.9520058
51
175.8931607
0
ARC
8
DEFAULT_255_2_778
10
2.9905238
20
1.1478504
40
0.0627134
50
178.9348718
51
185.7051054
0
ARC
8
DEFAULT_255_2_778
10
3.6751253
20
1.1938999
40
0.7488315
50
184.0036734
51
191.5884122
0
ARC
8
DEFAULT_255_2_778
10
3.8019652
20
1.2186123
40
0.8780511
50
191.505482
51
200.2484807
0
ARC
8
DEFAULT_255_2_778
10
3.8056683
20
1.2193945
40
0.8817962
50
200.2128852
51
204.644053
0
ARC
8
DEFAULT_255_2_778
10
3.7273367
20
1.1785433
40
0.793578
50
204.3214957
51
226.1076477
0
ARC
8
DEFAULT_255_2_778
10
3.6727728
20
1.1281067
40
0.7194148
50
226.4543496
51
247.6166902
0
ARC
8
DEFAULT_255_2_778
10
3.7143121
20
1.2343711
40
0.8334937
50
247.7580169
51
263.0214403
0
ARC
8
DEFAULT_255_2_778
10
3.74312
20
1.4385919
40
1.0397086
50
262.8130197
51
270.1134662
0
ARC
8
DEFAULT_255_2_778
10
3.7450216
20
1.5724475
40
1.1735624
50
270.0076856
51
271.7236628
0
ARC
8
DEFAULT_255_2_778
10
2.6255782
20
130.8431446
40
130.447618
50
270.5490578
51
270.5507603
0
ARC
8
DEFAULT_255_2_778
10
3.8963804
20
1.6673523
40
1.2659115
50
269.2358353
51
276.8639736
0
ARC
8
DEFAULT_255_2_778
10
3.9756613
20
0.9358399
40
0.5302388
50
277.8054339
51
295.1874885
0
ARC
8
DEFAULT_255_2_778
10
3.5924396
20
1.7787966
40
1.4561885
50
294.716823
51
298.051244
0
ARC
8
DEFAULT_255_2_778
10
4.0098084
20
1.019464
40
0.5898918
50
296.9580044
51
316.9278899
0
ARC
8
DEFAULT_255_2_778
10
3.6470355
20
1.3515948
40
1.0817257
50
317.1993174
51
329.619106
0
ARC
8
DEFAULT_255_2_778
10
3.998038
20
1.1176866
40
0.6610696
50
331.7231181
51
344.5123384
0
ARC
8
DEFAULT_255_2_778
10
3.2529494
20
1.342624
40
1.439278
50
343.8034148
51
349.2150678
0
ARC
8
DEFAULT_255_2_778
10
2.9490598
20
1.4056534
40
1.7496015
50
349.0496461
51
351.1761337
0
ARC
8
DEFAULT_255_2_778
10
2.9648381
20
1.4026575
40
1.7335503
50
351.1939841
51
351.7436669
0
ARC
8
DEFAULT_255_2_778
10
-13.3154039
20
1.8521039
40
18.0093716
50
357.7775624
51
358.0968684
0
ARC
8
DEFAULT_255_2_778
10
-15.8850111
20
1.9373629
40
20.5803928
50
358.097214
51
358.3765815
0
ARC
8
DEFAULT_255_2_778
10
4.512745
20
1.4489011
40
0.1692907
50
0.7497089
51
45.7751443
0
ARC
8
DEFAULT_255_2_778
10
4.512654
20
1.4484633
40
0.1696681
50
45.8562468
51
90.0202357
0
ARC
8
DEFAULT_255_2_778
10
4.5125948
20
1.4480848
40
0.1700465
50
90.0002215
51
90.7660763
0
LINE
8
DEFAULT_255_2_778
10
4.3434212
20
1.4487162
11
4.3479212
21
1.3535162
0
LINE
8
DEFAULT_255_2_778
10
4.3479212
20
1.3535162
11
4.3436212
21
1.1942162
0
LINE
8
DEFAULT_255_2_778
10
3.8729212
20
0.7407162
11
3.7695212
21
0.7391162
0
LINE
8
DEFAULT_255_2_778
10
3.2662212
20
1.1622162
11
3.2602212
21
1.4527162
0
LINE
8
DEFAULT_255_2_778
10
3.2602212
20
1.4527162
11
3.2662212
21
1.9070162
0
LINE
8
DEFAULT_255_2_778
10
4.5429212
20
2.1650162
11
4.5429212
21
2.8984162
0
LINE
8
DEFAULT_255_2_778
10
4.2039212
20
2.8984162
11
4.2039212
21
2.5973162
0
LINE
8
DEFAULT_255_2_778
10
2.9281212
20
1.9274162
11
2.9278212
21
1.9181162
0
LINE
8
DEFAULT_255_2_778
10
2.9278212
20
1.9181162
11
2.9215212
21
1.4485162
0
LINE
8
DEFAULT_255_2_778
10
2.9215212
20
1.4485162
11
2.9278212
21
1.1490162
0
LINE
8
DEFAULT_255_2_778
10
3.7803212
20
0.3994162
11
3.8756212
21
0.4015162
0
LINE
8
DEFAULT_255_2_778
10
4.6871212
20
1.3543162
11
4.6820212
21
1.4511162
0
LINE
8
DEFAULT_255_2_778
10
4.5103212
20
1.6181162
11
4.5101212
21
1.6183162
0
ARC
8
DEFAULT_255_2_778
10
1.6707701
20
2.546681
40
0.2627872
50
198.1398286
51
266.0478234
0
ARC
8
DEFAULT_255_2_778
10
1.9200293
20
2.6296813
40
0.5255008
50
182.7244625
51
198.2784677
0
ARC
8
DEFAULT_255_2_778
10
2.2923369
20
2.6612936
40
0.8989972
50
179.9175805
51
183.6090884
0
ARC
8
DEFAULT_255_2_778
10
2.6000973
20
2.660569
40
1.2067585
50
176.341623
51
179.9041986
0
ARC
8
DEFAULT_255_2_778
10
3.0290308
20
2.6337005
40
1.6365324
50
173.5301155
51
176.3610652
0
ARC
8
DEFAULT_255_2_778
10
3.381532
20
2.5958459
40
1.9910552
50
172.7585938
51
173.5907376
0
ARC
8
DEFAULT_255_2_778
10
7.2626512
20
2.17591
40
5.8940868
50
172.6551265
51
172.9872659
0
ARC
8
DEFAULT_255_2_778
10
6.1983535
20
2.3126151
40
4.8210455
50
172.5187328
51
172.6494457
0
ARC
8
DEFAULT_255_2_778
10
3.853231
20
2.6343202
40
2.4540371
50
169.421294
51
172.83689
0
ARC
8
DEFAULT_255_2_778
10
2.107858
20
2.9682899
40
0.6770625
50
159.6237093
51
170.0870719
0
ARC
8
DEFAULT_255_2_778
10
1.6274271
20
3.1563257
40
0.1614734
50
119.0181026
51
162.8157562
0
ARC
8
DEFAULT_255_2_778
10
1.6285196
20
3.1179889
40
0.1963219
50
87.5712046
51
113.862593
0
ARC
8
DEFAULT_255_2_778
10
1.6361875
20
2.8629414
40
0.4511934
50
87.0055193
51
89.9172356
0
ARC
8
DEFAULT_255_2_778
10
1.6222281
20
3.0423209
40
0.2737822
50
51.1014863
51
82.1211641
0
ARC
8
DEFAULT_255_2_778
10
1.4340151
20
2.7557939
40
0.6158703
50
50.764618
51
54.2143919
0
ARC
8
DEFAULT_255_2_778
10
2.0214794
20
3.4004249
40
0.2593546
50
220.2589763
51
221.1854665
0
ARC
8
DEFAULT_255_2_778
10
2.0491526
20
3.4246418
40
0.2961277
50
221.1859267
51
221.9910506
0
ARC
8
DEFAULT_255_2_778
10
2.0785782
20
3.4510909
40
0.3356931
50
221.9863007
51
222.6900733
0
ARC
8
DEFAULT_255_2_778
10
2.1153274
20
3.4849437
40
0.3856582
50
222.6849808
51
223.2912381
0
ARC
8
DEFAULT_255_2_778
10
2.158985
20
3.5261252
40
0.4456739
50
223.2962193
51
223.8147886
0
ARC
8
DEFAULT_255_2_778
10
2.2040377
20
3.5693811
40
0.5081306
50
223.8171954
51
224.2662738
0
ARC
8
DEFAULT_255_2_778
10
2.2635139
20
3.6274253
40
0.5912362
50
224.2712783
51
224.6519474
0
ARC
8
DEFAULT_255_2_778
10
2.3098426
20
3.6732473
40
0.6563975
50
224.6552236
51
224.9930696
0
ARC
8
DEFAULT_255_2_778
10
2.3678737
20
3.7311383
40
0.7383668
50
224.9861552
51
225.281809
0
ARC
8
DEFAULT_255_2_778
10
2.4877424
20
3.8521446
40
0.9086931
50
225.2797094
51
225.5159895
0
ARC
8
DEFAULT_255_2_778
10
2.6176346
20
3.9846273
40
1.0942293
50
225.5244108
51
225.8146553
0
ARC
8
DEFAULT_255_2_778
10
0.2796268
20
1.5167139
40
2.3054436
50
44.1283968
51
46.8965697
0
ARC
8
DEFAULT_255_2_778
10
1.3294926
20
2.5516956
40
0.8313296
50
41.6800313
51
43.3080836
0
ARC
8
DEFAULT_255_2_778
10
1.4912556
20
2.6904495
40
0.618259
50
29.1963795
51
42.0448331
0
ARC
8
DEFAULT_255_2_778
10
1.5524266
20
2.7277433
40
0.5466742
50
22.5081947
51
28.9116929
0
ARC
8
DEFAULT_255_2_778
10
1.0790287
20
2.5178322
40
1.0644439
50
15.3527113
51
23.191653
0
ARC
8
DEFAULT_255_2_778
10
1.4430666
20
2.6228481
40
0.6856104
50
6.2750936
51
14.9444279
0
ARC
8
DEFAULT_255_2_778
10
1.3130709
20
2.6080651
40
0.8164431
50
4.260436
51
6.3091746
0
ARC
8
DEFAULT_255_2_778
10
-5.7815964
20
1.7008212
40
7.9678605
50
6.2663594
51
6.9772489
0
ARC
8
DEFAULT_255_2_778
10
2.3049715
20
2.6019786
40
0.1692631
50
190.7115065
51
269.9790207
0
ARC
8
DEFAULT_255_2_778
10
2.3049093
20
2.6044606
40
0.1717451
50
270.0000774
51
270.3497715
0
ARC
8
DEFAULT_255_2_778
10
2.3051296
20
2.6019397
40
0.169223
50
270.2804118
51
349.9533344
0
ARC
8
DEFAULT_255_2_778
10
-273.7374656
20
14.2351415
40
276.4553385
50
357.5821658
51
357.657334
0
ARC
8
DEFAULT_255_2_778
10
-253.6101403
20
13.415908
40
256.3113481
50
357.6564013
51
357.8185544
0
ARC
8
DEFAULT_255_2_778
10
2.3433958
20
3.6603608
40
0.1720636
50
359.7529046
51
359.9999344
0
ARC
8
DEFAULT_255_2_778
10
2.3461321
20
3.6603967
40
0.1693272
50
359.9877714
51
89.5514328
0
ARC
8
DEFAULT_255_2_778
10
2.3470386
20
3.6995197
40
0.1301997
50
89.8155381
51
90.0615303
0
ARC
8
DEFAULT_255_2_778
10
2.3466056
20
3.6596674
40
0.1700524
50
89.9012261
51
179.5783941
0
ARC
8
DEFAULT_255_2_778
10
1.53782
20
2.8500091
40
0.8184718
50
39.0927106
51
77.1137984
0
ARC
8
DEFAULT_255_2_778
10
1.6515361
20
3.187903
40
0.4650839
50
81.4910478
51
86.7062251
0
ARC
8
DEFAULT_255_2_778
10
1.6348687
20
2.8529724
40
0.8004232
50
86.8926044
51
89.1915449
0
ARC
8
DEFAULT_255_2_778
10
1.6357159
20
2.8976018
40
0.7557863
50
89.2080251
51
89.9985315
0
ARC
8
DEFAULT_255_2_778
10
1.6295416
20
3.0634447
40
0.5899761
50
89.3984889
51
105.812409
0
ARC
8
DEFAULT_255_2_778
10
1.5868149
20
3.2171306
40
0.4304641
50
105.914602
51
137.1299543
0
ARC
8
DEFAULT_255_2_778
10
1.7944483
20
3.0626566
40
0.6883044
50
139.4652954
51
168.2800489
0
ARC
8
DEFAULT_255_2_778
10
2.7638369
20
2.8066423
40
1.6903424
50
166.4572662
51
172.3172794
0
ARC
8
DEFAULT_255_2_778
10
6.2154631
20
2.3219476
40
5.1758173
50
172.108
51
173.1717519
0
ARC
8
DEFAULT_255_2_778
10
2.8798294
20
2.6576032
40
1.824385
50
172.693645
51
176.1116467
0
ARC
8
DEFAULT_255_2_778
10
2.5879066
20
2.6772958
40
1.5317987
50
176.1060808
51
179.9425414
0
ARC
8
DEFAULT_255_2_778
10
2.1377727
20
2.6678098
40
1.0817203
50
179.4161805
51
193.5506726
0
ARC
8
DEFAULT_255_2_778
10
1.7075127
20
2.5578804
40
0.6377092
50
193.0064499
51
221.1815436
0
ARC
8
DEFAULT_255_2_778
10
1.654665
20
2.5326497
40
0.5815366
50
222.7392253
51
256.0774636
0
ARC
8
DEFAULT_255_2_778
10
1.7242708
20
2.7500643
40
0.8094553
50
254.9980385
51
261.2087477
0
ARC
8
DEFAULT_255_2_778
10
1.1028753
20
-1.3540211
40
3.341411
50
76.292074
51
81.434277
0
ARC
8
DEFAULT_255_2_778
10
1.5973303
20
0.6453106
40
1.2818723
50
65.8757703
51
76.5863777
0
ARC
8
DEFAULT_255_2_778
10
1.9314762
20
1.3697927
40
0.4841755
50
40.7797438
51
66.9236202
0
ARC
8
DEFAULT_255_2_778
10
2.0606141
20
1.4953644
40
0.3045608
50
359.3893932
51
38.7589793
0
ARC
8
DEFAULT_255_2_778
10
2.0589758
20
1.4890081
40
0.3061977
50
0.003633
51
0.5820642
0
ARC
8
DEFAULT_255_2_778
10
2.0511958
20
1.4892052
40
0.3139777
50
353.0942004
51
359.9675774
0
ARC
8
DEFAULT_255_2_778
10
1.9552582
20
1.5123675
40
0.4121636
50
313.7522673
51
351.5010594
0
ARC
8
DEFAULT_255_2_778
10
1.8628769
20
1.5897449
40
0.532106
50
310.5149714
51
315.1759811
0
ARC
8
DEFAULT_255_2_778
10
1.8569775
20
1.5948679
40
0.5398344
50
270.0109764
51
310.6377481
0
ARC
8
DEFAULT_255_2_778
10
1.8570869
20
1.5940633
40
0.5390298
50
264.4266196
51
269.9993672
0
ARC
8
DEFAULT_255_2_778
10
1.8571735
20
1.5949115
40
0.5398824
50
261.1762286
51
264.4262145
0
ARC
8
DEFAULT_255_2_778
10
1.9004357
20
1.8299686
40
0.7788225
50
250.4998756
51
260.683808
0
ARC
8
DEFAULT_255_2_778
10
2.1967246
20
2.1128416
40
1.1592103
50
238.6242697
51
241.323279
0
ARC
8
DEFAULT_255_2_778
10
2.2474283
20
2.2005796
40
1.2605196
50
233.6955046
51
238.7329602
0
ARC
8
DEFAULT_255_2_778
10
2.140498
20
2.0518717
40
1.0773694
50
232.6598943
51
233.5958865
0
ARC
8
DEFAULT_255_2_778
10
1.8753313
20
1.726293
40
0.657818
50
217.458296
51
233.8220909
0
ARC
8
DEFAULT_255_2_778
10
1.7454623
20
1.5886743
40
0.4720019
50
192.6923808
51
213.7829053
0
ARC
8
DEFAULT_255_2_778
10
2.216951
20
1.7147835
40
0.9598742
50
185.7505785
51
193.8524783
0
ARC
8
DEFAULT_255_2_778
10
2.3914048
20
1.7366788
40
1.135652
50
184.6294593
51
185.9677849
0
ARC
8
DEFAULT_255_2_778
10
1.088875
20
1.7166516
40
0.1721948
50
359.3235508
51
359.9995809
0
ARC
8
DEFAULT_255_2_778
10
1.0912152
20
1.7162843
40
0.169855
50
0.1234925
51
89.1085597
0
ARC
8
DEFAULT_255_2_778
10
1.090863
20
1.7175442
40
0.1686011
50
88.9822262
51
90.0033786
0
ARC
8
DEFAULT_255_2_778
10
1.090872
20
1.7171226
40
0.1690228
50
90.006439
51
134.1893495
0
ARC
8
DEFAULT_255_2_778
10
1.0911781
20
1.71656
40
0.1696397
50
134.1310287
51
179.1357513
0
ARC
8
DEFAULT_255_2_778
10
6.1250804
20
0.8996421
40
5.2274017
50
176.8738212
51
178.6066157
0
ARC
8
DEFAULT_255_2_778
10
6.7273287
20
0.8841078
40
5.8298498
50
178.5979175
51
180.007521
0
ARC
8
DEFAULT_255_2_778
10
6.9452421
20
0.8834126
40
6.0477633
50
180.0006641
51
181.0312655
0
ARC
8
DEFAULT_255_2_778
10
6.7899271
20
0.8805275
40
5.8924213
50
181.0303977
51
181.6103678
0
ARC
8
DEFAULT_255_2_778
10
6.4222401
20
0.8700482
40
5.5245852
50
181.6088923
51
182.1305197
0
ARC
8
DEFAULT_255_2_778
10
5.8786375
20
0.8498046
40
4.9806059
50
182.1302827
51
182.5282533
0
ARC
8
DEFAULT_255_2_778
10
5.1425636
20
0.8169316
40
4.2437984
50
182.5232396
51
182.9898196
0
ARC
8
DEFAULT_255_2_778
10
4.2218985
20
0.7690609
40
3.3218895
50
182.9935277
51
183.0462367
0
ARC
8
DEFAULT_255_2_778
10
4.6103833
20
0.7892978
40
3.7109009
50
183.0394985
51
183.0830378
0
ARC
8
DEFAULT_255_2_778
10
-2.2863971
20
0.4118094
40
3.1962056
50
2.9898191
51
3.1907951
0
ARC
8
DEFAULT_255_2_778
10
1.0748584
20
0.5894152
40
0.1697507
50
183.6804245
51
269.9255997
0
ARC
8
DEFAULT_255_2_778
10
1.0746288
20
0.5917441
40
0.1720793
50
270.0030412
51
273.6747292
0
ARC
8
DEFAULT_255_2_778
10
1.0747612
20
0.5894193
40
0.1697507
50
273.6804245
51
359.9255997
0
ARC
8
DEFAULT_255_2_778
10
1.0724324
20
0.5891898
40
0.1720793
50
0.0030412
51
3.6747292
0
ARC
8
DEFAULT_255_2_778
10
1.9402691
20
1.9955375
40
1.2875169
50
236.8789682
51
260.0932364
0
ARC
8
DEFAULT_255_2_778
10
1.8602073
20
1.5720991
40
0.8566393
50
260.4957108
51
265.1916
0
ARC
8
DEFAULT_255_2_778
10
1.8600996
20
1.5709749
40
0.8555099
50
265.1924768
51
269.9999229
0
ARC
8
DEFAULT_255_2_778
10
1.8576064
20
1.5888264
40
0.8733651
50
270.163485
51
310.832649
0
ARC
8
DEFAULT_255_2_778
10
1.9287829
20
1.5287886
40
0.7815365
50
309.7623941
51
345.4061812
0
ARC
8
DEFAULT_255_2_778
10
2.0492239
20
1.4885017
40
0.6548875
50
346.1621297
51
359.9235252
0
ARC
8
DEFAULT_255_2_778
10
2.0686296
20
1.487627
40
0.6354811
50
0.000051
51
0.7385962
0
ARC
8
DEFAULT_255_2_778
10
2.0013333
20
1.4938689
40
0.7027272
50
0.1589715
51
17.4292391
0
ARC
8
DEFAULT_255_2_778
10
2.0443861
20
1.4904859
40
0.6628604
50
18.8230191
51
60.5959854
0
ARC
8
DEFAULT_255_2_778
10
1.7186823
20
0.9687293
40
1.2776108
50
59.3589307
51
73.1736888
0
ARC
8
DEFAULT_255_2_778
10
1.4454002
20
0.1205286
40
2.1686641
50
72.7495898
51
78.3758238
0
ARC
8
DEFAULT_255_2_778
10
1.1928386
20
-1.06994
40
3.3856138
50
78.2486855
51
80.3577616
0
ARC
8
DEFAULT_255_2_778
10
0.4738693
20
-5.3216822
40
7.6977158
50
80.3825901
51
81.1951269
0
LINE
8
DEFAULT_255_2_778
10
1.4063578
20
2.8468187
11
1.4126578
21
2.8955187
0
LINE
8
DEFAULT_255_2_778
10
2.1386578
20
2.5705187
11
2.1386578
21
2.5705187
0
LINE
8
DEFAULT_255_2_778
10
2.1765578
20
3.6609187
11
2.1730578
21
3.3661187
0
LINE
8
DEFAULT_255_2_778
10
1.0763578
20
2.9373187
11
1.0702578
21
2.8896187
0
LINE
8
DEFAULT_255_2_778
10
1.2594578
20
1.6450187
11
1.2610578
21
1.7146187
0
LINE
8
DEFAULT_255_2_778
10
0.9215578
20
1.7191187
11
0.9054578
21
1.1847187
0
LINE
8
DEFAULT_255_2_778
10
1.2441578
20
0.6002187
11
1.2367578
21
0.9172187
0
LINE
8
DEFAULT_255_2_778
10
1.6521578
20
2.2853187
11
1.6526578
21
2.2845187
0
ARC
8
DEFAULT_255_2_778
10
7.2741549
20
1.1020261
40
0.1685909
50
72.6588054
51
88.6472308
0
ARC
8
DEFAULT_255_2_778
10
7.2741101
20
1.1011335
40
0.1694842
50
88.6392104
51
89.9970055
0
ARC
8
DEFAULT_255_2_778
10
7.2741203
20
1.1012699
40
0.1693477
50
90.0004593
51
117.8128018
0
ARC
8
DEFAULT_255_2_778
10
7.2743961
20
1.1009601
40
0.1697505
50
117.846348
51
162.8362692
0
ARC
8
DEFAULT_255_2_778
10
6.216775
20
1.4175277
40
0.9342396
50
336.3484263
51
343.4273678
0
ARC
8
DEFAULT_255_2_778
10
6.7806162
20
1.1656057
40
0.3167283
50
321.741706
51
337.1738621
0
ARC
8
DEFAULT_255_2_778
10
6.9237817
20
1.0559744
40
0.1364503
50
290.3450003
51
320.6651472
0
ARC
8
DEFAULT_255_2_778
10
7.0593741
20
0.7313423
40
0.2155445
50
114.1404824
51
115.5219395
0
ARC
8
DEFAULT_255_2_778
10
6.9238824
20
1.0180181
40
0.1015427
50
268.873682
51
294.8189754
0
ARC
8
DEFAULT_255_2_778
10
6.9308185
20
1.167796
40
0.2514597
50
250.2126595
51
267.9643736
0
ARC
8
DEFAULT_255_2_778
10
7.0387969
20
1.5195805
40
0.619274
50
248.5867895
51
251.8307636
0
ARC
8
DEFAULT_255_2_778
10
6.885663
20
1.0347097
40
0.1171478
50
214.427179
51
231.4802657
0
ARC
8
DEFAULT_255_2_778
10
7.0643627
20
1.1770042
40
0.3453817
50
214.2257156
51
217.1391195
0
ARC
8
DEFAULT_255_2_778
10
7.0646473
20
1.178283
40
0.3463377
50
207.4183895
51
214.3741592
0
ARC
8
DEFAULT_255_2_778
10
6.9840618
20
1.1353972
40
0.2550582
50
205.1614529
51
207.2027489
0
ARC
8
DEFAULT_255_2_778
10
6.8994424
20
1.0921136
40
0.1600971
50
196.6920867
51
204.0165613
0
ARC
8
DEFAULT_255_2_778
10
7.0948196
20
1.1541421
40
0.3650727
50
194.7487488
51
197.2095123
0
ARC
8
DEFAULT_255_2_778
10
7.6259444
20
1.2867915
40
0.9124942
50
189.8265242
51
194.313271
0
ARC
8
DEFAULT_255_2_778
10
9.0476149
20
1.5372237
40
2.356051
50
186.2067661
51
189.9269065
0
ARC
8
DEFAULT_255_2_778
10
9.0569184
20
1.5480764
40
2.3664936
50
183.2035598
51
186.4436302
0
ARC
8
DEFAULT_255_2_778
10
8.0411219
20
1.4880078
40
1.3489315
50
181.4210945
51
183.0672828
0
ARC
8
DEFAULT_255_2_778
10
3.0344415
20
1.3707241
40
3.6591241
50
1.3127519
51
5.6491826
0
ARC
8
DEFAULT_255_2_778
10
4.5296508
20
1.522555
40
2.1562346
50
5.5453034
51
12.0988872
0
ARC
8
DEFAULT_255_2_778
10
5.4661758
20
1.7275855
40
1.1975452
50
11.8988486
51
22.5151288
0
ARC
8
DEFAULT_255_2_778
10
5.965117
20
1.9387333
40
0.6557919
50
22.1660387
51
41.317134
0
ARC
8
DEFAULT_255_2_778
10
6.0701735
20
2.0213411
40
0.522399
50
42.1196839
51
42.8109752
0
ARC
8
DEFAULT_255_2_778
10
6.001754
20
3.0530064
40
0.81354
50
303.7222779
51
319.9062505
0
ARC
8
DEFAULT_255_2_778
10
6.687222
20
2.464907
40
0.089992
50
133.6151976
51
134.5361419
0
ARC
8
DEFAULT_255_2_778
10
6.6182893
20
2.5375969
40
0.010188
50
312.2888083
51
334.768649
0
ARC
8
DEFAULT_255_2_778
10
5.5881738
20
3.3451105
40
1.3188332
50
322.0054181
51
330.9803559
0
ARC
8
DEFAULT_255_2_778
10
6.0569176
20
3.0885053
40
0.7844627
50
330.7610399
51
344.8641402
0
ARC
8
DEFAULT_255_2_778
10
6.3171064
20
3.0157252
40
0.5143017
50
345.1223473
51
359.6480418
0
ARC
8
DEFAULT_255_2_778
10
6.4180878
20
3.0144001
40
0.4133147
50
359.7457426
51
30.5290916
0
ARC
8
DEFAULT_255_2_778
10
6.3515924
20
2.9630799
40
0.4967709
50
31.7318749
51
61.4097437
0
ARC
8
DEFAULT_255_2_778
10
6.1215994
20
2.568285
40
0.9535766
50
60.6272614
51
74.1170954
0
ARC
8
DEFAULT_255_2_778
10
5.8998538
20
1.8069173
40
1.7465703
50
73.9558666
51
83.0074259
0
ARC
8
DEFAULT_255_2_778
10
5.7473075
20
0.6336048
40
2.9297392
50
82.8397907
51
88.5839114
0
ARC
8
DEFAULT_255_2_778
10
5.7115684
20
-0.3210627
40
3.8850173
50
88.4049374
51
90.0173218
0
ARC
8
DEFAULT_255_2_778
10
5.7162019
20
-1.1683994
40
4.7323574
50
90.0703186
51
93.1823616
0
ARC
8
DEFAULT_255_2_778
10
5.7628194
20
-2.0788169
40
5.6439605
50
93.1418016
51
94.9118408
0
ARC
8
DEFAULT_255_2_778
10
5.7973928
20
-2.4952766
40
6.0618512
50
94.9003844
51
95.8738289
0
ARC
8
DEFAULT_255_2_778
10
5.8102715
20
-2.6224844
40
6.1897092
50
95.8719116
51
96.74097
0
ARC
8
DEFAULT_255_2_778
10
5.8042871
20
-2.5721186
40
6.138989
50
96.7406806
51
97.1981538
0
ARC
8
DEFAULT_255_2_778
10
5.7835563
20
-2.4083381
40
5.9739017
50
97.1977174
51
97.682176
0
ARC
8
DEFAULT_255_2_778
10
5.7464669
20
-2.133738
40
5.6968081
50
97.6816877
51
98.0641752
0
ARC
8
DEFAULT_255_2_778
10
5.7009304
20
-1.8126355
40
5.3724928
50
98.063735
51
98.4268987
0
ARC
8
DEFAULT_255_2_778
10
4.9383773
20
3.3344303
40
0.1692464
50
98.4164267
51
179.9022579
0
ARC
8
DEFAULT_255_2_778
10
4.9395826
20
3.3347613
40
0.1704515
50
180.0142198
51
188.5044117
0
ARC
8
DEFAULT_255_2_778
10
4.9366645
20
3.3321937
40
0.1671991
50
187.782078
51
270.1259998
0
ARC
8
DEFAULT_255_2_778
10
4.9369857
20
3.3361254
40
0.1711304
50
270.0155713
51
278.6777323
0
ARC
8
DEFAULT_255_2_778
10
5.1474701
20
2.2373611
40
0.169393
50
89.988112
51
134.9932785
0
ARC
8
DEFAULT_255_2_778
10
5.1475134
20
2.2373828
40
0.1694081
50
135.0088329
51
179.9759275
0
ARC
8
DEFAULT_255_2_778
10
5.1478817
20
2.2373773
40
0.1697765
50
179.9741017
51
224.8918514
0
ARC
8
DEFAULT_255_2_778
10
5.147534
20
2.2374012
40
0.1695472
50
224.9805114
51
269.9902923
0
ARC
8
DEFAULT_255_2_778
10
5.0275335
20
0.8817012
40
0.1694934
50
98.2182969
51
158.3424997
0
ARC
8
DEFAULT_255_2_778
10
5.0276129
20
0.8815235
40
0.1696328
50
158.2965978
51
177.6659451
0
ARC
8
DEFAULT_255_2_778
10
5.0281655
20
0.8814958
40
0.170186
50
177.6642193
51
179.9975856
0
ARC
8
DEFAULT_255_2_778
10
5.0277191
20
0.8814469
40
0.1697395
50
179.9810656
51
218.2965494
0
ARC
8
DEFAULT_255_2_778
10
5.0277622
20
0.8814118
40
0.1697515
50
218.278226
51
269.9583967
0
ARC
8
DEFAULT_255_2_778
10
5.0276304
20
0.8809175
40
0.1692571
50
270.002888
51
278.0760278
0
ARC
8
DEFAULT_255_2_778
10
5.0284317
20
0.8752761
40
0.163559
50
278.075755
51
278.3576508
0
ARC
8
DEFAULT_255_2_778
10
5.8455007
20
1.0012017
40
0.1694291
50
278.3158568
51
359.9243487
0
ARC
8
DEFAULT_255_2_778
10
5.8440478
20
1.0009376
40
0.1708821
50
0.0135426
51
8.1470319
0
ARC
8
DEFAULT_255_2_778
10
5.8445276
20
1.0004923
40
0.170471
50
8.3180421
51
89.9963731
0
ARC
8
DEFAULT_255_2_778
10
5.844568
20
0.9991109
40
0.1718525
50
90.0098734
51
97.8470103
0
ARC
8
DEFAULT_255_2_778
10
5.0357757
20
5.5126732
40
3.4493137
50
278.9283304
51
286.5029725
0
ARC
8
DEFAULT_255_2_778
10
6.0499766
20
1.9569288
40
0.2508634
50
90.023967
51
97.8288802
0
ARC
8
DEFAULT_255_2_778
10
6.0498867
20
1.963015
40
0.2447772
50
87.522481
51
90.0035135
0
ARC
8
DEFAULT_255_2_778
10
6.0500268
20
1.9658645
40
0.2419243
50
83.9784443
51
87.5264548
0
ARC
8
DEFAULT_255_2_778
10
6.0673568
20
2.0194402
40
0.1871869
50
39.3787424
51
87.5357047
0
ARC
8
DEFAULT_255_2_778
10
6.0010333
20
1.9701125
40
0.2697774
50
35.5211636
51
38.539865
0
ARC
8
DEFAULT_255_2_778
10
5.955899
20
1.9383396
40
0.3249724
50
28.4474455
51
35.457118
0
ARC
8
DEFAULT_255_2_778
10
5.8658049
20
1.888014
40
0.4281629
50
25.7778762
51
28.6257517
0
ARC
8
DEFAULT_255_2_778
10
5.6488232
20
1.7901715
40
0.6661314
50
15.6294235
51
25.2397911
0
ARC
8
DEFAULT_255_2_778
10
5.0933575
20
1.6298798
40
1.2442523
50
9.5246781
51
15.84651
0
ARC
8
DEFAULT_255_2_778
10
4.2404567
20
1.4836109
40
2.1096011
50
4.9450699
51
9.609442
0
ARC
8
DEFAULT_255_2_778
10
3.0595629
20
1.3774042
40
3.2952569
50
1.7085322
51
5.0149242
0
ARC
8
DEFAULT_255_2_778
10
2.2361726
20
1.3452904
40
4.1192456
50
1.3905586
51
1.8135478
0
ARC
8
DEFAULT_255_2_778
10
8.0253446
20
1.4943117
40
1.6718593
50
181.6814833
51
183.3788691
0
ARC
8
DEFAULT_255_2_778
10
9.3724311
20
1.5693232
40
3.0210285
50
183.2932621
51
184.8758787
0
ARC
8
DEFAULT_255_2_778
10
9.2126715
20
1.5505539
40
2.8602562
50
184.7732723
51
188.289179
0
ARC
8
DEFAULT_255_2_778
10
7.829136
20
1.3406601
40
1.4609376
50
187.9661083
51
194.8745484
0
ARC
8
DEFAULT_255_2_778
10
6.9400287
20
1.1047649
40
0.5410689
50
194.9006549
51
204.2248833
0
ARC
8
DEFAULT_255_2_778
10
6.9712256
20
1.1271815
40
0.5787671
50
204.9814304
51
209.2071107
0
ARC
8
DEFAULT_255_2_778
10
7.0403177
20
1.1640579
40
0.6570712
50
209.0739823
51
216.7780624
0
ARC
8
DEFAULT_255_2_778
10
6.9866341
20
1.1249193
40
0.5906404
50
216.8549639
51
219.2179274
0
ARC
8
DEFAULT_255_2_778
10
6.8496584
20
0.9995041
40
0.40536
50
217.725274
51
247.0051627
0
ARC
8
DEFAULT_255_2_778
10
7.0839829
20
1.6296408
40
1.0773951
50
248.6250632
51
249.0155075
0
ARC
8
DEFAULT_255_2_778
10
6.9633425
20
1.296294
40
0.7229849
50
248.4815664
51
259.9676526
0
ARC
8
DEFAULT_255_2_778
10
6.9241675
20
1.0946919
40
0.5176526
50
260.3501923
51
269.856018
0
ARC
8
DEFAULT_255_2_778
10
6.9244828
20
1.0169727
40
0.4399347
50
269.7895159
51
290.3326248
0
ARC
8
DEFAULT_255_2_778
10
6.9212366
20
1.0239939
40
0.4476468
50
290.4099706
51
295.6776486
0
ARC
8
DEFAULT_255_2_778
10
6.9027014
20
1.0838513
40
0.509708
50
294.6398369
51
333.216314
0
ARC
8
DEFAULT_255_2_778
10
6.4116897
20
1.3467591
40
1.0665982
50
332.4943156
51
342.6447955
0
ARC
8
DEFAULT_255_2_778
10
5.8166093
20
1.5526843
40
1.69612
50
342.00157
51
342.7690932
0
ARC
8
DEFAULT_255_2_778
10
7.2751341
20
1.1005891
40
0.1691347
50
342.6862833
51
358.222538
0
ARC
8
DEFAULT_255_2_778
10
7.2750203
20
1.1005915
40
0.1692487
50
358.2229216
51
359.9975118
0
ARC
8
DEFAULT_255_2_778
10
7.2750779
20
1.1005778
40
0.169191
50
0.0021378
51
27.8259545
0
ARC
8
DEFAULT_255_2_778
10
7.2748526
20
1.1005544
40
0.1694012
50
27.7973745
51
72.8851624
0
ARC
8
DEFAULT_255_2_778
10
5.9816351
20
3.1039124
40
0.5014212
50
313.7175105
51
319.1819651
0
ARC
8
DEFAULT_255_2_778
10
5.9542217
20
3.1297561
40
0.539049
50
311.2337606
51
313.9250385
0
ARC
8
DEFAULT_255_2_778
10
6.0663694
20
2.9971699
40
0.3654331
50
301.6099594
51
311.7125815
0
ARC
8
DEFAULT_255_2_778
10
5.9530612
20
3.269113
40
0.6580307
50
285.1869068
51
297.5981389
0
ARC
8
DEFAULT_255_2_778
10
3.5414133
20
11.0389028
40
8.7930966
50
286.9471287
51
287.0898177
0
ARC
8
DEFAULT_255_2_778
10
5.0421693
20
5.391206
40
2.9568907
50
280.2987659
51
289.2803122
0
ARC
8
DEFAULT_255_2_778
10
5.6984643
20
-1.4349285
40
4.6894087
50
90.0158899
51
91.59906
0
ARC
8
DEFAULT_255_2_778
10
5.7090086
20
-0.2654746
40
3.5199746
50
85.1298439
51
90.1928019
0
ARC
8
DEFAULT_255_2_778
10
5.8551914
20
1.3946388
40
1.8534503
50
78.2642854
51
85.275592
0
ARC
8
DEFAULT_255_2_778
10
6.0834724
20
2.4667785
40
0.75731
50
66.5441457
51
78.6757417
0
ARC
8
DEFAULT_255_2_778
10
6.3031444
20
2.9549647
40
0.2221421
50
38.0862417
51
68.401781
0
ARC
8
DEFAULT_255_2_778
10
6.385201
20
3.0286377
40
0.1123536
50
30.2001098
51
34.3249539
0
ARC
8
DEFAULT_255_2_778
10
6.4132678
20
3.0465178
40
0.0791134
50
357.4906697
51
29.2332079
0
ARC
8
DEFAULT_255_2_778
10
6.2254988
20
3.0590094
40
0.2672832
50
332.5615464
51
356.5777037
0
ARC
8
DEFAULT_255_2_778
10
5.7182942
20
3.297634
40
0.8276783
50
322.8271933
51
334.0802874
0
ARC
8
DEFAULT_255_2_778
10
5.366493
20
3.5453866
40
1.257788
50
322.2792054
51
323.517442
0
LINE
8
DEFAULT_255_2_778
10
4.9628053
20
3.166954
11
5.2279053
21
3.198454
0
LINE
8
DEFAULT_255_2_778
10
5.2279053
20
3.198454
11
5.2313053
21
2.409454
0
LINE
8
DEFAULT_255_2_778
10
5.2313053
20
2.409454
11
5.1475053
21
2.406754
0
LINE
8
DEFAULT_255_2_778
10
5.1475053
20
2.067854
11
5.2329053
21
2.069954
0
LINE
8
DEFAULT_255_2_778
10
5.2329053
20
2.069954
11
5.2366053
21
1.083554
0
LINE
8
DEFAULT_255_2_778
10
5.2366053
20
1.083554
11
5.0033053
21
1.049454
0
LINE
8
DEFAULT_255_2_778
10
5.0522053
20
0.713454
11
5.8700053
21
0.833554
0
LINE
8
DEFAULT_255_2_778
10
5.8211053
20
1.169354
11
5.5756053
21
1.132854
0
LINE
8
DEFAULT_255_2_778
10
5.5756053
20
1.132854
11
5.5711053
21
2.105154
0
LINE
8
DEFAULT_255_2_778
10
6.0156053
20
2.205454
11
6.0158053
21
2.205454
0
LINE
8
DEFAULT_255_2_778
10
7.3247053
20
1.262454
11
7.3244053
21
1.262954
0
LINE
8
DEFAULT_255_2_778
10
6.1045053
20
2.627654
11
6.0185053
21
2.600154
0
LINE
8
DEFAULT_255_2_778
10
5.5708053
20
2.481954
11
5.5676053
21
3.252654
0
LINE
8
DEFAULT_255_2_778
10
6.3614053
20
2.775854
11
6.3611053
21
2.776154
0
ARC
8
DEFAULT_255_2_778
10
13.422028
20
1.6270014
40
0.1692257
50
91.0583162
51
179.9716454
0
LINE
8
DEFAULT_255_2_778
10
13.2528023
20
1.6270852
11
13.2528024
21
1.6268983
0
ARC
8
DEFAULT_255_2_778
10
14.1442317
20
1.691957
40
0.8938003
50
184.1741833
51
184.7533751
0
ARC
8
DEFAULT_255_2_778
10
3.8889526
20
0.8672051
40
9.3945931
50
4.4635361
51
4.5831689
0
ARC
8
DEFAULT_255_2_778
10
8.3017077
20
1.213011
40
4.9683094
50
4.4175416
51
4.4481286
0
ARC
8
DEFAULT_255_2_778
10
12.1057661
20
1.5014061
40
1.1533516
50
3.2543344
51
4.6891043
0
ARC
8
DEFAULT_255_2_778
10
13.213186
20
1.5648698
40
0.0441175
50
0.4266657
51
2.6115262
0
ARC
8
DEFAULT_255_2_778
10
11.8433056
20
1.6265842
40
1.4268972
50
347.5088968
51
351.0947136
0
ARC
8
DEFAULT_255_2_778
10
12.3955212
20
1.4941438
40
0.8591642
50
340.9367881
51
348.1669744
0
ARC
8
DEFAULT_255_2_778
10
12.9459931
20
1.3093312
40
0.2785658
50
336.6818099
51
339.8850913
0
ARC
8
DEFAULT_255_2_778
10
13.0701889
20
1.2550886
40
0.1430444
50
330.4300893
51
336.9424847
0
ARC
8
DEFAULT_255_2_778
10
12.7345147
20
1.4464816
40
0.5294487
50
324.6804252
51
330.3419344
0
ARC
8
DEFAULT_255_2_778
10
12.3633974
20
1.7232871
40
0.9923538
50
318.4779105
51
324.0279594
0
ARC
8
DEFAULT_255_2_778
10
10.4036859
20
3.4012247
40
3.5721667
50
318.8942021
51
319.1650228
0
ARC
8
DEFAULT_255_2_778
10
12.9032127
20
1.2513679
40
0.2763477
50
295.3656805
51
314.0353029
0
ARC
8
DEFAULT_255_2_778
10
12.2654949
20
2.4568676
40
1.6399133
50
295.2875436
51
297.4557311
0
ARC
8
DEFAULT_255_2_778
10
12.8827674
20
1.153763
40
0.1980088
50
293.9241386
51
294.857331
0
ARC
8
DEFAULT_255_2_778
10
12.8609267
20
1.2314193
40
0.278089
50
268.4217333
51
291.5483927
0
ARC
8
DEFAULT_255_2_778
10
12.7665665
20
3.9247928
40
2.9726216
50
270.3574647
51
271.6713546
0
ARC
8
DEFAULT_255_2_778
10
12.5261948
20
26.1084391
40
25.1575425
50
270.5828341
51
270.5896897
0
ARC
8
DEFAULT_255_2_778
10
12.6538624
20
1.7328699
40
0.7824821
50
270.010597
51
271.8557971
0
ARC
8
DEFAULT_255_2_778
10
12.6495955
20
1.5713717
40
0.6209995
50
257.5525027
51
270.4070387
0
ARC
8
DEFAULT_255_2_778
10
12.6110864
20
1.3992766
40
0.4446496
50
238.8484368
51
257.6181764
0
ARC
8
DEFAULT_255_2_778
10
12.5897923
20
1.3586352
40
0.3988628
50
214.3887167
51
238.4461642
0
ARC
8
DEFAULT_255_2_778
10
12.6265739
20
1.3857265
40
0.4445201
50
209.1037991
51
214.5926281
0
ARC
8
DEFAULT_255_2_778
10
12.6801578
20
1.4138376
40
0.5050137
50
196.5595907
51
208.9334924
0
ARC
8
DEFAULT_255_2_778
10
12.7273654
20
1.4293742
40
0.5546934
50
189.4996071
51
196.7080748
0
ARC
8
DEFAULT_255_2_778
10
12.6641801
20
1.4192769
40
0.4907084
50
185.3412268
51
189.5543985
0
ARC
8
DEFAULT_255_2_778
10
13.9379996
20
2.001353
40
1.7662796
50
168.3876585
51
176.2004195
0
ARC
8
DEFAULT_255_2_778
10
13.0503805
20
2.1891223
40
0.8590485
50
156.204648
51
168.7383631
0
ARC
8
DEFAULT_255_2_778
10
12.5614849
20
2.41246
40
0.3216807
50
130.5534429
51
157.4688457
0
ARC
8
DEFAULT_255_2_778
10
12.4626034
20
2.5157986
40
0.179052
50
121.4799441
51
128.0106069
0
ARC
8
DEFAULT_255_2_778
10
12.4745082
20
2.4916718
40
0.2058591
50
91.6493106
51
120.7990494
0
ARC
8
DEFAULT_255_2_778
10
12.4858092
20
2.3844369
40
0.3134823
50
89.9666564
51
93.1500274
0
ARC
8
DEFAULT_255_2_778
10
12.4773392
20
2.2009393
40
0.4970553
50
75.0231993
51
89.0025799
0
ARC
8
DEFAULT_255_2_778
10
12.3415283
20
1.6641929
40
1.0506929
50
67.8163909
51
75.4328839
0
ARC
8
DEFAULT_255_2_778
10
12.1665028
20
1.2066062
40
1.5405309
50
67.3766045
51
68.214496
0
ARC
8
DEFAULT_255_2_778
10
12.4679921
20
1.9679812
40
0.7219142
50
46.5960842
51
66.2186273
0
ARC
8
DEFAULT_255_2_778
10
12.2937382
20
1.7613805
40
0.9918706
50
46.1022739
51
47.4835567
0
ARC
8
DEFAULT_255_2_778
10
12.2013353
20
1.6683644
40
1.1229676
50
39.2903905
51
45.9957053
0
ARC
8
DEFAULT_255_2_778
10
12.1810696
20
1.6493622
40
1.1506869
50
35.6916508
51
39.383673
0
ARC
8
DEFAULT_255_2_778
10
12.39028
20
1.7991658
40
0.893374
50
33.4467654
51
35.7168158
0
ARC
8
DEFAULT_255_2_778
10
13.2882514
20
2.3899579
40
0.1815248
50
212.8243889
51
214.2486534
0
ARC
8
DEFAULT_255_2_778
10
13.2825733
20
2.3768163
40
0.1696089
50
211.6576824
51
270.094614
0
ARC
8
DEFAULT_255_2_778
10
13.2828505
20
2.3777474
40
0.1705396
50
270.0009543
51
276.6204393
0
ARC
8
DEFAULT_255_2_778
10
13.2827587
20
2.3784026
40
0.1712011
50
276.6256718
51
285.4625577
0
ARC
8
DEFAULT_255_2_778
10
13.2826414
20
2.3764603
40
0.1693614
50
285.6760207
51
359.9113694
0
ARC
8
DEFAULT_255_2_778
10
13.2825127
20
3.1102934
40
0.1694897
50
0.0354508
51
45.0275354
0
ARC
8
DEFAULT_255_2_778
10
13.2828262
20
3.1107622
40
0.1689365
50
44.9903631
51
90.0158094
0
LINE
8
DEFAULT_255_2_778
10
13.2827795
20
3.2796987
11
13.2824024
21
3.2796983
0
ARC
8
DEFAULT_255_2_778
10
13.2830043
20
3.1094951
40
0.1702042
50
90.2026264
51
179.695969
0
ARC
8
DEFAULT_255_2_778
10
12.5049411
20
2.0376217
40
0.9817057
50
51.7430683
51
66.9569824
0
ARC
8
DEFAULT_255_2_778
10
11.8643467
20
0.5017
40
2.6458468
50
67.2105981
51
67.9783233
0
ARC
8
DEFAULT_255_2_778
10
12.2995294
20
1.5762394
40
1.4865287
50
67.9986065
51
70.1470696
0
ARC
8
DEFAULT_255_2_778
10
12.3640277
20
1.7522912
40
1.2990363
50
70.185731
51
71.2001776
0
ARC
8
DEFAULT_255_2_778
10
12.4197682
20
1.9226724
40
1.1197837
50
71.0906421
51
77.2821037
0
ARC
8
DEFAULT_255_2_778
10
12.4799839
20
2.2040286
40
0.8320798
50
77.0615901
51
89.5967455
0
ARC
8
DEFAULT_255_2_778
10
12.4838089
20
2.4109415
40
0.6251496
50
89.8138283
51
100.7753132
0
ARC
8
DEFAULT_255_2_778
10
12.4650073
20
2.5092505
40
0.5250589
50
100.765454
51
117.7185749
0
ARC
8
DEFAULT_255_2_778
10
12.4586644
20
2.5237613
40
0.5092644
50
117.8461907
51
121.6680113
0
ARC
8
DEFAULT_255_2_778
10
12.5154337
20
2.4481379
40
0.6034928
50
122.4859089
51
154.4560333
0
ARC
8
DEFAULT_255_2_778
10
12.9586117
20
2.2209503
40
1.101404
50
153.7339129
51
167.4944469
0
ARC
8
DEFAULT_255_2_778
10
13.8046797
20
2.0236515
40
1.9701435
50
167.2206321
51
175.3645158
0
ARC
8
DEFAULT_255_2_778
10
14.5165438
20
1.9495435
40
2.6857179
50
175.0160225
51
175.9591838
0
ARC
8
DEFAULT_255_2_778
10
12.7218524
20
2.1162208
40
0.8846381
50
178.5375558
51
179.3067488
0
ARC
8
DEFAULT_255_2_778
10
37.1968337
20
1.7280913
40
25.3626909
50
179.0989763
51
179.1764962
0
ARC
8
DEFAULT_255_2_778
10
144.6243177
20
0.1710701
40
132.8014576
50
179.1709418
51
179.2036156
0
ARC
8
DEFAULT_255_2_778
10
429.8546449
20
-3.8085746
40
418.0595463
50
179.2015844
51
179.21628
0
LINE
8
DEFAULT_255_2_778
10
11.8342079
20
1.9096723
11
11.8341064
21
1.9022565
0
ARC
8
DEFAULT_255_2_778
10
890.5976497
20
-10.1134491
40
878.8456873
50
179.2166194
51
179.2248885
0
ARC
8
DEFAULT_255_2_778
10
960.1318556
20
-11.0608504
40
948.3863467
50
179.2244857
51
179.2282703
0
ARC
8
DEFAULT_255_2_778
10
1381.9415356
20
-16.7400787
40
1370.2342575
50
179.2283775
51
179.2298177
0
ARC
8
DEFAULT_255_2_778
10
-746.1789991
20
11.8550182
40
758.0783818
50
359.2298651
51
359.2308216
0
ARC
8
DEFAULT_255_2_778
10
12.5791181
20
1.4044214
40
0.7433964
50
183.9664976
51
191.4309766
0
ARC
8
DEFAULT_255_2_778
10
12.7085426
20
1.429355
40
0.875196
50
191.3516815
51
199.9036554
0
ARC
8
DEFAULT_255_2_778
10
12.7150171
20
1.4310404
40
0.8818579
50
199.8634047
51
204.6755535
0
ARC
8
DEFAULT_255_2_778
10
12.6360948
20
1.3898886
40
0.7929746
50
204.3543388
51
226.1012138
0
ARC
8
DEFAULT_255_2_778
10
12.5807748
20
1.3386232
40
0.7176894
50
226.4456962
51
247.5918927
0
ARC
8
DEFAULT_255_2_778
10
12.6215581
20
1.4429814
40
0.829717
50
247.7353633
51
263.0088462
0
ARC
8
DEFAULT_255_2_778
10
12.6500933
20
1.6450108
40
1.0337243
50
262.8019472
51
270.1132163
0
ARC
8
DEFAULT_255_2_778
10
12.6519586
20
1.7792698
40
1.1679813
50
270.0087019
51
271.851859
0
ARC
8
DEFAULT_255_2_778
10
11.6977095
20
124.3053384
40
123.6971162
50
270.5034952
51
270.5041062
0
ARC
8
DEFAULT_255_2_778
10
12.8048517
20
1.8732049
40
1.2603358
50
269.1439296
51
276.9872791
0
ARC
8
DEFAULT_255_2_778
10
12.8839388
20
1.1504595
40
0.5334204
50
277.9993196
51
295.1221794
0
ARC
8
DEFAULT_255_2_778
10
12.4998518
20
1.9911561
40
1.4576837
50
294.7619923
51
298.2841406
0
ARC
8
DEFAULT_255_2_778
10
12.9246169
20
1.2244629
40
0.5813542
50
297.2237723
51
317.0158924
0
ARC
8
DEFAULT_255_2_778
10
12.5416268
20
1.5752146
40
1.1006781
50
317.2517589
51
329.458917
0
ARC
8
DEFAULT_255_2_778
10
12.9029285
20
1.3306458
40
0.6657719
50
331.7866718
51
344.2849902
0
ARC
8
DEFAULT_255_2_778
10
12.5267005
20
1.4547073
40
1.0616838
50
343.3393459
51
343.4681622
0
ARC
8
DEFAULT_255_2_778
10
12.153605
20
1.5587729
40
1.4489821
50
343.7212302
51
349.0984705
0
ARC
8
DEFAULT_255_2_778
10
11.9456998
20
1.6039074
40
1.6616787
50
348.926045
51
351.1662838
0
ARC
8
DEFAULT_255_2_778
10
12.4380451
20
1.5270624
40
1.1633727
50
351.1823045
51
352.0022893
0
ARC
8
DEFAULT_255_2_778
10
13.3829544
20
1.3802843
40
0.2076966
50
355.8346593
51
358.2578387
0
ARC
8
DEFAULT_255_2_778
10
8.5075845
20
1.5743485
40
5.0869186
50
357.7424812
51
358.1125519
0
ARC
8
DEFAULT_255_2_778
10
-10.2532674
20
2.2089942
40
23.8585004
50
358.0731923
51
358.1843783
0
ARC
8
DEFAULT_255_2_778
10
-28.3012295
20
2.7863883
40
41.9156958
50
358.1771531
51
358.1889053
0
ARC
8
DEFAULT_255_2_778
10
-47.7542749
20
3.3976721
40
61.3783429
50
358.1924726
51
358.2545144
0
ARC
8
DEFAULT_255_2_778
10
-56.2578047
20
3.6590383
40
69.8858881
50
358.2526866
51
358.2706429
0
ARC
8
DEFAULT_255_2_778
10
-33.3182786
20
2.9665578
40
46.9359124
50
358.270505
51
358.2806463
0
ARC
8
DEFAULT_255_2_778
10
13.5912697
20
1.5589059
40
0.0052679
50
353.3765463
51
1.5635423
0
ARC
8
DEFAULT_255_2_778
10
13.2991532
20
1.5502207
40
0.2975135
50
1.7005413
51
4.1911867
0
ARC
8
DEFAULT_255_2_778
10
10.7773053
20
1.3878156
40
2.8245751
50
3.7380635
51
4.1801644
0
ARC
8
DEFAULT_255_2_778
10
9.1059476
20
1.2690624
40
4.500144
50
4.1369667
51
4.1803666
0
ARC
8
DEFAULT_255_2_778
10
5.7575742
20
1.0231566
40
7.8575349
50
4.1888761
51
4.4038855
0
ARC
8
DEFAULT_255_2_778
10
7.0237475
20
1.1205891
40
6.5876183
50
4.4045851
51
4.4280331
0
ARC
8
DEFAULT_255_2_778
10
13.4221141
20
1.6262506
40
0.1696139
50
0.9957692
51
45.9696656
0
ARC
8
DEFAULT_255_2_778
10
13.4221287
20
1.6257901
40
0.1699352
50
46.0811379
51
89.9700975
0
ARC
8
DEFAULT_255_2_778
10
13.4222298
20
1.6259938
40
0.1697313
50
90.0041827
51
91.0220055
0
LINE
8
DEFAULT_255_2_778
10
13.2573024
20
1.5651983
11
13.2530024
21
1.4056983
0
LINE
8
DEFAULT_255_2_778
10
12.7821024
20
0.9521983
11
12.6792024
21
0.9507983
0
LINE
8
DEFAULT_255_2_778
10
12.1756024
20
1.3735983
11
12.1703024
21
1.6643983
0
LINE
8
DEFAULT_255_2_778
10
12.1703024
20
1.6643983
11
12.1756024
21
2.1183983
0
LINE
8
DEFAULT_255_2_778
10
13.4520024
20
2.3761983
11
13.4520024
21
3.1103983
0
LINE
8
DEFAULT_255_2_778
10
13.1128024
20
3.1103983
11
13.1128024
21
2.8084983
0
LINE
8
DEFAULT_255_2_778
10
11.8309024
20
1.6656983
11
11.8375024
21
1.3529983
0
LINE
8
DEFAULT_255_2_778
10
12.6897024
20
0.6118983
11
12.7847024
21
0.6129983
0
LINE
8
DEFAULT_255_2_778
10
13.4192024
20
1.7956983
11
13.4189024
21
1.7961983
0
ARC
8
DEFAULT_255_2_778
10
16.0291166
20
0.6754082
40
0.1693223
50
3.7437389
51
89.9131067
0
ARC
8
DEFAULT_255_2_778
10
16.0293876
20
0.6730627
40
0.1716676
50
90.004734
51
93.7440977
0
ARC
8
DEFAULT_255_2_778
10
16.0230199
20
3.7650011
40
0.1702743
50
271.1972266
51
0.020258
0
ARC
8
DEFAULT_255_2_778
10
16.0212169
20
3.7650594
40
0.1720775
50
0.0006138
51
0.8006442
0
ARC
8
DEFAULT_255_2_778
10
16.0239894
20
3.7651475
40
0.1693041
50
0.7839446
51
45.8682569
0
ARC
8
DEFAULT_255_2_778
10
16.0239907
20
3.7652673
40
0.1692173
50
45.8403265
51
90.0236275
0
ARC
8
DEFAULT_255_2_778
10
16.0239349
20
3.7630815
40
0.171403
50
90.0046907
51
90.8882985
0
ARC
8
DEFAULT_255_2_778
10
15.141894
20
3.7501471
40
0.1695386
50
90.9180407
51
179.9709207
0
ARC
8
DEFAULT_255_2_778
10
15.1469631
20
3.7502482
40
0.1746076
50
180.0049604
51
180.9136822
0
ARC
8
DEFAULT_255_2_778
10
15.1419359
20
3.7502253
40
0.1695807
50
180.9330187
51
269.9844976
0
ARC
8
DEFAULT_255_2_778
10
15.1419012
20
3.7517334
40
0.1710888
50
269.9962667
51
270.8628699
0
ARC
8
DEFAULT_255_2_778
10
14.7097486
20
3.4670931
40
0.1697292
50
270.0098226
51
359.9901535
0
ARC
8
DEFAULT_255_2_778
10
14.7097484
20
3.4670347
40
0.1697292
50
0.0098514
51
89.9901317
0
ARC
8
DEFAULT_255_2_778
10
13.8197069
20
3.4670346
40
0.1697293
50
90.0098802
51
179.9900959
0
ARC
8
DEFAULT_255_2_778
10
13.8197068
20
3.467093
40
0.1697292
50
180.0098106
51
269.9901486
0
ARC
8
DEFAULT_255_2_778
10
13.8078963
20
0.8730396
40
0.1742466
50
89.0853951
51
89.9950349
0
ARC
8
DEFAULT_255_2_778
10
13.808074
20
0.8777684
40
0.1695178
50
90.054943
51
179.0888946
0
ARC
8
DEFAULT_255_2_778
10
13.8096471
20
0.8778874
40
0.1710889
50
179.1371301
51
180.0037333
0
ARC
8
DEFAULT_255_2_778
10
13.808139
20
0.8779222
40
0.1695807
50
180.0155024
51
269.0669813
0
ARC
8
DEFAULT_255_2_778
10
14.7238077
20
0.8633906
40
0.1703519
50
269.0144613
51
270.0068125
0
ARC
8
DEFAULT_255_2_778
10
14.7237073
20
0.86243
40
0.1693914
50
270.0408222
51
359.0981688
0
ARC
8
DEFAULT_255_2_778
10
14.7199476
20
0.8627296
40
0.1731555
50
359.0186205
51
359.9951577
0
ARC
8
DEFAULT_255_2_778
10
14.723734
20
0.8626171
40
0.169369
50
0.0331142
51
89.0717956
0
ARC
8
DEFAULT_255_2_778
10
14.3747621
20
6.4073895
40
5.7317376
50
280.7079606
51
280.7297396
0
ARC
8
DEFAULT_255_2_778
10
23.5559527
20
-42.1798133
40
43.7153103
50
100.699656
51
100.7024667
0
ARC
8
DEFAULT_255_2_778
10
14.047634
20
8.1380599
40
7.4930533
50
280.67326
51
280.6905523
0
ARC
8
DEFAULT_255_2_778
10
14.0960202
20
7.8794929
40
7.2299983
50
280.6583301
51
280.6759509
0
ARC
8
DEFAULT_255_2_778
10
14.0550294
20
8.0947202
40
7.4490939
50
280.6446222
51
280.6619983
0
ARC
8
DEFAULT_255_2_778
10
24.9828709
20
-50.081598
40
51.7446703
50
100.6375899
51
100.6401075
0
ARC
8
DEFAULT_255_2_778
10
14.0675252
20
8.0206926
40
7.3740319
50
280.6202911
51
280.6377823
0
ARC
8
DEFAULT_255_2_778
10
14.1179621
20
7.7508501
40
7.0995161
50
280.6037285
51
280.6215733
0
ARC
8
DEFAULT_255_2_778
10
24.4256697
20
-47.3453767
40
48.9526297
50
100.5956961
51
100.5982382
0
ARC
8
DEFAULT_255_2_778
10
14.2105975
20
7.2486886
40
6.5888834
50
280.5780448
51
280.5965973
0
ARC
8
DEFAULT_255_2_778
10
0.0282608
20
83.2163269
40
83.8690278
50
280.5735959
51
280.5750276
0
ARC
8
DEFAULT_255_2_778
10
0.8007846
20
79.1507855
40
79.7307635
50
280.5624968
51
280.5639763
0
ARC
8
DEFAULT_255_2_778
10
14.5235764
20
5.5561182
40
4.8676212
50
280.541271
51
280.5650783
0
ARC
8
DEFAULT_255_2_778
10
2.2650052
20
71.4459986
40
71.8881322
50
280.5377326
51
280.5393163
0
ARC
8
DEFAULT_255_2_778
10
14.7062862
20
4.5615884
40
3.8564501
50
280.5171664
51
280.5461698
0
ARC
8
DEFAULT_255_2_778
10
12.0879179
20
18.6530333
40
18.1890936
50
280.5182671
51
280.5243087
0
ARC
8
DEFAULT_255_2_778
10
12.2121508
20
17.9891346
40
17.513672
50
280.5089901
51
280.5151549
0
ARC
8
DEFAULT_255_2_778
10
12.3205867
20
17.3939225
40
16.9086665
50
280.5093021
51
280.5155759
0
ARC
8
DEFAULT_255_2_778
10
12.4439321
20
16.7449636
40
16.2480961
50
280.4926279
51
280.499043
0
ARC
8
DEFAULT_255_2_778
10
12.5519121
20
16.1626092
40
15.6558157
50
280.4856379
51
280.4921798
0
ARC
8
DEFAULT_255_2_778
10
12.6472066
20
15.6368439
40
15.1214881
50
280.4864863
51
280.4931416
0
ARC
8
DEFAULT_255_2_778
10
18.1753795
20
-14.432619
40
15.4519421
50
100.349623
51
100.737226
0
ARC
8
DEFAULT_255_2_778
10
15.5387777
20
-0.6313938
40
1.4012689
50
99.9520242
51
107.1251891
0
ARC
8
DEFAULT_255_2_778
10
15.2238734
20
0.3607987
40
0.3604467
50
105.7292352
51
136.5547434
0
ARC
8
DEFAULT_255_2_778
10
15.0865861
20
0.4985364
40
0.1661491
50
138.4844298
51
179.1976283
0
ARC
8
DEFAULT_255_2_778
10
15.0878906
20
0.4983673
40
0.1674559
50
179.1460262
51
180.004544
0
ARC
8
DEFAULT_255_2_778
10
15.0866216
20
0.4980856
40
0.1661874
50
179.9074763
51
228.5805642
0
ARC
8
DEFAULT_255_2_778
10
15.0595498
20
0.4583333
40
0.1186195
50
225.6821642
51
270.5939173
0
ARC
8
DEFAULT_255_2_778
10
15.0393547
20
0.6659834
40
0.3269659
50
273.757033
51
293.5323857
0
ARC
8
DEFAULT_255_2_778
10
3.2011556
20
32.1303833
40
33.944272
50
290.6464176
51
290.7198727
0
ARC
8
DEFAULT_255_2_778
10
15.9120367
20
-1.4926786
40
2.0012094
50
110.3387191
51
110.5178518
0
ARC
8
DEFAULT_255_2_778
10
15.3562144
20
0.0623662
40
0.3502892
50
107.3798953
51
113.7605325
0
ARC
8
DEFAULT_255_2_778
10
15.5011109
20
-0.3898703
40
0.8251667
50
103.9243912
51
107.6017825
0
ARC
8
DEFAULT_255_2_778
10
15.6161306
20
-0.836194
40
1.28606
50
103.2029658
51
104.1131029
0
ARC
8
DEFAULT_255_2_778
10
15.8201172
20
-1.7486209
40
2.2209814
50
99.4717615
51
102.950025
0
ARC
8
DEFAULT_255_2_778
10
16.1677638
20
-3.7963111
40
4.2979682
50
96.9811241
51
99.5508963
0
ARC
8
DEFAULT_255_2_778
10
16.4279758
20
-5.8802615
40
6.3980976
50
94.8892261
51
97.0258509
0
ARC
8
DEFAULT_255_2_778
10
16.5305553
20
-7.0231198
40
7.5455418
50
93.7269861
51
94.9256817
0
ARC
8
DEFAULT_255_2_778
10
16.0289264
20
0.6755773
40
0.1694807
50
273.7726063
51
318.7648393
0
ARC
8
DEFAULT_255_2_778
10
16.0291267
20
0.6755423
40
0.169307
50
318.7290753
51
0.0387938
0
ARC
8
DEFAULT_255_2_778
10
16.0280293
20
0.6756548
40
0.1704043
50
0.0007116
51
3.7042232
0
LINE
8
DEFAULT_255_2_778
10
16.0181777
20
0.8443639
11
15.7799777
21
0.8239639
0
LINE
8
DEFAULT_255_2_778
10
15.7799777
20
0.8239639
11
15.7657777
21
3.5909639
0
LINE
8
DEFAULT_255_2_778
10
15.7657777
20
3.5909639
11
16.0265777
21
3.5947639
0
LINE
8
DEFAULT_255_2_778
10
16.0212777
20
3.9344639
11
15.1391777
21
3.9196639
0
LINE
8
DEFAULT_255_2_778
10
15.1444777
20
3.5806639
11
15.4264777
21
3.5857639
0
LINE
8
DEFAULT_255_2_778
10
15.4264777
20
3.5857639
11
15.4336777
21
2.4112639
0
LINE
8
DEFAULT_255_2_778
10
15.4336777
20
2.4112639
11
14.4369777
21
2.2445639
0
LINE
8
DEFAULT_255_2_778
10
14.4369777
20
2.2445639
11
14.4388777
21
3.2973639
0
LINE
8
DEFAULT_255_2_778
10
14.4388777
20
3.2973639
11
14.7097777
21
3.2973639
0
LINE
8
DEFAULT_255_2_778
10
14.7097777
20
3.6367639
11
13.8196777
21
3.6367639
0
LINE
8
DEFAULT_255_2_778
10
13.8196777
20
3.2973639
11
14.0998777
21
3.2973639
0
LINE
8
DEFAULT_255_2_778
10
14.0998777
20
3.2973639
11
14.0959777
21
1.0422639
0
LINE
8
DEFAULT_255_2_778
10
14.0959777
20
1.0422639
11
13.8106777
21
1.0472639
0
LINE
8
DEFAULT_255_2_778
10
13.8053777
20
0.7083639
11
14.7208777
21
0.6930639
0
LINE
8
DEFAULT_255_2_778
10
14.7264777
20
1.0319639
11
14.4345777
21
1.0367639
0
LINE
8
DEFAULT_255_2_778
10
14.4345777
20
1.0367639
11
14.4364777
21
1.9013639
0
LINE
8
DEFAULT_255_2_778
10
14.4364777
20
1.9013639
11
15.4360777
21
2.0680639
0
LINE
8
DEFAULT_255_2_778
10
15.4360777
20
2.0680639
11
15.4418777
21
0.7758639
0
LINE
8
DEFAULT_255_2_778
10
15.2164777
20
0.3837639
11
15.2150777
21
0.3829639
0
LINE
8
DEFAULT_255_2_778
10
16.1980777
20
0.6866639
11
16.1980777
21
0.6864639
0
ARC
8
DEFAULT_255_2_778
10
9.9817118
20
0.9979801
40
1.0484627
50
110.594645
51
115.1436471
0
ARC
8
DEFAULT_255_2_778
10
11.4531202
20
-2.2798482
40
4.6412845
50
114.3939501
51
114.5163422
0
ARC
8
DEFAULT_255_2_778
10
12.1361988
20
-3.7779978
40
6.2878107
50
114.5148198
51
114.6034884
0
ARC
8
DEFAULT_255_2_778
10
-51.2402719
20
133.9749494
40
145.3448201
50
294.6714534
51
294.7103331
0
ARC
8
DEFAULT_255_2_778
10
5.9419483
20
9.5047694
40
8.3680657
50
293.7713328
51
294.6250917
0
ARC
8
DEFAULT_255_2_778
10
8.0210757
20
3.7008908
40
0.4928985
50
27.0360321
51
38.4273829
0
ARC
8
DEFAULT_255_2_778
10
8.2833992
20
3.8920097
40
0.1691357
50
42.9436314
51
89.9921206
0
ARC
8
DEFAULT_255_2_778
10
8.2834234
20
3.8922523
40
0.168893
50
90.0002993
51
96.7051625
0
ARC
8
DEFAULT_255_2_778
10
8.2834524
20
3.8919488
40
0.1691977
50
96.7029426
51
97.6561454
0
ARC
8
DEFAULT_255_2_778
10
7.5580685
20
3.7913513
40
0.170211
50
97.9215056
51
179.8867928
0
ARC
8
DEFAULT_255_2_778
10
7.5595354
20
3.7917254
40
0.1716776
50
180.0125986
51
187.4591951
0
ARC
8
DEFAULT_255_2_778
10
7.5572858
20
3.7917936
40
0.1694563
50
187.5808303
51
232.6205932
0
ARC
8
DEFAULT_255_2_778
10
7.5572942
20
3.7917598
40
0.1694344
50
232.6113985
51
269.9899694
0
ARC
8
DEFAULT_255_2_778
10
7.5572665
20
3.7910583
40
0.1687328
50
269.9993297
51
274.5467036
0
ARC
8
DEFAULT_255_2_778
10
7.5572869
20
3.7908728
40
0.1685465
50
274.5447756
51
277.6796865
0
ARC
8
DEFAULT_255_2_778
10
7.1778388
20
1.5918776
40
0.1689632
50
87.1938788
51
89.9984466
0
ARC
8
DEFAULT_255_2_778
10
7.1778706
20
1.591837
40
0.1690036
50
90.0092235
51
132.4002014
0
ARC
8
DEFAULT_255_2_778
10
7.1777089
20
1.5917549
40
0.1689552
50
132.3409595
51
177.5293649
0
ARC
8
DEFAULT_255_2_778
10
7.1775962
20
1.5915213
40
0.1688529
50
177.4485076
51
179.9988264
0
ARC
8
DEFAULT_255_2_778
10
7.1777013
20
1.5915788
40
0.1689579
50
180.0183403
51
222.5894232
0
ARC
8
DEFAULT_255_2_778
10
7.1779385
20
1.5913991
40
0.1690113
50
222.4901434
51
267.582895
0
ARC
8
DEFAULT_255_2_778
10
8.0224344
20
1.5546585
40
0.1722027
50
267.362647
51
269.9992765
0
ARC
8
DEFAULT_255_2_778
10
8.0222975
20
1.5521786
40
0.1697231
50
270.0454761
51
357.1494519
0
ARC
8
DEFAULT_255_2_778
10
7.9745166
20
1.5542685
40
0.217549
50
357.2255548
51
359.9931697
0
ARC
8
DEFAULT_255_2_778
10
8.0342526
20
1.5637413
40
0.1580986
50
356.5555102
51
89.169903
0
ARC
8
DEFAULT_255_2_778
10
8.0207474
20
1.479771
40
0.2425673
50
86.266352
51
90.0323185
0
ARC
8
DEFAULT_255_2_778
10
11.0718835
20
-1.9458777
40
4.1842365
50
119.5071785
51
121.0219812
0
ARC
8
DEFAULT_255_2_778
10
9.5497967
20
0.5917428
40
1.2251442
50
121.1820809
51
123.8572567
0
ARC
8
DEFAULT_255_2_778
10
9.1275519
20
1.2005531
40
0.4844632
50
122.501789
51
142.4011738
0
ARC
8
DEFAULT_255_2_778
10
8.8803051
20
1.3950736
40
0.1699179
50
143.5027176
51
180.0131918
0
ARC
8
DEFAULT_255_2_778
10
8.8804998
20
1.3950292
40
0.1701126
50
179.9982358
51
181.811322
0
ARC
8
DEFAULT_255_2_778
10
8.8802485
20
1.3950198
40
0.1698609
50
181.8108268
51
203.4447617
0
ARC
8
DEFAULT_255_2_778
10
8.8801275
20
1.3949622
40
0.1697269
50
203.4431677
51
263.4649247
0
ARC
8
DEFAULT_255_2_778
10
8.8801245
20
1.394758
40
0.1695237
50
263.4580795
51
269.9986813
0
ARC
8
DEFAULT_255_2_778
10
8.8800384
20
1.3951295
40
0.1698951
50
270.0277283
51
323.4438409
0
ARC
8
DEFAULT_255_2_778
10
9.2439328
20
1.1130791
40
0.2905699
50
126.7406134
51
141.5062775
0
ARC
8
DEFAULT_255_2_778
10
9.6106912
20
0.6406674
40
0.8886023
50
120.2794567
51
127.4698214
0
ARC
8
DEFAULT_255_2_778
10
10.1871544
20
-0.3332298
40
2.0203113
50
115.8925646
51
120.4712689
0
ARC
8
DEFAULT_255_2_778
10
10.5910193
20
-1.1381236
40
2.9207912
50
115.479209
51
116.1247778
0
ARC
8
DEFAULT_255_2_778
10
10.9901294
20
-1.9952314
40
3.8662377
50
111.9988734
51
115.3544227
0
ARC
8
DEFAULT_255_2_778
10
11.3470297
20
-2.8611811
40
4.802834
50
109.8690448
51
112.0768944
0
ARC
8
DEFAULT_255_2_778
10
11.3709276
20
-2.9252652
40
4.8712255
50
109.7143674
51
109.8772183
0
ARC
8
DEFAULT_255_2_778
10
9.6693416
20
1.8204757
40
0.1703495
50
290.0379764
51
359.9787503
0
ARC
8
DEFAULT_255_2_778
10
9.6711601
20
1.8204166
40
0.1685309
50
359.9985843
51
8.086158
0
ARC
8
DEFAULT_255_2_778
10
9.6696135
20
1.8201459
40
0.1701001
50
8.1031673
51
19.6471582
0
ARC
8
DEFAULT_255_2_778
10
9.6704832
20
1.8202943
40
0.1692312
50
19.6988422
51
64.7355386
0
ARC
8
DEFAULT_255_2_778
10
9.6703849
20
1.8193803
40
0.1701001
50
64.8369804
51
89.9786905
0
ARC
8
DEFAULT_255_2_778
10
9.670463
20
1.8181363
40
0.171344
50
90.0049732
51
90.7781299
0
ARC
8
DEFAULT_255_2_778
10
9.6704068
20
1.820998
40
0.1684818
50
90.7722351
51
109.8813378
0
LINE
8
DEFAULT_255_2_778
10
9.3150106
20
1.8466382
11
9.0972106
21
2.3845382
0
LINE
8
DEFAULT_255_2_778
10
9.0972106
20
2.3845382
11
8.4601106
21
3.9249382
0
LINE
8
DEFAULT_255_2_778
10
8.2609106
20
4.0596382
11
7.5346106
21
3.9599382
0
LINE
8
DEFAULT_255_2_778
10
7.5798106
20
3.6238382
11
8.0690106
21
3.6924382
0
LINE
8
DEFAULT_255_2_778
10
8.0690106
20
3.6924382
11
7.6777106
21
1.7368382
0
LINE
8
DEFAULT_255_2_778
10
7.6777106
20
1.7368382
11
7.1861106
21
1.7606382
0
LINE
8
DEFAULT_255_2_778
10
7.1708106
20
1.4225382
11
8.0145106
21
1.3826382
0
LINE
8
DEFAULT_255_2_778
10
8.0206106
20
1.7223382
11
8.0595106
21
1.9805382
0
LINE
8
DEFAULT_255_2_778
10
8.0595106
20
1.9805382
11
8.8432106
21
2.1104382
0
LINE
8
DEFAULT_255_2_778
10
8.8432106
20
2.1104382
11
9.0110106
21
1.6956382
0
LINE
8
DEFAULT_255_2_778
10
9.6131106
20
1.9794382
11
9.6129106
21
1.9794382
0
LINE
8
DEFAULT_255_2_778
10
8.1315106
20
2.2525382
11
8.3392106
21
3.2696382
0
LINE
8
DEFAULT_255_2_778
10
8.3392106
20
3.2696382
11
8.7120106
21
2.3485382
0
LINE
8
DEFAULT_255_2_778
10
8.7120106
20
2.3485382
11
8.1315106
21
2.2525382
0
ARC
8
DEFAULT_255_2_778
10
11.6149348
20
4.0565603
40
0.3713283
50
273.8727652
51
275.2472717
0
ARC
8
DEFAULT_255_2_778
10
11.2073721
20
9.5934773
40
5.9232191
50
273.8601319
51
274.1887176
0
ARC
8
DEFAULT_255_2_778
10
10.671495
20
17.4687859
40
13.8167382
50
273.6180626
51
273.8787399
0
ARC
8
DEFAULT_255_2_778
10
10.3017049
20
23.3001631
40
19.6598283
50
273.3310429
51
273.6211608
0
ARC
8
DEFAULT_255_2_778
10
10.1183364
20
26.4289869
40
22.7940206
50
273.0743624
51
273.3342066
0
ARC
8
DEFAULT_255_2_778
10
10.0523903
20
27.6479642
40
24.0147803
50
272.7907324
51
273.0754957
0
ARC
8
DEFAULT_255_2_778
10
10.0495977
20
27.6960003
40
24.0628954
50
272.4546281
51
272.7918052
0
ARC
8
DEFAULT_255_2_778
10
10.1044536
20
26.3846481
40
22.7503971
50
271.886063
51
272.4580465
0
ARC
8
DEFAULT_255_2_778
10
10.1991911
20
23.4538082
40
19.8180271
50
271.1377296
51
271.8911912
0
ARC
8
DEFAULT_255_2_778
10
9.5120325
20
3.4553625
40
0.1663273
50
90.2543002
51
140.174003
0
ARC
8
DEFAULT_255_2_778
10
9.5114613
20
3.4521566
40
0.1679656
50
139.2093136
51
179.8383578
0
ARC
8
DEFAULT_255_2_778
10
9.5070215
20
3.4526234
40
0.1635253
50
179.9975212
51
185.1783082
0
ARC
8
DEFAULT_255_2_778
10
9.506743
20
3.4526069
40
0.1632463
50
185.181342
51
188.744711
0
ARC
8
DEFAULT_255_2_778
10
9.6427336
20
2.6167045
40
0.1691984
50
187.7841003
51
269.9452358
0
ARC
8
DEFAULT_255_2_778
10
9.6425594
20
2.6187052
40
0.1711989
50
270.0041818
51
274.2995437
0
ARC
8
DEFAULT_255_2_778
10
9.6428415
20
2.6167879
40
0.1692658
50
274.2529741
51
0.0265494
0
ARC
8
DEFAULT_255_2_778
10
9.6413368
20
2.616881
40
0.1707705
50
359.9950718
51
0.7070059
0
ARC
8
DEFAULT_255_2_778
10
9.6251368
20
2.5995538
40
0.1879649
50
5.9346141
51
9.1192852
0
ARC
8
DEFAULT_255_2_778
10
3.5844952
20
1.7110362
40
6.2935872
50
8.3900801
51
8.8051126
0
ARC
8
DEFAULT_255_2_778
10
-31.1521312
20
-3.631019
40
41.4385803
50
8.752326
51
8.8426563
0
ARC
8
DEFAULT_255_2_778
10
-73.9171003
20
-10.2705955
40
84.715901
50
8.8337042
51
8.8382058
0
ARC
8
DEFAULT_255_2_778
10
-70.5503015
20
-9.7445492
40
81.308255
50
8.8364377
51
8.8410787
0
ARC
8
DEFAULT_255_2_778
10
234.8809027
20
37.7711784
40
227.7968482
50
188.8413758
51
188.8431228
0
ARC
8
DEFAULT_255_2_778
10
615.6584384
20
97.041902
40
613.1597288
50
188.8445816
51
188.8452214
0
LINE
8
DEFAULT_255_2_778
10
9.7897645
20
2.7656961
11
9.7887277
21
2.7723572
0
LINE
8
DEFAULT_255_2_778
10
9.7887277
20
2.7723572
11
9.7709181
21
2.8866963
0
ARC
8
DEFAULT_255_2_778
10
161.4887734
20
26.5168196
40
153.5470297
50
188.8047115
51
188.8527167
0
ARC
8
DEFAULT_255_2_778
10
105.261756
20
17.8014765
40
96.6485707
50
188.7938791
51
188.8010756
0
ARC
8
DEFAULT_255_2_778
10
75.5315352
20
13.2102469
40
66.5659291
50
188.6810016
51
188.8006837
0
ARC
8
DEFAULT_255_2_778
10
40.3720302
20
7.8442763
40
30.9993096
50
188.4819388
51
188.6851291
0
ARC
8
DEFAULT_255_2_778
10
28.4214222
20
6.056887
40
18.9157774
50
188.4233466
51
188.4663302
0
ARC
8
DEFAULT_255_2_778
10
10.0776864
20
0.9106328
40
0.1694709
50
90.7749411
51
135.7498834
0
ARC
8
DEFAULT_255_2_778
10
10.0780472
20
0.910721
40
0.1696681
50
135.8562468
51
180.0202357
0
ARC
8
DEFAULT_255_2_778
10
10.0784257
20
0.9106617
40
0.1700465
50
180.0002215
51
180.7660763
0
ARC
8
DEFAULT_255_2_778
10
10.0785476
20
0.9110515
40
0.1701741
50
180.8967489
51
269.8300334
0
ARC
8
DEFAULT_255_2_778
10
10.0780601
20
0.9125207
40
0.1716425
50
269.9942042
51
270.6122781
0
ARC
8
DEFAULT_255_2_778
10
11.1100362
20
0.9252028
40
0.1689259
50
270.6641747
51
315.8259115
0
ARC
8
DEFAULT_255_2_778
10
11.1104473
20
0.9253974
40
0.1687673
50
315.6812565
51
359.9871828
0
ARC
8
DEFAULT_255_2_778
10
11.1097184
20
0.9253456
40
0.1694964
50
0.0047229
51
0.8933012
0
ARC
8
DEFAULT_255_2_778
10
11.1093529
20
0.9253334
40
0.1698622
50
0.895515
51
90.1890969
0
ARC
8
DEFAULT_255_2_778
10
11.1087931
20
0.9196947
40
0.1754999
50
90.0002568
51
90.4893011
0
ARC
8
DEFAULT_255_2_778
10
13.1372348
20
3.004864
40
1.6714553
50
179.7592178
51
183.2836292
0
ARC
8
DEFAULT_255_2_778
10
12.0702353
20
2.9397005
40
0.6024878
50
182.9089328
51
190.2409379
0
ARC
8
DEFAULT_255_2_778
10
11.6688819
20
2.8657879
40
0.1943926
50
189.8343789
51
203.9144844
0
ARC
8
DEFAULT_255_2_778
10
11.6664713
20
2.8696483
40
0.1938063
50
205.2467878
51
210.7391321
0
ARC
8
DEFAULT_255_2_778
10
11.6327866
20
2.8416656
40
0.1507062
50
208.140093
51
270.8806851
0
ARC
8
DEFAULT_255_2_778
10
11.6348513
20
2.8680236
40
0.1770467
50
270.0814642
51
281.4952911
0
ARC
8
DEFAULT_255_2_778
10
11.6311121
20
2.8856137
40
0.1950294
50
281.5418999
51
295.5715964
0
ARC
8
DEFAULT_255_2_778
10
11.636001
20
2.8626353
40
0.1722796
50
297.4038647
51
1.755227
0
ARC
8
DEFAULT_255_2_778
10
11.6142586
20
2.8679185
40
0.1939411
50
359.9981432
51
1.6061934
0
ARC
8
DEFAULT_255_2_778
10
11.6145414
20
2.8679177
40
0.1936583
50
1.6087707
51
3.2178304
0
ARC
8
DEFAULT_255_2_778
10
11.8321437
20
2.8796951
40
0.0242663
50
179.4920909
51
182.1417687
0
ARC
8
DEFAULT_255_2_778
10
12.0236488
20
2.8805737
40
0.2157716
50
179.9750602
51
180.1761948
0
ARC
8
DEFAULT_255_2_778
10
15.1400787
20
2.8675446
40
3.3322273
50
179.2751698
51
179.7743572
0
ARC
8
DEFAULT_255_2_778
10
23.8524313
20
2.770681
40
12.0451156
50
179.0306344
51
179.3387123
0
ARC
8
DEFAULT_255_2_778
10
27.1482654
20
2.7171659
40
15.3413834
50
178.5784396
51
179.0390404
0
ARC
8
DEFAULT_255_2_778
10
24.3173456
20
2.7927651
40
12.5094605
50
177.7184554
51
178.6029231
0
ARC
8
DEFAULT_255_2_778
10
18.9087795
20
3.0117975
40
7.0964631
50
176.428592
51
177.7470692
0
ARC
8
DEFAULT_255_2_778
10
15.9677028
20
3.1902381
40
4.1499857
50
175.6641483
51
176.3580033
0
ARC
8
DEFAULT_255_2_778
10
11.661013
20
3.5173562
40
0.1691106
50
355.4660881
51
0.0009016
0
ARC
8
DEFAULT_255_2_778
10
11.6606103
20
3.5173458
40
0.1695132
50
0.0044097
51
44.7988412
0
ARC
8
DEFAULT_255_2_778
10
11.6603825
20
3.5167768
40
0.1700759
50
44.8807944
51
90.1145762
0
ARC
8
DEFAULT_255_2_778
10
11.660038
20
3.5161873
40
0.170665
50
89.9985062
51
93.7438132
0
LINE
8
DEFAULT_255_2_778
10
10.5926943
20
3.6396882
11
9.5112943
21
3.6216882
0
LINE
8
DEFAULT_255_2_778
10
9.3453943
20
3.4277882
11
9.4750943
21
2.5937882
0
LINE
8
DEFAULT_255_2_778
10
9.7096943
20
3.2859882
11
10.4269943
21
3.2980882
0
LINE
8
DEFAULT_255_2_778
10
10.4269943
20
3.2980882
11
10.4314943
21
1.0845882
0
LINE
8
DEFAULT_255_2_778
10
10.4314943
20
1.0845882
11
10.0753943
21
1.0800882
0
LINE
8
DEFAULT_255_2_778
10
10.0798943
20
0.7408882
11
11.1119943
21
0.7562882
0
LINE
8
DEFAULT_255_2_778
10
11.1072943
20
1.0951882
11
10.7701943
21
1.0901882
0
LINE
8
DEFAULT_255_2_778
10
10.7701943
20
1.0901882
11
10.7656943
21
3.3046882
0
LINE
8
DEFAULT_255_2_778
10
10.7656943
20
3.3046882
11
11.4784943
21
3.3361882
0
LINE
8
DEFAULT_255_2_778
10
11.4784943
20
3.3361882
11
11.4657943
21
3.0118882
0
LINE
8
DEFAULT_255_2_778
10
11.6488943
20
3.6864882
11
11.6488943
21
3.6867882
0
ARC
8
DEFAULT_255_2_778
10
4.5126994
20
1.4490572
40
0.1692786
50
90.8726707
51
179.989199
0
ARC
8
DEFAULT_255_2_778
10
4.5176095
20
1.4491828
40
0.1741887
50
180.0308078
51
180.1534962
0
ARC
8
DEFAULT_255_2_778
10
2.9228035
20
1.4139867
40
1.4377142
50
347.62391
51
351.2072346
0
ARC
8
DEFAULT_255_2_778
10
3.488754
20
1.2798616
40
0.8562238
50
341.0961788
51
348.27364
0
ARC
8
DEFAULT_255_2_778
10
4.0516955
20
1.091729
40
0.2627307
50
336.0046826
51
340.1373242
0
ARC
8
DEFAULT_255_2_778
10
4.1710743
20
1.0384129
40
0.1319873
50
330.2987671
51
336.0748717
0
ARC
8
DEFAULT_255_2_778
10
3.6483958
20
1.3530841
40
0.742048
50
316.4173682
51
329.1903353
0
ARC
8
DEFAULT_255_2_778
10
3.9955395
20
1.0356784
40
0.2719268
50
295.2063504
51
314.4367292
0
ARC
8
DEFAULT_255_2_778
10
3.6128304
20
1.7520688
40
1.0838726
50
294.1702422
51
297.3832842
0
ARC
8
DEFAULT_255_2_778
10
3.9715111
20
0.9442398
40
0.2000332
50
293.9290513
51
295.1810447
0
ARC
8
DEFAULT_255_2_778
10
3.9533485
20
1.0089839
40
0.2667544
50
269.1249067
51
291.8539532
0
ARC
8
DEFAULT_255_2_778
10
3.8586835
20
3.3464286
40
2.6057431
50
270.3463539
51
271.9923383
0
ARC
8
DEFAULT_255_2_778
10
3.6348846
20
22.2605759
40
21.5211761
50
270.6337374
51
270.6377682
0
ARC
8
DEFAULT_255_2_778
10
3.7453245
20
1.5249929
40
0.7862492
50
270.0097941
51
271.7635458
0
ARC
8
DEFAULT_255_2_778
10
3.741013
20
1.3629942
40
0.6242663
50
257.5772302
51
270.4080522
0
ARC
8
DEFAULT_255_2_778
10
3.7022068
20
1.1891644
40
0.4461585
50
238.9799356
51
257.6418064
0
ARC
8
DEFAULT_255_2_778
10
3.6799544
20
1.1468598
40
0.3984458
50
214.5517147
51
238.587187
0
ARC
8
DEFAULT_255_2_778
10
3.7160389
20
1.1735069
40
0.4432809
50
209.0661811
51
214.7432244
0
ARC
8
DEFAULT_255_2_778
10
3.769741
20
1.201658
40
0.5038981
50
196.5159094
51
208.8974645
0
ARC
8
DEFAULT_255_2_778
10
3.8175628
20
1.2173223
40
0.5542017
50
189.4500741
51
196.6630371
0
ARC
8
DEFAULT_255_2_778
10
3.7571452
20
1.2077306
40
0.4930294
50
185.2968557
51
189.5033446
0
ARC
8
DEFAULT_255_2_778
10
5.0475415
20
1.7868565
40
1.7853683
50
168.4116894
51
176.1409382
0
ARC
8
DEFAULT_255_2_778
10
4.1429643
20
1.9777968
40
0.8608906
50
156.2585193
51
168.766988
0
ARC
8
DEFAULT_255_2_778
10
3.6504819
20
2.2022113
40
0.3198143
50
130.4670241
51
157.5384922
0
ARC
8
DEFAULT_255_2_778
10
3.5523036
20
2.305004
40
0.1780719
50
121.3265911
51
127.8990256
0
ARC
8
DEFAULT_255_2_778
10
3.5646204
20
2.2813819
40
0.2046615
50
91.8016638
51
120.8337888
0
ARC
8
DEFAULT_255_2_778
10
3.5761553
20
2.1739556
40
0.3125037
50
89.9627747
51
93.2964179
0
ARC
8
DEFAULT_255_2_778
10
3.5677149
20
1.9894095
40
0.497125
50
75.0231672
51
89.0037564
0
ARC
8
DEFAULT_255_2_778
10
3.4328963
20
1.4564874
40
1.0468117
50
67.7904778
51
75.4327618
0
ARC
8
DEFAULT_255_2_778
10
3.2622022
20
1.0104338
40
1.5243298
50
67.34192
51
68.1880036
0
ARC
8
DEFAULT_255_2_778
10
3.5546231
20
1.7508027
40
0.7286148
50
46.7117488
51
66.133891
0
ARC
8
DEFAULT_255_2_778
10
3.3825436
20
1.5461915
40
0.9956573
50
46.2028225
51
47.5770717
0
ARC
8
DEFAULT_255_2_778
10
3.2962745
20
1.4590101
40
1.1182934
50
39.3615026
51
46.1039567
0
ARC
8
DEFAULT_255_2_778
10
3.3060158
20
1.4644735
40
1.1072984
50
35.6199969
51
39.4626086
0
ARC
8
DEFAULT_255_2_778
10
3.6451975
20
1.7056759
40
0.6911022
50
32.7973972
51
35.7417689
0
ARC
8
DEFAULT_255_2_778
10
4.170197
20
2.0431517
40
0.0669953
50
29.4748201
51
33.3937698
0
ARC
8
DEFAULT_255_2_778
10
4.3736029
20
2.1636196
40
0.1694271
50
211.0955342
51
269.9663766
0
ARC
8
DEFAULT_255_2_778
10
4.3735039
20
2.1626771
40
0.1684847
50
269.9998567
51
277.4008497
0
ARC
8
DEFAULT_255_2_778
10
4.3733417
20
2.1638092
40
0.1696282
50
277.405902
51
285.8326766
0
ARC
8
DEFAULT_255_2_778
10
4.3734902
20
2.1636517
40
0.1694363
50
285.7988817
51
0.0065358
0
ARC
8
DEFAULT_255_2_778
10
4.3688317
20
2.1636447
40
0.1740948
50
0.0086634
51
0.4513469
0
ARC
8
DEFAULT_255_2_778
10
4.3701007
20
2.8991599
40
0.1728221
50
359.7534406
51
359.999939
0
ARC
8
DEFAULT_255_2_778
10
4.3734077
20
2.8990639
40
0.1695152
50
0.0323734
51
67.4476986
0
ARC
8
DEFAULT_255_2_778
10
4.3736326
20
2.8995769
40
0.1689551
50
67.4514123
51
86.7940628
0
ARC
8
DEFAULT_255_2_778
10
4.3736292
20
2.8994468
40
0.1690851
50
86.795384
51
90.0005367
0
ARC
8
DEFAULT_255_2_778
10
4.3736029
20
2.8991332
40
0.1693987
50
89.991658
51
135.1910368
0
ARC
8
DEFAULT_255_2_778
10
4.3734949
20
2.898776
40
0.1695742
50
135.0797037
51
179.994162
0
ARC
8
DEFAULT_255_2_778
10
4.3817527
20
2.8988876
40
0.177832
50
180.0303813
51
180.1518991
0
ARC
8
DEFAULT_255_2_778
10
3.6065427
20
1.8435651
40
0.9617701
50
51.601735
51
67.1432745
0
ARC
8
DEFAULT_255_2_778
10
3.0131648
20
0.4327757
40
2.492268
50
67.1709752
51
67.9832681
0
ARC
8
DEFAULT_255_2_778
10
3.3967162
20
1.3800027
40
1.4703336
50
68.0022374
51
70.1656156
0
ARC
8
DEFAULT_255_2_778
10
3.4571635
20
1.5451404
40
1.2944825
50
70.2023425
51
71.2160542
0
ARC
8
DEFAULT_255_2_778
10
3.5113596
20
1.7110054
40
1.1200024
50
71.1086727
51
77.302453
0
ARC
8
DEFAULT_255_2_778
10
3.5710557
20
1.9905599
40
0.8341694
50
77.0818938
51
89.5978473
0
ARC
8
DEFAULT_255_2_778
10
3.5748989
20
2.1976463
40
0.6270658
50
89.8161841
51
100.6705816
0
ARC
8
DEFAULT_255_2_778
10
3.5559092
20
2.2974428
40
0.5254787
50
100.6506516
51
117.8205187
0
ARC
8
DEFAULT_255_2_778
10
3.5491819
20
2.3127239
40
0.5088256
50
117.9536222
51
121.6189402
0
ARC
8
DEFAULT_255_2_778
10
3.6067768
20
2.2368248
40
0.6037238
50
122.4971935
51
154.3765586
0
ARC
8
DEFAULT_255_2_778
10
4.0502637
20
2.0088737
40
1.1022605
50
153.6620466
51
167.4343838
0
ARC
8
DEFAULT_255_2_778
10
4.899839
20
1.8097941
40
1.9748204
50
167.1593506
51
175.3006752
0
ARC
8
DEFAULT_255_2_778
10
5.6187322
20
1.7342279
40
2.6975377
50
174.9520058
51
175.8931607
0
ARC
8
DEFAULT_255_2_778
10
2.9905238
20
1.1478504
40
0.0627134
50
178.9348718
51
185.7051054
0
ARC
8
DEFAULT_255_2_778
10
3.6751253
20
1.1938999
40
0.7488315
50
184.0036734
51
191.5884122
0
ARC
8
DEFAULT_255_2_778
10
3.8019652
20
1.2186123
40
0.8780511
50
191.505482
51
200.2484807
0
ARC
8
DEFAULT_255_2_778
10
3.8056683
20
1.2193945
40
0.8817962
50
200.2128852
51
204.644053
0
ARC
8
DEFAULT_255_2_778
10
3.7273367
20
1.1785433
40
0.793578
50
204.3214957
51
226.1076477
0
ARC
8
DEFAULT_255_2_778
10
3.6727728
20
1.1281067
40
0.7194148
50
226.4543496
51
247.6166902
0
ARC
8
DEFAULT_255_2_778
10
3.7143121
20
1.2343711
40
0.8334937
50
247.7580169
51
263.0214403
0
ARC
8
DEFAULT_255_2_778
10
3.74312
20
1.4385919
40
1.0397086
50
262.8130197
51
270.1134662
0
ARC
8
DEFAULT_255_2_778
10
3.7450216
20
1.5724475
40
1.1735624
50
270.0076856
51
271.7236628
0
ARC
8
DEFAULT_255_2_778
10
2.6255782
20
130.8431446
40
130.447618
50
270.5490578
51
270.5507603
0
ARC
8
DEFAULT_255_2_778
10
3.8963804
20
1.6673523
40
1.2659115
50
269.2358353
51
276.8639736
0
ARC
8
DEFAULT_255_2_778
10
3.9756613
20
0.9358399
40
0.5302388
50
277.8054339
51
295.1874885
0
ARC
8
DEFAULT_255_2_778
10
3.5924396
20
1.7787966
40
1.4561885
50
294.716823
51
298.051244
0
ARC
8
DEFAULT_255_2_778
10
4.0098084
20
1.019464
40
0.5898918
50
296.9580044
51
316.9278899
0
ARC
8
DEFAULT_255_2_778
10
3.6470355
20
1.3515948
40
1.0817257
50
317.1993174
51
329.619106
0
ARC
8
DEFAULT_255_2_778
10
3.998038
20
1.1176866
40
0.6610696
50
331.7231181
51
344.5123384
0
ARC
8
DEFAULT_255_2_778
10
3.2529494
20
1.342624
40
1.439278
50
343.8034148
51
349.2150678
0
ARC
8
DEFAULT_255_2_778
10
2.9490598
20
1.4056534
40
1.7496015
50
349.0496461
51
351.1761337
0
ARC
8
DEFAULT_255_2_778
10
2.9648381
20
1.4026575
40
1.7335503
50
351.1939841
51
351.7436669
0
ARC
8
DEFAULT_255_2_778
10
-13.3154039
20
1.8521039
40
18.0093716
50
357.7775624
51
358.0968684
0
ARC
8
DEFAULT_255_2_778
10
-15.8850111
20
1.9373629
40
20.5803928
50
358.097214
51
358.3765815
0
ARC
8
DEFAULT_255_2_778
10
4.512745
20
1.4489011
40
0.1692907
50
0.7497089
51
45.7751443
0
ARC
8
DEFAULT_255_2_778
10
4.512654
20
1.4484633
40
0.1696681
50
45.8562468
51
90.0202357
0
ARC
8
DEFAULT_255_2_778
10
4.5125948
20
1.4480848
40
0.1700465
50
90.0002215
51
90.7660763
0
LINE
8
DEFAULT_255_2_778
10
4.3434212
20
1.4487162
11
4.3479212
21
1.3535162
0
LINE
8
DEFAULT_255_2_778
10
4.3479212
20
1.3535162
11
4.3436212
21
1.1942162
0
LINE
8
DEFAULT_255_2_778
10
3.8729212
20
0.7407162
11
3.7695212
21
0.7391162
0
LINE
8
DEFAULT_255_2_778
10
3.2662212
20
1.1622162
11
3.2602212
21
1.4527162
0
LINE
8
DEFAULT_255_2_778
10
3.2602212
20
1.4527162
11
3.2662212
21
1.9070162
0
LINE
8
DEFAULT_255_2_778
10
4.5429212
20
2.1650162
11
4.5429212
21
2.8984162
0
LINE
8
DEFAULT_255_2_778
10
4.2039212
20
2.8984162
11
4.2039212
21
2.5973162
0
LINE
8
DEFAULT_255_2_778
10
2.9281212
20
1.9274162
11
2.9278212
21
1.9181162
0
LINE
8
DEFAULT_255_2_778
10
2.9278212
20
1.9181162
11
2.9215212
21
1.4485162
0
LINE
8
DEFAULT_255_2_778
10
2.9215212
20
1.4485162
11
2.9278212
21
1.1490162
0
LINE
8
DEFAULT_255_2_778
10
3.7803212
20
0.3994162
11
3.8756212
21
0.4015162
0
LINE
8
DEFAULT_255_2_778
10
4.6871212
20
1.3543162
11
4.6820212
21
1.4511162
0
LINE
8
DEFAULT_255_2_778
10
4.5103212
20
1.6181162
11
4.5101212
21
1.6183162
0
ENDSEC
0
EOF