0
SECTION
2
HEADER
9
$MEASUREMENT
70
1
0
ENDSEC
0
SECTION
2
TABLES
0
TABLE
2
LTYPE
0
LTYPE
72
65
70
64
2
CONTINUOUS
3
______
73
0
40
0
0
ENDTAB
0
TABLE
2
LAYER
0
LAYER
2
DEFAULT_255_2_778
70
0
62
255
6
CONTINUOUS
0
ENDTAB
0
ENDSEC
0
SECTION
2
ENTITIES
0
ARC
8
DEFAULT_255_2_778
10
10.356517
20
3.2541369
40
0.2952306
50
185.0765936
51
263.4336021
0
ARC
8
DEFAULT_255_2_778
10
10.4515109
20
3.5755241
40
0.6280213
50
258.1695232
51
270.3223807
0
ARC
8
DEFAULT_255_2_778
10
10.4654115
20
3.4370576
40
0.4896546
50
268.7868456
51
288.9559251
0
ARC
8
DEFAULT_255_2_778
10
10.5747635
20
3.1577526
40
0.190398
50
285.1337144
51
359.2356772
0
ARC
8
DEFAULT_255_2_778
10
10.581693
20
3.1557203
40
0.1834523
50
359.841488
51
66.181741
0
ARC
8
DEFAULT_255_2_778
10
10.386028
20
2.8137666
40
0.5767513
50
62.114547
51
75.8476262
0
ARC
8
DEFAULT_255_2_778
10
10.3634121
20
4.3210511
40
0.8737141
50
239.4419106
51
256.3783704
0
ARC
8
DEFAULT_255_2_778
10
10.1514569
20
3.9761653
40
0.4690223
50
177.9170201
51
240.3182729
0
ARC
8
DEFAULT_255_2_778
10
10.1931668
20
4.0027962
40
0.5105122
50
153.0130837
51
181.0756281
0
ARC
8
DEFAULT_255_2_778
10
10.2160047
20
3.9561866
40
0.5528935
50
102.8860839
51
149.781187
0
ARC
8
DEFAULT_255_2_778
10
10.3824121
20
3.4357195
40
1.0983338
50
89.5079409
51
105.2940157
0
ARC
8
DEFAULT_255_2_778
10
10.4064656
20
3.5310392
40
1.0030801
50
71.365562
51
90.8351804
0
ARC
8
DEFAULT_255_2_778
10
10.5562908
20
3.9406083
40
0.5672173
50
10.4624503
51
72.4870419
0
ARC
8
DEFAULT_255_2_778
10
10.3598021
20
3.8910364
40
0.7695519
50
4.1414551
51
11.4353895
0
ARC
8
DEFAULT_255_2_778
10
10.4426438
20
3.9383985
40
0.2628291
50
1.790956
51
44.6547542
0
ARC
8
DEFAULT_255_2_778
10
10.3922165
20
3.8473886
40
0.3638471
50
49.2734221
51
91.8827025
0
ARC
8
DEFAULT_255_2_778
10
10.3657056
20
3.6007871
40
0.6104257
50
88.6334931
51
90.0057284
0
ARC
8
DEFAULT_255_2_778
10
10.3545853
20
3.8220102
40
0.3893596
50
88.372377
51
111.4753788
0
ARC
8
DEFAULT_255_2_778
10
10.2712109
20
4.0255447
40
0.1694599
50
110.4366736
51
181.9045563
0
ARC
8
DEFAULT_255_2_778
10
10.26807
20
4.0169989
40
0.166251
50
178.9957342
51
244.0373888
0
ARC
8
DEFAULT_255_2_778
10
10.4794227
20
4.3645065
40
0.5724704
50
240.2424372
51
253.5282619
0
ARC
8
DEFAULT_255_2_778
10
10.644839
20
4.8494809
40
1.0846493
50
252.4127153
51
253.6466352
0
ARC
8
DEFAULT_255_2_778
10
10.4883953
20
2.8343152
40
0.9028011
50
57.8603624
51
75.872952
0
ARC
8
DEFAULT_255_2_778
10
10.7266942
20
3.20814
40
0.4595013
50
0.9972131
51
58.2234155
0
ARC
8
DEFAULT_255_2_778
10
10.538762
20
3.1856213
40
0.6480827
50
359.981565
51
2.698838
0
ARC
8
DEFAULT_255_2_778
10
10.6536294
20
3.1758196
40
0.5333014
50
334.5015289
51
1.0307094
0
ARC
8
DEFAULT_255_2_778
10
10.6408088
20
3.2176581
40
0.5638071
50
283.1468655
51
331.2229846
0
ARC
8
DEFAULT_255_2_778
10
10.4471155
20
3.8195258
40
1.1950751
50
269.4164727
51
285.627412
0
ARC
8
DEFAULT_255_2_778
10
10.422904
20
3.8030709
40
1.1786196
50
255.1828656
51
270.5853333
0
ARC
8
DEFAULT_255_2_778
10
10.2950971
20
3.3463076
40
0.7043927
50
227.6319553
51
255.7316441
0
ARC
8
DEFAULT_255_2_778
10
10.22502
20
3.2472708
40
0.5841885
50
186.0036771
51
226.1640877
0
ARC
8
DEFAULT_255_2_778
10
10.3986077
20
3.2821102
40
0.760647
50
184.342691
51
187.2460692
0
ARC
8
DEFAULT_255_2_778
10
18.5990283
20
2.9365293
40
1.5647407
50
79.4550608
51
90.490076
0
ARC
8
DEFAULT_255_2_778
10
18.7356632
20
3.6372326
40
0.8508877
50
60.7212728
51
79.8654123
0
ARC
8
DEFAULT_255_2_778
10
18.8953161
20
3.9250644
40
0.5217487
50
4.1625989
51
60.5555353
0
ARC
8
DEFAULT_255_2_778
10
18.6306597
20
3.8791622
40
0.789486
50
359.9020661
51
6.0912749
0
ARC
8
DEFAULT_255_2_778
10
18.769763
20
3.86613
40
0.6504865
50
337.9615166
51
1.029092
0
ARC
8
DEFAULT_255_2_778
10
18.8760869
20
3.8423223
40
0.5432907
50
288.9615752
51
336.0810475
0
ARC
8
DEFAULT_255_2_778
10
18.6725753
20
4.3377837
40
1.078454
50
275.7114879
51
290.6340682
0
ARC
8
DEFAULT_255_2_778
10
18.5910714
20
4.9939619
40
1.7395576
50
269.8212532
51
276.2317971
0
ARC
8
DEFAULT_255_2_778
10
18.5958824
20
4.5640385
40
0.9668178
50
269.2095414
51
279.5826916
0
ARC
8
DEFAULT_255_2_778
10
18.7092749
20
3.9384847
40
0.3312051
50
278.2550788
51
305.1705417
0
ARC
8
DEFAULT_255_2_778
10
18.7535075
20
3.8456914
40
0.2305229
50
309.4725937
51
1.4224406
0
ARC
8
DEFAULT_255_2_778
10
18.4913058
20
3.8774094
40
0.493339
50
356.9795111
51
0.046848
0
ARC
8
DEFAULT_255_2_778
10
18.7026252
20
3.8928579
40
0.2824203
50
356.9462736
51
31.8745758
0
ARC
8
DEFAULT_255_2_778
10
18.7457255
20
3.8947608
40
0.2457258
50
36.8107556
51
77.5004024
0
ARC
8
DEFAULT_255_2_778
10
18.6195168
20
3.4419727
40
0.715542
50
75.4806078
51
88.8355602
0
ARC
8
DEFAULT_255_2_778
10
18.5835987
20
2.8126873
40
1.3456259
50
87.8509757
51
90.0448849
0
ARC
8
DEFAULT_255_2_778
10
22.885931
20
3.489085
40
0.4982626
50
268.9090779
51
291.3853842
0
ARC
8
DEFAULT_255_2_778
10
22.8751467
20
3.4279664
40
0.4464564
50
295.5378234
51
355.5021356
0
ARC
8
DEFAULT_255_2_778
10
22.2552378
20
3.5696598
40
1.0795504
50
350.5791903
51
359.07874
0
ARC
8
DEFAULT_255_2_778
10
21.9660198
20
3.5807689
40
1.3689248
50
358.8084615
51
0.0060196
0
ARC
8
DEFAULT_255_2_778
10
21.9653518
20
3.5810583
40
1.3695927
50
359.9939109
51
1.1799205
0
ARC
8
DEFAULT_255_2_778
10
22.5811915
20
3.6262234
40
0.7536537
50
358.7103456
51
28.4700066
0
ARC
8
DEFAULT_255_2_778
10
22.9252781
20
3.793922
40
0.371608
50
31.0314244
51
77.5431897
0
ARC
8
DEFAULT_255_2_778
10
22.8808178
20
3.6189395
40
0.5520906
50
76.9548226
51
90.4538597
0
ARC
8
DEFAULT_255_2_778
10
22.8669422
20
3.6727482
40
0.4983552
50
88.9074528
51
111.3903914
0
ARC
8
DEFAULT_255_2_778
10
22.8777633
20
3.733935
40
0.4465061
50
115.5505736
51
175.5329079
0
ARC
8
DEFAULT_255_2_778
10
23.4994134
20
3.5921345
40
1.0813146
50
170.6015817
51
179.0924783
0
ARC
8
DEFAULT_255_2_778
10
23.7875357
20
3.5810776
40
1.3695912
50
178.8208873
51
180.0068981
0
ARC
8
DEFAULT_255_2_778
10
23.7868677
20
3.5807498
40
1.3689232
50
179.9931788
51
181.1907381
0
ARC
8
DEFAULT_255_2_778
10
23.1711419
20
3.5354771
40
0.7530898
50
178.7198052
51
208.4841435
0
ARC
8
DEFAULT_255_2_778
10
22.8275363
20
3.3679643
40
0.3715609
50
211.050272
51
257.5546588
0
ARC
8
DEFAULT_255_2_778
10
22.8720696
20
3.5432494
40
0.552354
50
256.9621898
51
270.4538179
0
ARC
8
DEFAULT_255_2_778
10
22.8654957
20
3.744288
40
1.115929
50
254.8228063
51
270.5621622
0
ARC
8
DEFAULT_255_2_778
10
22.7654514
20
3.3925488
40
0.7502794
50
222.2107744
51
255.1639891
0
ARC
8
DEFAULT_255_2_778
10
22.8556522
20
3.4476404
40
0.8543325
50
192.4835105
51
220.8829582
0
ARC
8
DEFAULT_255_2_778
10
23.3427779
20
3.5709264
40
1.3566747
50
179.5529096
51
193.1201749
0
ARC
8
DEFAULT_255_2_778
10
23.3132251
20
3.5950514
40
1.3271496
50
165.0233131
51
180.584503
0
ARC
8
DEFAULT_255_2_778
10
22.8035443
20
3.7431425
40
0.7965924
50
130.1880689
51
165.8393962
0
ARC
8
DEFAULT_255_2_778
10
22.7822774
20
3.7355614
40
0.7889436
50
102.0809225
51
128.6527375
0
ARC
8
DEFAULT_255_2_778
10
22.8683435
20
3.3739729
40
1.160568
50
89.6000618
51
102.4996774
0
ARC
8
DEFAULT_255_2_778
10
22.8874204
20
3.4112845
40
1.1232819
50
74.990088
51
90.5598588
0
ARC
8
DEFAULT_255_2_778
10
22.9876939
20
3.7685631
40
0.7522361
50
43.5801948
51
75.3192885
0
ARC
8
DEFAULT_255_2_778
10
22.9084369
20
3.721391
40
0.8424183
50
12.760948
51
42.1881378
0
ARC
8
DEFAULT_255_2_778
10
22.4115822
20
3.5927401
40
1.3555089
50
359.5254255
51
13.4256857
0
ARC
8
DEFAULT_255_2_778
10
22.4400257
20
3.5679691
40
1.3270879
50
345.0204169
51
0.5847434
0
ARC
8
DEFAULT_255_2_778
10
22.9496261
20
3.4198828
40
0.7966087
50
310.1791289
51
345.8357194
0
ARC
8
DEFAULT_255_2_778
10
22.970686
20
3.4277131
40
0.7892872
50
282.0765005
51
308.6441811
0
ARC
8
DEFAULT_255_2_778
10
22.8845479
20
3.7896983
40
1.1613139
50
269.6001995
51
282.4957797
0
ARC
8
DEFAULT_255_2_778
10
24.9464368
20
2.9365192
40
1.5652509
50
79.4588549
51
90.490228
0
ARC
8
DEFAULT_255_2_778
10
25.0831266
20
3.6377428
40
0.8508769
50
60.7257603
51
79.8696183
0
ARC
8
DEFAULT_255_2_778
10
25.2427614
20
3.925628
40
0.5217001
50
4.1579545
51
60.558239
0
ARC
8
DEFAULT_255_2_778
10
24.9777495
20
3.8796635
40
0.7897963
50
359.9020093
51
6.0900829
0
ARC
8
DEFAULT_255_2_778
10
25.1568466
20
3.8683294
40
0.6107795
50
338.214597
51
0.9365558
0
ARC
8
DEFAULT_255_2_778
10
25.2210938
20
3.8667948
40
0.5510075
50
287.2994418
51
335.8827268
0
ARC
8
DEFAULT_255_2_778
10
24.9431947
20
4.5661055
40
0.9682848
50
269.2100105
51
279.5705841
0
ARC
8
DEFAULT_255_2_778
10
25.0566867
20
3.939229
40
0.3313532
50
278.2413983
51
305.1471908
0
ARC
8
DEFAULT_255_2_778
10
25.1010548
20
3.8461785
40
0.230376
50
309.4509856
51
1.4266227
0
ARC
8
DEFAULT_255_2_778
10
24.8387221
20
3.8779091
40
0.4933226
50
356.9794679
51
0.0468743
0
ARC
8
DEFAULT_255_2_778
10
25.0500553
20
3.8933595
40
0.2823904
50
356.9456307
51
31.8779611
0
ARC
8
DEFAULT_255_2_778
10
25.0931059
20
3.8952195
40
0.245763
50
36.8162703
51
77.5057257
0
ARC
8
DEFAULT_255_2_778
10
24.9668351
20
3.442094
40
0.7159206
50
75.4844993
51
88.8362504
0
ARC
8
DEFAULT_255_2_778
10
24.9308993
20
2.8122935
40
1.3465198
50
87.8516895
51
90.0448804
0
LINE
8
DEFAULT_255_2_778
10
9.6369445
20
3.2280127
11
10.0624445
21
3.2280127
0
LINE
8
DEFAULT_255_2_778
10
10.5270445
20
3.3730127
11
10.1576445
21
3.4719127
0
LINE
8
DEFAULT_255_2_778
10
11.1273445
20
3.9466127
11
10.7053445
21
3.9466127
0
LINE
8
DEFAULT_255_2_778
10
10.3394445
20
3.8087127
11
10.7087445
21
3.7098127
0
LINE
8
DEFAULT_255_2_778
10
9.6401445
20
3.2245127
11
9.6369445
21
3.2280127
0
LINE
8
DEFAULT_255_2_778
10
11.6371445
20
2.6607127
11
11.6371445
21
4.5012127
0
LINE
8
DEFAULT_255_2_778
10
11.6371445
20
4.5012127
11
12.9564445
21
4.5012127
0
LINE
8
DEFAULT_255_2_778
10
12.9564445
20
4.5012127
11
12.9564445
21
4.1482127
0
LINE
8
DEFAULT_255_2_778
10
12.9564445
20
4.1482127
11
12.0560445
21
4.1482127
0
LINE
8
DEFAULT_255_2_778
10
12.0560445
20
4.1482127
11
12.0560445
21
3.7757127
0
LINE
8
DEFAULT_255_2_778
10
12.0560445
20
3.7757127
11
12.7849445
21
3.7757127
0
LINE
8
DEFAULT_255_2_778
10
12.7849445
20
3.7757127
11
12.7849445
21
3.4227127
0
LINE
8
DEFAULT_255_2_778
10
12.7849445
20
3.4227127
11
12.0560445
21
3.4227127
0
LINE
8
DEFAULT_255_2_778
10
12.0560445
20
3.4227127
11
12.0560445
21
3.0137127
0
LINE
8
DEFAULT_255_2_778
10
12.0560445
20
3.0137127
11
12.9564445
21
3.0137127
0
LINE
8
DEFAULT_255_2_778
10
12.9564445
20
3.0137127
11
12.9564445
21
2.6607127
0
LINE
8
DEFAULT_255_2_778
10
12.9564445
20
2.6607127
11
11.6371445
21
2.6607127
0
LINE
8
DEFAULT_255_2_778
10
11.6371445
20
2.6607127
11
11.6371445
21
2.6607127
0
LINE
8
DEFAULT_255_2_778
10
13.4596445
20
2.6607127
11
13.4596445
21
4.5012127
0
LINE
8
DEFAULT_255_2_778
10
13.4596445
20
4.5012127
11
13.9742445
21
4.5012127
0
LINE
8
DEFAULT_255_2_778
10
13.9742445
20
4.5012127
11
14.3997445
21
3.6667127
0
LINE
8
DEFAULT_255_2_778
10
14.3997445
20
3.6667127
11
14.8283445
21
4.5012127
0
LINE
8
DEFAULT_255_2_778
10
14.8283445
20
4.5012127
11
15.3133445
21
4.5012127
0
LINE
8
DEFAULT_255_2_778
10
15.3133445
20
4.5012127
11
15.3133445
21
2.6607127
0
LINE
8
DEFAULT_255_2_778
10
15.3133445
20
2.6607127
11
14.9143445
21
2.6607127
0
LINE
8
DEFAULT_255_2_778
10
14.9143445
20
2.6607127
11
14.9143445
21
3.9572127
0
LINE
8
DEFAULT_255_2_778
10
14.9143445
20
3.9572127
11
14.5021445
21
3.1528127
0
LINE
8
DEFAULT_255_2_778
10
14.5021445
20
3.1528127
11
14.2711445
21
3.1528127
0
LINE
8
DEFAULT_255_2_778
10
14.2711445
20
3.1528127
11
13.8589445
21
3.9572127
0
LINE
8
DEFAULT_255_2_778
10
13.8589445
20
3.9572127
11
13.8589445
21
2.6607127
0
LINE
8
DEFAULT_255_2_778
10
13.8589445
20
2.6607127
11
13.4601445
21
2.6607127
0
LINE
8
DEFAULT_255_2_778
10
13.4601445
20
2.6607127
11
13.4596445
21
2.6607127
0
LINE
8
DEFAULT_255_2_778
10
15.7207445
20
2.6607127
11
16.3967445
21
4.5012127
0
LINE
8
DEFAULT_255_2_778
10
16.3967445
20
4.5012127
11
16.8584445
21
4.5012127
0
LINE
8
DEFAULT_255_2_778
10
16.8584445
20
4.5012127
11
17.5344445
21
2.6607127
0
LINE
8
DEFAULT_255_2_778
10
17.5344445
20
2.6607127
11
17.0929445
21
2.6607127
0
LINE
8
DEFAULT_255_2_778
10
17.0929445
20
2.6607127
11
16.9775445
21
2.9941127
0
LINE
8
DEFAULT_255_2_778
10
16.9775445
20
2.9941127
11
16.2552445
21
2.9941127
0
LINE
8
DEFAULT_255_2_778
10
16.2552445
20
2.9941127
11
16.1430445
21
2.6607127
0
LINE
8
DEFAULT_255_2_778
10
16.1430445
20
2.6607127
11
15.7207445
21
2.6607127
0
LINE
8
DEFAULT_255_2_778
10
16.3610445
20
3.3105127
11
16.8788445
21
3.3105127
0
LINE
8
DEFAULT_255_2_778
10
16.8788445
20
3.3105127
11
16.6182445
21
4.0858127
0
LINE
8
DEFAULT_255_2_778
10
16.6182445
20
4.0858127
11
16.3608445
21
3.3105127
0
LINE
8
DEFAULT_255_2_778
10
16.3608445
20
3.3105127
11
16.3610445
21
3.3105127
0
LINE
8
DEFAULT_255_2_778
10
17.9427445
20
2.6607127
11
17.9427445
21
4.5012127
0
LINE
8
DEFAULT_255_2_778
10
17.9427445
20
4.5012127
11
18.5856445
21
4.5012127
0
LINE
8
DEFAULT_255_2_778
10
18.5856445
20
3.2544127
11
18.3613445
21
3.2544127
0
LINE
8
DEFAULT_255_2_778
10
18.3613445
20
3.2544127
11
18.3613445
21
2.6607127
0
LINE
8
DEFAULT_255_2_778
10
18.3613445
20
2.6607127
11
17.9427445
21
2.6607127
0
LINE
8
DEFAULT_255_2_778
10
18.3615445
20
3.5973127
11
18.5825445
21
3.5973127
0
LINE
8
DEFAULT_255_2_778
10
18.5825445
20
4.1583127
11
18.3615445
21
4.1583127
0
LINE
8
DEFAULT_255_2_778
10
18.3615445
20
4.1583127
11
18.3615445
21
3.5973127
0
LINE
8
DEFAULT_255_2_778
10
19.8839445
20
2.6607127
11
19.8839445
21
4.5009127
0
LINE
8
DEFAULT_255_2_778
10
19.8839445
20
4.5009127
11
20.3028445
21
4.5009127
0
LINE
8
DEFAULT_255_2_778
10
20.3028445
20
4.5009127
11
20.3028445
21
3.7818127
0
LINE
8
DEFAULT_255_2_778
10
20.3028445
20
3.7818127
11
21.0449445
21
3.7818127
0
LINE
8
DEFAULT_255_2_778
10
21.0449445
20
3.7818127
11
21.0449445
21
4.5009127
0
LINE
8
DEFAULT_255_2_778
10
21.0449445
20
4.5009127
11
21.4638445
21
4.5009127
0
LINE
8
DEFAULT_255_2_778
10
21.4638445
20
4.5009127
11
21.4638445
21
2.6605127
0
LINE
8
DEFAULT_255_2_778
10
21.4638445
20
2.6605127
11
21.0449445
21
2.6605127
0
LINE
8
DEFAULT_255_2_778
10
21.0449445
20
2.6605127
11
21.0449445
21
3.4222127
0
LINE
8
DEFAULT_255_2_778
10
21.0449445
20
3.4222127
11
20.3023445
21
3.4222127
0
LINE
8
DEFAULT_255_2_778
10
20.3023445
20
3.4222127
11
20.3023445
21
2.6636127
0
LINE
8
DEFAULT_255_2_778
10
20.3023445
20
2.6636127
11
19.8834445
21
2.6636127
0
LINE
8
DEFAULT_255_2_778
10
19.8834445
20
2.6636127
11
19.8839445
21
2.6607127
0
LINE
8
DEFAULT_255_2_778
10
22.8764445
20
2.9909127
11
22.8764445
21
2.9909127
0
LINE
8
DEFAULT_255_2_778
10
22.8764445
20
2.6284127
11
22.8764445
21
2.6284127
0
LINE
8
DEFAULT_255_2_778
10
24.2901445
20
2.6612127
11
24.2901445
21
4.5017127
0
LINE
8
DEFAULT_255_2_778
10
24.2901445
20
4.5017127
11
24.9330445
21
4.5017127
0
LINE
8
DEFAULT_255_2_778
10
25.3849445
20
3.3407127
11
25.8532445
21
2.6612127
0
LINE
8
DEFAULT_255_2_778
10
25.8532445
20
2.6612127
11
25.3717445
21
2.6612127
0
LINE
8
DEFAULT_255_2_778
10
25.3717445
20
2.6612127
11
24.9891445
21
3.2550127
0
LINE
8
DEFAULT_255_2_778
10
24.9891445
20
3.2550127
11
24.7086445
21
3.2550127
0
LINE
8
DEFAULT_255_2_778
10
24.7086445
20
3.2550127
11
24.7086445
21
2.6612127
0
LINE
8
DEFAULT_255_2_778
10
24.7086445
20
2.6612127
11
24.2901445
21
2.6612127
0
LINE
8
DEFAULT_255_2_778
10
24.7089445
20
3.5979127
11
24.9298445
21
3.5979127
0
LINE
8
DEFAULT_255_2_778
10
24.9298445
20
4.1588127
11
24.7089445
21
4.1588127
0
LINE
8
DEFAULT_255_2_778
10
24.7089445
20
4.1588127
11
24.7089445
21
3.5979127
0
LINE
8
DEFAULT_255_2_778
10
26.3038445
20
2.6612127
11
26.3038445
21
4.5017127
0
LINE
8
DEFAULT_255_2_778
10
26.3038445
20
4.5017127
11
27.6230445
21
4.5017127
0
LINE
8
DEFAULT_255_2_778
10
27.6230445
20
4.5017127
11
27.6230445
21
4.1490127
0
LINE
8
DEFAULT_255_2_778
10
27.6230445
20
4.1490127
11
26.7226445
21
4.1490127
0
LINE
8
DEFAULT_255_2_778
10
26.7226445
20
4.1490127
11
26.7226445
21
3.7765127
0
LINE
8
DEFAULT_255_2_778
10
26.7226445
20
3.7765127
11
27.4516445
21
3.7765127
0
LINE
8
DEFAULT_255_2_778
10
27.4516445
20
3.7765127
11
27.4516445
21
3.4235127
0
LINE
8
DEFAULT_255_2_778
10
27.4516445
20
3.4235127
11
26.7226445
21
3.4235127
0
LINE
8
DEFAULT_255_2_778
10
26.7226445
20
3.4235127
11
26.7226445
21
3.0145127
0
LINE
8
DEFAULT_255_2_778
10
26.7226445
20
3.0145127
11
27.6230445
21
3.0145127
0
LINE
8
DEFAULT_255_2_778
10
27.6230445
20
3.0145127
11
27.6230445
21
2.6615127
0
LINE
8
DEFAULT_255_2_778
10
27.6230445
20
2.6615127
11
26.3038445
21
2.6615127
0
LINE
8
DEFAULT_255_2_778
10
26.3038445
20
2.6615127
11
26.3038445
21
2.6612127
0
ARC
8
DEFAULT_255_2_778
10
7.074116
20
5.5645309
40
0.1904751
50
98.3196924
51
101.002144
0
ARC
8
DEFAULT_255_2_778
10
7.0739361
20
5.5658316
40
0.189162
50
90.0040418
51
98.3227862
0
ARC
8
DEFAULT_255_2_778
10
7.074036
20
5.5668782
40
0.1881155
50
33.2443281
51
90.0344874
0
ARC
8
DEFAULT_255_2_778
10
5.0214628
20
4.2993487
40
2.6004548
50
31.3809549
51
31.8085992
0
ARC
8
DEFAULT_255_2_778
10
2.8868163
20
2.9942456
40
5.1024552
50
30.895946
51
31.41051
0
ARC
8
DEFAULT_255_2_778
10
2.1276973
20
2.5390671
40
5.9875814
50
29.8878743
51
30.9035669
0
ARC
8
DEFAULT_255_2_778
10
2.8590482
20
2.9566649
40
5.1454084
50
28.423953
51
29.9143442
0
ARC
8
DEFAULT_255_2_778
10
4.0429539
20
3.5983177
40
3.7988015
50
27.095793
51
28.412312
0
ARC
8
DEFAULT_255_2_778
10
5.1307164
20
4.1523651
40
2.5780687
50
24.8774792
51
27.1450189
0
ARC
8
DEFAULT_255_2_778
10
3.3766213
20
3.4478702
40
4.4668592
50
17.2973565
51
23.6102488
0
ARC
8
DEFAULT_255_2_778
10
7.4601504
20
4.7252923
40
0.1882728
50
6.1619348
51
15.6260707
0
ARC
8
DEFAULT_255_2_778
10
7.4609553
20
4.7253948
40
0.1874615
50
359.9998144
51
6.1571971
0
ARC
8
DEFAULT_255_2_778
10
7.4608706
20
4.7253469
40
0.1875461
50
307.6245441
51
0.0144316
0
ARC
8
DEFAULT_255_2_778
10
7.248
20
4.04821
40
0.2406983
50
128.5295537
51
180.0055634
0
ARC
8
DEFAULT_255_2_778
10
7.2489809
20
4.0481889
40
0.2416792
50
180.0005492
51
183.9109233
0
ARC
8
DEFAULT_255_2_778
10
8.7917047
20
4.1754507
40
1.7896224
50
184.6070611
51
187.6962781
0
ARC
8
DEFAULT_255_2_778
10
0.392318
20
3.1085676
40
6.6773229
50
6.791358
51
7.1163144
0
ARC
8
DEFAULT_255_2_778
10
4.6486831
20
3.6104533
40
2.3914783
50
4.0394228
51
6.9104056
0
ARC
8
DEFAULT_255_2_778
10
5.0527197
20
3.6425283
40
1.986189
50
1.4591523
51
3.9374816
0
ARC
8
DEFAULT_255_2_778
10
5.0260911
20
3.6495286
40
2.0126453
50
359.9743677
51
1.2406285
0
ARC
8
DEFAULT_255_2_778
10
4.6779001
20
3.6487087
40
2.3608361
50
359.7035433
51
359.9980465
0
ARC
8
DEFAULT_255_2_778
10
3.8266038
20
3.6602328
40
3.2121885
50
357.0156052
51
359.5765566
0
ARC
8
DEFAULT_255_2_778
10
2.9968191
20
3.6977407
40
4.0428047
50
356.5156421
51
357.0970237
0
ARC
8
DEFAULT_255_2_778
10
3.0219351
20
3.6958322
40
4.0176192
50
355.7717697
51
356.5210403
0
ARC
8
DEFAULT_255_2_778
10
3.8292752
20
3.6357377
40
3.208046
50
355.2772318
51
355.7790222
0
ARC
8
DEFAULT_255_2_778
10
5.5002734
20
3.4971076
40
1.5313072
50
354.9196066
51
355.2988777
0
ARC
8
DEFAULT_255_2_778
10
7.2643107
20
3.3563708
40
0.2388012
50
178.7680281
51
179.9991763
0
ARC
8
DEFAULT_255_2_778
10
7.2635425
20
3.356482
40
0.2380332
50
180.0259441
51
234.6620947
0
ARC
8
DEFAULT_255_2_778
10
7.5137533
20
2.6905147
40
0.1876544
50
359.9955024
51
55.3061228
0
ARC
8
DEFAULT_255_2_778
10
7.5138341
20
2.6905019
40
0.1875736
50
352.5359336
51
359.9994299
0
ARC
8
DEFAULT_255_2_778
10
7.5127707
20
2.6906408
40
0.1886461
50
347.2493768
51
352.536058
0
ARC
8
DEFAULT_255_2_778
10
4.1209016
20
3.5177336
40
3.6798758
50
338.668093
51
346.3449724
0
ARC
8
DEFAULT_255_2_778
10
5.0980653
20
3.1513859
40
2.6364307
50
335.9231867
51
338.3591868
0
ARC
8
DEFAULT_255_2_778
10
3.8641762
20
3.6974799
40
3.9857587
50
334.7664756
51
335.9921176
0
ARC
8
DEFAULT_255_2_778
10
2.4743496
20
4.355318
40
5.5234078
50
333.0629062
51
334.7398094
0
ARC
8
DEFAULT_255_2_778
10
1.9485051
20
4.6180102
40
6.1112045
50
332.2868309
51
333.1006198
0
ARC
8
DEFAULT_255_2_778
10
3.1658729
20
3.97825
40
4.7359675
50
331.8783083
51
332.2897327
0
ARC
8
DEFAULT_255_2_778
10
5.3413689
20
2.8148418
40
2.2689245
50
331.5861796
51
331.8948508
0
ARC
8
DEFAULT_255_2_778
10
7.1748136
20
1.8300098
40
0.1878321
50
270.0260718
51
329.6865035
0
ARC
8
DEFAULT_255_2_778
10
7.1749135
20
1.8301647
40
0.1879869
50
261.7887477
51
269.9955838
0
ARC
8
DEFAULT_255_2_778
10
6.5402188
20
1.5124871
40
0.24053
50
82.5839995
51
89.9985011
0
ARC
8
DEFAULT_255_2_778
10
6.5403215
20
1.5120979
40
0.2409192
50
90.0229081
51
137.9357092
0
ARC
8
DEFAULT_255_2_778
10
6.8903034
20
1.1970386
40
0.7118221
50
137.98218
51
138.5875012
0
ARC
8
DEFAULT_255_2_778
10
6.9995064
20
1.1006914
40
0.8574519
50
138.5860239
51
139.0872517
0
ARC
8
DEFAULT_255_2_778
10
7.1329141
20
0.9851329
40
1.0339493
50
139.0895485
51
139.5035745
0
ARC
8
DEFAULT_255_2_778
10
7.2915232
20
0.8497103
40
1.2425065
50
139.5044593
51
139.847175
0
ARC
8
DEFAULT_255_2_778
10
-38.5549475
20
38.4977327
40
58.0810618
50
320.4854273
51
320.6242557
0
ARC
8
DEFAULT_255_2_778
10
4.5772843
20
2.9434263
40
2.1839058
50
315.1284612
51
320.0889178
0
ARC
8
DEFAULT_255_2_778
10
4.6441783
20
2.8810242
40
2.0924749
50
314.9528977
51
315.0471033
0
ARC
8
DEFAULT_255_2_778
10
4.8495189
20
2.6739899
40
1.8008812
50
313.93361
51
314.9833731
0
ARC
8
DEFAULT_255_2_778
10
4.3876878
20
3.157654
40
2.4696207
50
311.641995
51
313.8641728
0
ARC
8
DEFAULT_255_2_778
10
3.5191385
20
4.136819
40
3.7784905
50
309.2406423
51
311.6184434
0
ARC
8
DEFAULT_255_2_778
10
3.1275429
20
4.6085401
40
4.3915545
50
308.1251218
51
309.3044206
0
ARC
8
DEFAULT_255_2_778
10
3.7367487
20
3.8321757
40
3.4047042
50
307.6137335
51
308.1263343
0
ARC
8
DEFAULT_255_2_778
10
4.82978
20
2.4126004
40
1.6130817
50
307.2453605
51
307.6343022
0
ARC
8
DEFAULT_255_2_778
10
5.9652026
20
0.9473347
40
0.2411382
50
131.295692
51
179.9792742
0
ARC
8
DEFAULT_255_2_778
10
5.965026
20
0.9474289
40
0.2409616
50
180.001668
51
186.6067951
0
ARC
8
DEFAULT_255_2_778
10
5.6357438
20
0.3174677
40
0.1882111
50
0.0039471
51
7.2148073
0
ARC
8
DEFAULT_255_2_778
10
5.6360139
20
0.3175601
40
0.1879409
50
299.3264776
51
359.9757843
0
ARC
8
DEFAULT_255_2_778
10
4.7298635
20
1.9556905
40
2.0599895
50
296.953568
51
298.9840496
0
ARC
8
DEFAULT_255_2_778
10
3.9666908
20
3.4430876
40
3.7317439
50
295.2387531
51
297.0469567
0
ARC
8
DEFAULT_255_2_778
10
3.8334638
20
3.7193862
40
4.0384744
50
293.2231033
51
295.2770264
0
ARC
8
DEFAULT_255_2_778
10
4.0774196
20
3.1458056
40
3.4151731
50
290.6097668
51
293.256328
0
ARC
8
DEFAULT_255_2_778
10
4.3239427
20
2.5246343
40
2.7470072
50
287.3382997
51
290.3575468
0
ARC
8
DEFAULT_255_2_778
10
3.6742079
20
4.5921453
40
4.9142054
50
285.2037573
51
287.3857157
0
ARC
8
DEFAULT_255_2_778
10
3.374044
20
5.670511
40
6.0335501
50
284.2811092
51
285.2688434
0
ARC
8
DEFAULT_255_2_778
10
3.645077
20
4.6037138
40
4.9328618
50
283.8054187
51
284.2869133
0
ARC
8
DEFAULT_255_2_778
10
4.2471919
20
2.1498077
40
2.4061651
50
283.4673027
51
283.8254981
0
ARC
8
DEFAULT_255_2_778
10
4.7698039
20
-0.0058697
40
0.1881532
50
277.9291679
51
281.5773984
0
ARC
8
DEFAULT_255_2_778
10
4.7699327
20
-0.0068014
40
0.1872125
50
270.0012842
51
277.9294674
0
ARC
8
DEFAULT_255_2_778
10
4.7700223
20
-0.0061438
40
0.1878703
50
213.7778703
51
269.9739458
0
ARC
8
DEFAULT_255_2_778
10
4.1095065
20
0.255967
40
0.2398402
50
34.5844286
51
89.8893582
0
ARC
8
DEFAULT_255_2_778
10
4.1097432
20
0.3252194
40
0.1705876
50
89.923953
51
90.2279086
0
ARC
8
DEFAULT_255_2_778
10
3.9993876
20
1.8862818
40
1.3947955
50
274.0539029
51
274.5099985
0
ARC
8
DEFAULT_255_2_778
10
3.9008136
20
3.2557396
40
2.7677961
50
273.5818452
51
274.0852362
0
ARC
8
DEFAULT_255_2_778
10
3.8612751
20
3.8809397
40
3.394245
50
272.9892934
51
273.5886368
0
ARC
8
DEFAULT_255_2_778
10
3.857215
20
3.9475644
40
3.4609909
50
271.7700734
51
272.9988977
0
ARC
8
DEFAULT_255_2_778
10
3.8744489
20
3.3499176
40
2.8630971
50
270.0477537
51
271.794786
0
ARC
8
DEFAULT_255_2_778
10
3.8764208
20
2.7482983
40
2.261477
50
269.144582
51
270.0104969
0
ARC
8
DEFAULT_255_2_778
10
3.8709474
20
2.3909287
40
1.9040657
50
268.1044216
51
269.1487198
0
ARC
8
DEFAULT_255_2_778
10
3.8676887
20
2.4280293
40
1.9410432
50
267.026563
51
268.2367841
0
ARC
8
DEFAULT_255_2_778
10
3.9203106
20
3.3355942
40
2.8501211
50
264.1987095
51
266.9165403
0
ARC
8
DEFAULT_255_2_778
10
3.9832346
20
4.0096162
40
3.5270557
50
264.0056811
51
264.2885032
0
ARC
8
DEFAULT_255_2_778
10
3.9999994
20
4.168245
40
3.6865678
50
262.9303666
51
264.0040091
0
ARC
8
DEFAULT_255_2_778
10
3.936149
20
3.6591448
40
3.1734798
50
262.2594383
51
262.9431349
0
ARC
8
DEFAULT_255_2_778
10
3.7235322
20
2.1008393
40
1.6007368
50
261.7907352
51
262.2878895
0
ARC
8
DEFAULT_255_2_778
10
3.4772755
20
0.275987
40
0.2411677
50
85.7937015
51
89.9993686
0
ARC
8
DEFAULT_255_2_778
10
3.4770048
20
0.2782967
40
0.2388582
50
89.9344313
51
141.4645227
0
ARC
8
DEFAULT_255_2_778
10
2.7979448
20
0.0644173
40
0.1875472
50
269.9796838
51
322.2142179
0
ARC
8
DEFAULT_255_2_778
10
2.7978793
20
0.0644342
40
0.1875641
50
263.9259147
51
269.9996667
0
ARC
8
DEFAULT_255_2_778
10
2.797972
20
0.0651471
40
0.1882829
50
254.281701
51
263.9208473
0
ARC
8
DEFAULT_255_2_778
10
3.3129771
20
1.8712551
40
2.066381
50
251.9891033
51
254.1026428
0
ARC
8
DEFAULT_255_2_778
10
3.8235217
20
3.4596559
40
3.7348099
50
249.7553881
51
252.0750652
0
ARC
8
DEFAULT_255_2_778
10
3.7643366
20
3.3181905
40
3.5816099
50
245.9548045
51
249.8606138
0
ARC
8
DEFAULT_255_2_778
10
3.4960784
20
2.7018409
40
2.9094474
50
245.4028884
51
245.8335714
0
ARC
8
DEFAULT_255_2_778
10
3.3833656
20
2.4460172
40
2.629926
50
242.9296921
51
245.315791
0
ARC
8
DEFAULT_255_2_778
10
3.9760016
20
3.6158832
40
3.9413335
50
241.8154165
51
242.9976495
0
ARC
8
DEFAULT_255_2_778
10
4.7129476
20
4.984562
40
5.4957994
50
240.064124
51
241.7828778
0
ARC
8
DEFAULT_255_2_778
10
5.0401703
20
5.5614244
40
6.158995
50
239.2772515
51
240.1041805
0
ARC
8
DEFAULT_255_2_778
10
4.3480594
20
4.3972971
40
4.8046649
50
238.8639066
51
239.2800942
0
ARC
8
DEFAULT_255_2_778
10
3.0301828
20
2.2172266
40
2.2572142
50
238.5646698
51
238.8834654
0
ARC
8
DEFAULT_255_2_778
10
1.9561085
20
0.4483748
40
0.1879084
50
180.024224
51
236.7080618
0
ARC
8
DEFAULT_255_2_778
10
1.9559527
20
0.4482825
40
0.1877525
50
171.5407702
51
179.9960687
0
ARC
8
DEFAULT_255_2_778
10
1.9573213
20
0.4480907
40
0.1891346
50
168.8376958
51
171.5443117
0
ARC
8
DEFAULT_255_2_778
10
2.6795093
20
0.7689464
40
0.8169992
50
137.5093112
51
164.1776975
0
ARC
8
DEFAULT_255_2_778
10
3.9738035
20
3.7380664
40
1.3135599
50
241.1439113
51
245.1462499
0
ARC
8
DEFAULT_255_2_778
10
3.9471303
20
3.6804936
40
1.2501084
50
245.1464699
51
249.4794495
0
ARC
8
DEFAULT_255_2_778
10
3.9369291
20
3.6542774
40
1.2219799
50
249.4965134
51
249.7874206
0
ARC
8
DEFAULT_255_2_778
10
3.9238835
20
3.6165655
40
1.1820835
50
249.7492548
51
257.325715
0
ARC
8
DEFAULT_255_2_778
10
3.9124435
20
3.566363
40
1.1305943
50
257.3331351
51
266.051858
0
ARC
8
DEFAULT_255_2_778
10
3.9109013
20
3.5491826
40
1.1133486
50
266.0701572
51
269.9990333
0
ARC
8
DEFAULT_255_2_778
10
3.9011742
20
3.6056747
40
1.169881
50
270.4754775
51
314.1277805
0
ARC
8
DEFAULT_255_2_778
10
3.9104736
20
3.6227572
40
1.1758145
50
313.2229071
51
358.6799277
0
ARC
8
DEFAULT_255_2_778
10
3.9713695
20
3.6109834
40
1.1147116
50
359.2128325
51
359.9989531
0
ARC
8
DEFAULT_255_2_778
10
3.9671721
20
3.6107156
40
1.118909
50
0.0126704
51
9.486796
0
ARC
8
DEFAULT_255_2_778
10
3.9277454
20
3.603921
40
1.1589164
50
9.4968485
51
17.5763456
0
ARC
8
DEFAULT_255_2_778
10
3.8839165
20
3.5906998
40
1.2046919
50
17.546323
51
20.2154939
0
ARC
8
DEFAULT_255_2_778
10
3.8451799
20
3.5761783
40
1.2460602
50
20.2265932
51
24.5861596
0
ARC
8
DEFAULT_255_2_778
10
3.7880676
20
3.5500501
40
1.3088655
50
24.5860372
51
28.5980884
0
ARC
8
DEFAULT_255_2_778
10
3.7480737
20
3.5287147
40
1.3541925
50
28.5806918
51
28.8436168
0
ARC
8
DEFAULT_255_2_778
10
6.7528953
20
4.8419594
40
0.8206855
50
105.9360258
51
132.4511116
0
LINE
8
DEFAULT_255_2_778
10
7.5753647
20
4.5768051
11
7.0980647
21
4.2365051
0
LINE
8
DEFAULT_255_2_778
10
7.1258647
20
3.1623051
11
7.6205647
21
2.8448051
0
LINE
8
DEFAULT_255_2_778
10
7.1480647
20
1.6441051
11
6.5712647
21
1.7510051
0
LINE
8
DEFAULT_255_2_778
10
5.7256647
20
0.9197051
11
5.8224647
21
0.3411051
0
LINE
8
DEFAULT_255_2_778
10
4.6138647
20
-0.1105949
11
4.3069647
21
0.3921051
0
LINE
8
DEFAULT_255_2_778
10
3.2901647
20
0.4271051
11
2.9461647
21
-0.0504949
0
LINE
8
DEFAULT_255_2_778
10
1.7717647
20
0.4847051
11
1.8934647
21
0.9917051
0
LINE
8
DEFAULT_255_2_778
10
2.0770647
20
1.3208051
11
3.3398647
21
2.5876051
0
LINE
8
DEFAULT_255_2_778
10
4.9342647
20
4.1820051
11
6.1989647
21
5.4475051
0
LINE
8
DEFAULT_255_2_778
10
6.5275647
20
5.6311051
11
7.0377647
21
5.7515051
0
ARC
8
DEFAULT_255_2_778
10
0.785897
20
1.5986226
40
0.1915079
50
278.5975909
51
280.9135943
0
ARC
8
DEFAULT_255_2_778
10
0.7861155
20
1.5970899
40
0.1899598
50
270.0057223
51
278.601541
0
ARC
8
DEFAULT_255_2_778
10
0.7860144
20
1.5957224
40
0.1885923
50
213.3372786
51
270.03647
0
ARC
8
DEFAULT_255_2_778
10
2.8546484
20
2.8727498
40
2.6195784
50
211.382827
51
211.8069336
0
ARC
8
DEFAULT_255_2_778
10
4.9785121
20
4.171188
40
5.1089028
50
210.8971881
51
211.4105912
0
ARC
8
DEFAULT_255_2_778
10
5.7349018
20
4.6247327
40
5.9908483
50
209.8905167
51
210.9046173
0
ARC
8
DEFAULT_255_2_778
10
5.0007151
20
4.2054252
40
5.1453648
50
208.4278371
51
209.9166492
0
ARC
8
DEFAULT_255_2_778
10
3.8167376
20
3.5636353
40
3.7986296
50
207.1031296
51
208.4162698
0
ARC
8
DEFAULT_255_2_778
10
2.7272459
20
3.0085668
40
2.5758926
50
204.876593
51
207.1531791
0
ARC
8
DEFAULT_255_2_778
10
2.7547143
20
3.0085549
40
2.6008333
50
201.5068246
51
204.6217994
0
ARC
8
DEFAULT_255_2_778
10
4.5328485
20
3.7121367
40
4.5131052
50
199.1395875
51
201.5412135
0
ARC
8
DEFAULT_255_2_778
10
5.4545195
20
4.0391224
40
5.4910417
50
198.115937
51
199.2097264
0
ARC
8
DEFAULT_255_2_778
10
4.4815182
20
3.7213153
40
4.4674537
50
197.5871926
51
198.122254
0
ARC
8
DEFAULT_255_2_778
10
2.2788983
20
3.0240963
40
2.1571188
50
197.2094702
51
197.6112803
0
ARC
8
DEFAULT_255_2_778
10
0.3991125
20
2.4368165
40
0.1877978
50
185.901062
51
195.7380253
0
ARC
8
DEFAULT_255_2_778
10
0.3985461
20
2.4367391
40
0.1872263
50
180.0000509
51
185.895345
0
ARC
8
DEFAULT_255_2_778
10
0.3991403
20
2.4367246
40
0.1878203
50
127.8266221
51
179.995626
0
ARC
8
DEFAULT_255_2_778
10
0.6113141
20
3.1136638
40
0.2407248
50
308.6175137
51
359.9870355
0
ARC
8
DEFAULT_255_2_778
10
0.6108912
20
3.1136028
40
0.2411478
50
0.0015596
51
3.9890257
0
ARC
8
DEFAULT_255_2_778
10
-0.9943665
20
2.9781558
40
1.8520876
50
4.7144394
51
7.6447725
0
ARC
8
DEFAULT_255_2_778
10
7.4681741
20
4.0490311
40
6.6780072
50
186.7741479
51
187.0920352
0
ARC
8
DEFAULT_255_2_778
10
3.1971577
20
3.5468803
40
2.3775813
50
183.9828344
51
186.8981691
0
ARC
8
DEFAULT_255_2_778
10
2.7930945
20
3.515118
40
1.9722911
50
181.3550276
51
183.8776648
0
ARC
8
DEFAULT_255_2_778
10
2.8173116
20
3.5129522
40
1.9964522
50
179.9730066
51
181.2764534
0
ARC
8
DEFAULT_255_2_778
10
3.1399642
20
3.5138906
40
2.3191045
50
179.7144539
51
179.9999445
0
ARC
8
DEFAULT_255_2_778
10
4.0066424
20
3.5025199
40
3.1858363
50
177.0036345
51
179.5876398
0
ARC
8
DEFAULT_255_2_778
10
4.8195724
20
3.4657739
40
3.9995798
50
176.4988959
51
177.0866972
0
ARC
8
DEFAULT_255_2_778
10
4.8021765
20
3.4672856
40
3.9821241
50
175.7515527
51
176.5053199
0
ARC
8
DEFAULT_255_2_778
10
3.997145
20
3.5274998
40
3.1748439
50
175.2534752
51
175.758967
0
ARC
8
DEFAULT_255_2_778
10
2.3498834
20
3.6648456
40
1.5218666
50
174.8944268
51
175.274845
0
ARC
8
DEFAULT_255_2_778
10
0.5957709
20
3.8051208
40
0.2383332
50
358.8357866
51
0.003959
0
ARC
8
DEFAULT_255_2_778
10
0.5957943
20
3.805263
40
0.2383099
50
359.9697584
51
54.6258793
0
ARC
8
DEFAULT_255_2_778
10
0.346033
20
4.4714981
40
0.1879127
50
180.0145022
51
235.2617153
0
ARC
8
DEFAULT_255_2_778
10
0.3454959
20
4.4714463
40
0.1873757
50
172.5479846
51
179.9987062
0
ARC
8
DEFAULT_255_2_778
10
0.3463806
20
4.4713257
40
0.1882685
50
167.249302
51
172.5465073
0
ARC
8
DEFAULT_255_2_778
10
2.2776022
20
4.0219164
40
2.1710879
50
164.8677069
51
166.9302899
0
ARC
8
DEFAULT_255_2_778
10
3.909194
20
3.5865408
40
3.8597636
50
162.6467977
51
164.9515115
0
ARC
8
DEFAULT_255_2_778
10
3.7055293
20
3.6573564
40
3.6442538
50
158.8191151
51
162.7544505
0
ARC
8
DEFAULT_255_2_778
10
3.0710807
20
3.8960251
40
2.9664391
50
158.5051973
51
158.6899071
0
ARC
8
DEFAULT_255_2_778
10
2.7136297
20
4.0311408
40
2.5843453
50
155.920044
51
158.3886354
0
ARC
8
DEFAULT_255_2_778
10
3.9254375
20
3.4946417
40
3.9095982
50
154.7143104
51
155.9877471
0
ARC
8
DEFAULT_255_2_778
10
5.2918063
20
2.8464998
40
5.421897
50
152.9831711
51
154.6887052
0
ARC
8
DEFAULT_255_2_778
10
5.7979618
20
2.5928895
40
5.9880217
50
152.1926364
51
153.021326
0
ARC
8
DEFAULT_255_2_778
10
4.598412
20
3.225829
40
4.6317284
50
151.7761995
51
152.1958269
0
ARC
8
DEFAULT_255_2_778
10
2.4328012
20
4.389036
40
2.1734933
50
151.4747724
51
151.7961342
0
ARC
8
DEFAULT_255_2_778
10
0.6853
20
5.3319822
40
0.1879236
50
90.025317
51
149.6352094
0
ARC
8
DEFAULT_255_2_778
10
0.6851997
20
5.331869
40
0.1880368
50
81.7890005
51
89.994729
0
ARC
8
DEFAULT_255_2_778
10
1.3199007
20
5.6495964
40
0.24053
50
262.5839995
51
269.9985011
0
ARC
8
DEFAULT_255_2_778
10
1.3197981
20
5.6499855
40
0.2409192
50
270.0229081
51
317.9357092
0
ARC
8
DEFAULT_255_2_778
10
0.9492239
20
5.9827575
40
0.7389773
50
318.0305775
51
318.6140821
0
ARC
8
DEFAULT_255_2_778
10
0.837838
20
6.0809414
40
0.8874592
50
318.6125038
51
319.0969572
0
ARC
8
DEFAULT_255_2_778
10
0.703522
20
6.1972616
40
1.0651419
50
319.0986021
51
319.5005195
0
ARC
8
DEFAULT_255_2_778
10
0.5357391
20
6.3405953
40
1.2858128
50
319.4992906
51
319.8303883
0
ARC
8
DEFAULT_255_2_778
10
45.7139668
20
-30.8144087
40
57.2084541
50
140.4415069
51
140.5823245
0
ARC
8
DEFAULT_255_2_778
10
3.345699
20
4.1639871
40
2.2671009
50
135.3554044
51
140.0514984
0
ARC
8
DEFAULT_255_2_778
10
3.2456844
20
4.2589413
40
2.1292193
50
135.0968975
51
135.2821293
0
ARC
8
DEFAULT_255_2_778
10
3.0097801
20
4.4860885
40
1.8017913
50
133.8673978
51
134.9175986
0
ARC
8
DEFAULT_255_2_778
10
3.46998
20
4.0029762
40
2.4690054
50
131.5785875
51
133.797461
0
ARC
8
DEFAULT_255_2_778
10
4.3376467
20
3.0226276
40
3.7781758
50
129.1792809
51
131.5550765
0
ARC
8
DEFAULT_255_2_778
10
4.7292515
20
2.5498454
40
4.3920625
50
128.0648028
51
129.2429641
0
ARC
8
DEFAULT_255_2_778
10
4.1202489
20
3.327646
40
3.4042073
50
127.5538666
51
128.0661261
0
ARC
8
DEFAULT_255_2_778
10
3.0326465
20
4.7432328
40
1.6190562
50
127.1871906
51
127.57439
0
ARC
8
DEFAULT_255_2_778
10
1.8950792
20
6.2142171
40
0.2410074
50
311.2716717
51
359.9929027
0
ARC
8
DEFAULT_255_2_778
10
1.8950661
20
6.2141812
40
0.2410203
50
0.0014408
51
6.6705778
0
ARC
8
DEFAULT_255_2_778
10
2.2243758
20
6.8441157
40
0.1882111
50
180.0039471
51
187.2148073
0
ARC
8
DEFAULT_255_2_778
10
2.2241057
20
6.8440233
40
0.1879409
50
119.3264776
51
179.9757843
0
ARC
8
DEFAULT_255_2_778
10
3.1487783
20
5.1732302
40
2.0975366
50
117.0061569
51
118.9942975
0
ARC
8
DEFAULT_255_2_778
10
3.8973308
20
3.7173495
40
3.7345769
50
115.2947022
51
117.0956508
0
ARC
8
DEFAULT_255_2_778
10
4.0181976
20
3.4677388
40
4.0118995
50
113.2713078
51
115.3322065
0
ARC
8
DEFAULT_255_2_778
10
3.770818
20
4.0480738
40
3.3810424
50
110.6121577
51
113.3056763
0
ARC
8
DEFAULT_255_2_778
10
3.5344243
20
4.6386731
40
2.7450628
50
107.3202208
51
110.3335905
0
ARC
8
DEFAULT_255_2_778
10
4.1816749
20
2.5765896
40
4.9063384
50
105.1813447
51
107.3668739
0
ARC
8
DEFAULT_255_2_778
10
4.4805302
20
1.5014014
40
6.0222711
50
104.2570038
51
105.2466192
0
ARC
8
DEFAULT_255_2_778
10
4.2105198
20
2.5661979
40
4.9237736
50
103.780831
51
104.2632297
0
ARC
8
DEFAULT_255_2_778
10
3.6043317
20
5.0413367
40
2.3754849
50
103.4387589
51
103.8015922
0
ARC
8
DEFAULT_255_2_778
10
3.0904025
20
7.1665086
40
0.1891563
50
98.0003095
51
101.6347537
0
ARC
8
DEFAULT_255_2_778
10
3.0902583
20
7.1675835
40
0.1880718
50
90.0028932
51
98.0023988
0
ARC
8
DEFAULT_255_2_778
10
3.0902879
20
7.1678383
40
0.1878169
50
33.858095
51
90.0119214
0
ARC
8
DEFAULT_255_2_778
10
3.7493601
20
6.904807
40
0.2382357
50
214.5556178
51
269.9721564
0
ARC
8
DEFAULT_255_2_778
10
3.7492171
20
6.9077905
40
0.2412191
50
270.0064684
51
270.436535
0
ARC
8
DEFAULT_255_2_778
10
3.7456825
20
7.5225456
40
0.8559841
50
270.359607
51
270.5515471
0
ARC
8
DEFAULT_255_2_778
10
3.7095245
20
8.8026376
40
2.1364977
50
271.1907294
51
273.8563962
0
ARC
8
DEFAULT_255_2_778
10
4.0082227
20
4.0943414
40
2.5812941
50
91.2808964
51
93.4426625
0
ARC
8
DEFAULT_255_2_778
10
3.9906099
20
4.6782078
40
1.9971851
50
89.9993006
51
91.1501762
0
ARC
8
DEFAULT_255_2_778
10
3.9901934
20
4.5777619
40
2.0976311
50
88.3634282
51
89.9879578
0
ARC
8
DEFAULT_255_2_778
10
3.994648
20
4.7084307
40
1.9668886
50
88.3245768
51
88.3844289
0
ARC
8
DEFAULT_255_2_778
10
4.3829533
20
6.8861858
40
0.2388715
50
265.7269161
51
269.9988723
0
ARC
8
DEFAULT_255_2_778
10
4.3829327
20
6.8855418
40
0.2382274
50
270.0038126
51
321.7259927
0
ARC
8
DEFAULT_255_2_778
10
5.0624968
20
7.1007843
40
0.1875462
50
89.9855684
51
142.3754559
0
ARC
8
DEFAULT_255_2_778
10
5.0625446
20
7.100869
40
0.1874615
50
83.8428029
51
90.0001856
0
ARC
8
DEFAULT_255_2_778
10
5.0624421
20
7.100064
40
0.1882728
50
74.3739293
51
83.8380652
0
ARC
8
DEFAULT_255_2_778
10
4.5158895
20
4.7917013
40
2.5477717
50
62.9738382
51
65.4351899
0
ARC
8
DEFAULT_255_2_778
10
3.9347759
20
3.6423396
40
3.8356812
50
61.8010026
51
63.0427219
0
ARC
8
DEFAULT_255_2_778
10
3.2154254
20
2.3068924
40
5.3525459
50
60.0142385
51
61.769681
0
ARC
8
DEFAULT_255_2_778
10
2.9038471
20
1.7583695
40
5.9833725
50
59.2090607
51
60.0551269
0
ARC
8
DEFAULT_255_2_778
10
3.5760375
20
2.8859372
40
4.6706467
50
58.7864848
51
59.2118731
0
ARC
8
DEFAULT_255_2_778
10
4.8637684
20
5.0096162
40
2.187048
50
58.4798088
51
58.8066575
0
ARC
8
DEFAULT_255_2_778
10
5.903403
20
6.7160331
40
0.1889739
50
4.9927443
51
56.6996778
0
ARC
8
DEFAULT_255_2_778
10
5.9169337
20
6.7161197
40
0.1754903
50
0.0295943
51
5.3490689
0
ARC
8
DEFAULT_255_2_778
10
5.9360771
20
6.715718
40
0.1563476
50
346.8987476
51
0.1804121
0
ARC
8
DEFAULT_255_2_778
10
5.1765632
20
6.3992376
40
0.8217404
50
317.5662117
51
344.0466417
0
ARC
8
DEFAULT_255_2_778
10
3.8863161
20
3.424317
40
1.3135599
50
61.1439113
51
65.1462499
0
ARC
8
DEFAULT_255_2_778
10
3.9129893
20
3.4818898
40
1.2501084
50
65.1464699
51
69.4794495
0
ARC
8
DEFAULT_255_2_778
10
3.9231905
20
3.5081061
40
1.2219799
50
69.4965134
51
69.7874206
0
ARC
8
DEFAULT_255_2_778
10
3.936236
20
3.5458179
40
1.1820835
50
69.7492548
51
77.325715
0
ARC
8
DEFAULT_255_2_778
10
3.9476761
20
3.5960204
40
1.1305943
50
77.3331351
51
86.051858
0
ARC
8
DEFAULT_255_2_778
10
3.9492182
20
3.6132008
40
1.1133486
50
86.0701572
51
89.9990333
0
ARC
8
DEFAULT_255_2_778
10
3.9589453
20
3.5567088
40
1.169881
50
90.4754775
51
134.1277805
0
ARC
8
DEFAULT_255_2_778
10
3.9496459
20
3.5396263
40
1.1758145
50
133.2229071
51
178.6799277
0
ARC
8
DEFAULT_255_2_778
10
3.8887501
20
3.5514
40
1.1147116
50
179.2128325
51
179.9989531
0
ARC
8
DEFAULT_255_2_778
10
3.8929474
20
3.5516678
40
1.118909
50
180.0126704
51
189.486796
0
ARC
8
DEFAULT_255_2_778
10
3.9323742
20
3.5584624
40
1.1589164
50
189.4968485
51
197.5763456
0
ARC
8
DEFAULT_255_2_778
10
3.9762031
20
3.5716837
40
1.2046919
50
197.546323
51
200.2154939
0
ARC
8
DEFAULT_255_2_778
10
4.0149397
20
3.5862051
40
1.2460602
50
200.2265932
51
204.5861596
0
ARC
8
DEFAULT_255_2_778
10
4.072052
20
3.6123334
40
1.3088655
50
204.5860372
51
208.5980884
0
ARC
8
DEFAULT_255_2_778
10
4.1120458
20
3.6336687
40
1.3541925
50
208.5806918
51
208.8436168
0
ARC
8
DEFAULT_255_2_778
10
1.1082945
20
2.3180235
40
0.8176028
50
285.9197209
51
312.5471607
0
LINE
8
DEFAULT_255_2_778
10
0.2839549
20
2.5850783
11
0.7615549
21
2.9255783
0
LINE
8
DEFAULT_255_2_778
10
0.7337549
20
3.9995783
11
0.2389549
21
4.3170783
0
LINE
8
DEFAULT_255_2_778
10
0.7120549
20
5.5179783
11
1.2888549
21
5.4110783
0
LINE
8
DEFAULT_255_2_778
10
2.1344549
20
6.2421783
11
2.0376549
21
6.8204783
0
LINE
8
DEFAULT_255_2_778
10
3.2462549
20
7.2724783
11
3.5531549
21
6.7696783
0
LINE
8
DEFAULT_255_2_778
10
4.0521549
20
6.6744783
11
4.3651549
21
6.6479783
0
LINE
8
DEFAULT_255_2_778
10
4.5699549
20
6.7379783
11
4.9139549
21
7.2152783
0
LINE
8
DEFAULT_255_2_778
10
5.1131549
20
7.2813783
11
5.5750549
21
7.1088783
0
LINE
8
DEFAULT_255_2_778
10
6.0883549
20
6.6802783
11
5.9666549
21
6.1733783
0
LINE
8
DEFAULT_255_2_778
10
5.7830549
20
5.8447783
11
4.5202549
21
4.5747783
0
LINE
8
DEFAULT_255_2_778
10
2.9258549
20
2.9803783
11
1.6611549
21
1.7156783
0
LINE
8
DEFAULT_255_2_778
10
1.3325549
20
1.5317783
11
0.8221549
21
1.4105783
0
ENDSEC
0
EOF