0
SECTION
2
HEADER
9
$MEASUREMENT
70
1
0
ENDSEC
0
SECTION
2
TABLES
0
TABLE
2
LTYPE
0
LTYPE
72
65
70
64
2
CONTINUOUS
3
______
73
0
40
0
0
ENDTAB
0
TABLE
2
LAYER
0
LAYER
2
DEFAULT_255_2_778
70
0
62
255
6
CONTINUOUS
0
ENDTAB
0
ENDSEC
0
SECTION
2
ENTITIES
0
ARC
8
DEFAULT_255_2_778
10
11.7545885
20
2.7928534
40
0.6610691
50
359.9995098
51
1.5939592
0
ARC
8
DEFAULT_255_2_778
10
11.7569538
20
2.7927338
40
0.6587038
50
305.5252997
51
0.0099099
0
ARC
8
DEFAULT_255_2_778
10
11.5580963
20
3.0470662
40
0.9813437
50
269.9948584
51
306.3461606
0
ARC
8
DEFAULT_255_2_778
10
11.5580176
20
3.0490005
40
0.983278
50
268.3264876
51
269.9994591
0
ARC
8
DEFAULT_255_2_778
10
11.5196845
20
4.3443725
40
2.2782509
50
267.62652
51
270.2418658
0
ARC
8
DEFAULT_255_2_778
10
11.4310801
20
2.3853553
40
0.3173311
50
259.712294
51
268.9626034
0
ARC
8
DEFAULT_255_2_778
10
11.3810211
20
2.1002174
40
0.0278871
50
249.8219104
51
256.2814512
0
ARC
8
DEFAULT_255_2_778
10
11.4158696
20
2.1414072
40
0.0807185
50
178.7426024
51
236.5711958
0
ARC
8
DEFAULT_255_2_778
10
11.6794074
20
2.184553
40
0.3467145
50
179.5887013
51
186.8536181
0
ARC
8
DEFAULT_255_2_778
10
12.6337068
20
2.5245831
40
1.3262368
50
181.4621603
51
187.9766499
0
ARC
8
DEFAULT_255_2_778
10
11.3493211
20
2.4896252
40
0.0414344
50
91.6864102
51
178.4557703
0
ARC
8
DEFAULT_255_2_778
10
11.3821884
20
2.3691595
40
0.1654321
50
89.0082456
51
101.8907362
0
ARC
8
DEFAULT_255_2_778
10
11.3815245
20
2.130437
40
0.4041452
50
82.4105124
51
89.4999287
0
ARC
8
DEFAULT_255_2_778
10
11.5161688
20
3.4827409
40
0.9597712
50
269.2975203
51
280.7825706
0
ARC
8
DEFAULT_255_2_778
10
11.6288147
20
2.928331
40
0.3941368
50
279.7741351
51
304.6042515
0
ARC
8
DEFAULT_255_2_778
10
11.7214123
20
2.7826401
40
0.2217289
50
306.2898043
51
2.6629699
0
ARC
8
DEFAULT_255_2_778
10
11.7367345
20
2.7835469
40
0.2063812
50
2.609125
51
50.8609366
0
ARC
8
DEFAULT_255_2_778
10
11.4870696
20
2.5210993
40
0.5682192
50
48.0378624
51
62.5275348
0
ARC
8
DEFAULT_255_2_778
10
13.4166829
20
6.2589286
40
3.6382995
50
236.1467118
51
242.7216773
0
ARC
8
DEFAULT_255_2_778
10
11.7397823
20
3.6517355
40
0.542269
50
179.9901742
51
229.8181352
0
ARC
8
DEFAULT_255_2_778
10
11.7418804
20
3.6518245
40
0.5443669
50
178.1348783
51
179.9995744
0
ARC
8
DEFAULT_255_2_778
10
11.8315299
20
3.6970838
40
0.6343264
50
125.7414516
51
182.4885194
0
ARC
8
DEFAULT_255_2_778
10
12.0194338
20
3.4045264
40
0.9817158
50
90.0039948
51
124.6688614
0
ARC
8
DEFAULT_255_2_778
10
12.0193654
20
3.404432
40
0.9818102
50
87.6862994
51
90.0000039
0
ARC
8
DEFAULT_255_2_778
10
12.0615229
20
4.338184
40
0.047325
50
90.0061285
51
93.0537179
0
ARC
8
DEFAULT_255_2_778
10
12.0616039
20
4.3387697
40
0.0467394
50
19.7215425
51
90.1054815
0
ARC
8
DEFAULT_255_2_778
10
11.8245206
20
4.2153643
40
0.313651
50
16.7271067
51
26.3423429
0
ARC
8
DEFAULT_255_2_778
10
10.3110059
20
3.7160617
40
1.9073047
50
15.0343121
51
18.0058776
0
ARC
8
DEFAULT_255_2_778
10
8.5588638
20
3.2292999
40
3.7257694
50
14.6014237
51
15.2741991
0
ARC
8
DEFAULT_255_2_778
10
12.1668613
20
3.9870584
40
0.0418239
50
264.2922397
51
347.5501599
0
ARC
8
DEFAULT_255_2_778
10
11.9194258
20
3.6428174
40
0.2682755
50
101.9883074
51
134.4738438
0
ARC
8
DEFAULT_255_2_778
10
11.8593303
20
3.7166651
40
0.173704
50
137.3956065
51
181.6901307
0
ARC
8
DEFAULT_255_2_778
10
11.8561265
20
3.722806
40
0.1707966
50
183.7814443
51
228.8325063
0
ARC
8
DEFAULT_255_2_778
10
12.1577918
20
4.0208576
40
0.5945447
50
225.8539345
51
240.1171329
0
ARC
8
DEFAULT_255_2_778
10
12.3955317
20
4.3924833
40
1.0354224
50
238.9562867
51
239.6082583
0
ARC
8
DEFAULT_255_2_778
10
9.4102878
20
-1.0077635
40
5.1354219
50
59.2020647
51
61.3602269
0
ARC
8
DEFAULT_255_2_778
10
10.980519
20
1.6149109
40
2.0786328
50
55.3983268
51
59.3661818
0
ARC
8
DEFAULT_255_2_778
10
11.8308625
20
2.8397187
40
0.5876031
50
47.7164691
51
55.8279192
0
ARC
8
DEFAULT_255_2_778
10
11.8076389
20
2.8335611
40
0.6079233
50
359.9965705
51
46.4875129
0
ARC
8
DEFAULT_255_2_778
10
11.8060521
20
2.8335227
40
0.60951
50
357.7733687
51
0.0001857
0
ARC
8
DEFAULT_255_2_778
10
13.7067372
20
3.4872368
40
0.455778
50
359.5606432
51
359.9965936
0
ARC
8
DEFAULT_255_2_778
10
13.712289
20
3.4873283
40
0.450226
50
359.9849089
51
48.5027272
0
ARC
8
DEFAULT_255_2_778
10
13.6638336
20
3.4946802
40
0.4785989
50
43.5686875
51
89.2854995
0
ARC
8
DEFAULT_255_2_778
10
13.6728823
20
3.4620038
40
0.5112473
50
90.3452424
51
138.428836
0
ARC
8
DEFAULT_255_2_778
10
13.6626357
20
3.4107656
40
0.5394718
50
133.6298733
51
179.322779
0
ARC
8
DEFAULT_255_2_778
10
13.1767722
20
3.4210585
40
0.0537135
50
184.1816109
51
281.1461047
0
ARC
8
DEFAULT_255_2_778
10
13.2061289
20
3.6189291
40
0.2512882
50
265.6698333
51
270.1534215
0
ARC
8
DEFAULT_255_2_778
10
13.1928388
20
7.7108344
40
4.343215
50
270.1842
51
274.497942
0
ARC
8
DEFAULT_255_2_778
10
13.0087037
20
10.1323285
40
6.7716945
50
274.4443534
51
277.532837
0
ARC
8
DEFAULT_255_2_778
10
12.7571628
20
12.1410937
40
8.7961106
50
277.4418541
51
278.3056995
0
ARC
8
DEFAULT_255_2_778
10
13.9541641
20
4.0501966
40
0.6173622
50
276.8504256
51
285.4807585
0
ARC
8
DEFAULT_255_2_778
10
14.1119078
20
3.512342
40
0.0575418
50
277.026922
51
325.8852864
0
ARC
8
DEFAULT_255_2_778
10
14.147615
20
3.4837483
40
0.0124868
50
342.8657587
51
359.9705286
0
ARC
8
DEFAULT_255_2_778
10
14.494983
20
3.3231942
40
0.2215827
50
288.9667812
51
5.0611147
0
ARC
8
DEFAULT_255_2_778
10
14.4788202
20
3.3911187
40
0.2911519
50
278.6668614
51
287.6301552
0
ARC
8
DEFAULT_255_2_778
10
14.1879926
20
5.0583826
40
1.9835337
50
277.0090094
51
279.7145514
0
ARC
8
DEFAULT_255_2_778
10
13.6031206
20
9.6585681
40
6.620739
50
275.9476132
51
277.1748352
0
ARC
8
DEFAULT_255_2_778
10
12.6389894
20
18.8093338
40
15.8221526
50
275.2631701
51
275.9865314
0
ARC
8
DEFAULT_255_2_778
10
11.395837
20
32.1586941
40
29.2292685
50
274.9117349
51
275.2893731
0
ARC
8
DEFAULT_255_2_778
10
9.8954182
20
49.6014783
40
46.7364664
50
274.6009639
51
274.913501
0
ARC
8
DEFAULT_255_2_778
10
8.1095668
20
71.7105302
40
68.9175262
50
274.4041302
51
274.6064539
0
ARC
8
DEFAULT_255_2_778
10
6.1993343
20
96.4887201
40
93.7692401
50
274.2393821
51
274.4052621
0
ARC
8
DEFAULT_255_2_778
10
13.6202321
20
3.0520858
40
0.4950062
50
188.8369017
51
234.4185002
0
ARC
8
DEFAULT_255_2_778
10
13.7609019
20
3.2087377
40
0.7046435
50
232.5272015
51
234.9271767
0
ARC
8
DEFAULT_255_2_778
10
13.7562807
20
3.1458802
40
0.6513471
50
232.081491
51
269.7027724
0
ARC
8
DEFAULT_255_2_778
10
13.7510796
20
3.5709175
40
1.0763772
50
270.0969965
51
308.7563102
0
ARC
8
DEFAULT_255_2_778
10
14.5032539
20
2.7460607
40
0.0459782
50
63.3153845
51
95.3064062
0
ARC
8
DEFAULT_255_2_778
10
14.6198384
20
2.4787811
40
0.0738147
50
312.9966059
51
344.8918136
0
ARC
8
DEFAULT_255_2_778
10
14.2698932
20
2.7652059
40
0.5254594
50
316.9699358
51
319.6212202
0
ARC
8
DEFAULT_255_2_778
10
13.8175718
20
3.1935298
40
1.1483935
50
270.0067039
51
316.7480662
0
ARC
8
DEFAULT_255_2_778
10
13.8177128
20
3.1948062
40
1.14967
50
268.1402149
51
269.9996707
0
ARC
8
DEFAULT_255_2_778
10
13.7665777
20
3.510448
40
1.4647714
50
255.3554441
51
270.5407461
0
ARC
8
DEFAULT_255_2_778
10
13.6592229
20
3.102091
40
1.0425394
50
224.8806209
51
255.3898284
0
ARC
8
DEFAULT_255_2_778
10
13.6886159
20
3.1228536
40
1.0780344
50
189.0492771
51
224.5602005
0
ARC
8
DEFAULT_255_2_778
10
14.1445365
20
3.2164991
40
1.5431491
50
179.7533598
51
189.8205083
0
ARC
8
DEFAULT_255_2_778
10
13.8353394
20
3.2424921
40
1.2340893
50
138.820473
51
180.8984208
0
ARC
8
DEFAULT_255_2_778
10
13.6865132
20
3.4139397
40
1.0096682
50
89.9991763
51
140.582745
0
ARC
8
DEFAULT_255_2_778
10
13.6865064
20
3.4080869
40
1.0155211
50
89.3457764
51
89.9987967
0
ARC
8
DEFAULT_255_2_778
10
13.7184973
20
3.4799627
40
0.9437995
50
89.9995989
51
91.2382592
0
ARC
8
DEFAULT_255_2_778
10
13.7183476
20
3.4795336
40
0.9442286
50
41.4387293
51
89.9905193
0
ARC
8
DEFAULT_255_2_778
10
13.6364368
20
3.3727169
40
1.0766384
50
0.0048326
51
42.8154061
0
ARC
8
DEFAULT_255_2_778
10
13.6357114
20
3.3728029
40
1.0773637
50
358.7096538
51
0.0002567
0
ARC
8
DEFAULT_255_2_778
10
18.4469655
20
2.1769392
40
0.1173913
50
327.2632967
51
5.5741357
0
ARC
8
DEFAULT_255_2_778
10
18.5129784
20
2.1414848
40
0.0430931
50
267.2378996
51
319.4270951
0
ARC
8
DEFAULT_255_2_778
10
18.2767735
20
0.8727607
40
1.2384997
50
84.0293154
51
90.0280939
0
ARC
8
DEFAULT_255_2_778
10
18.2761672
20
0.8313742
40
1.2798861
50
90.0000425
51
90.9545062
0
ARC
8
DEFAULT_255_2_778
10
18.2769518
20
0.7975531
40
1.3137155
50
90.9641499
51
94.2584223
0
ARC
8
DEFAULT_255_2_778
10
18.0677768
20
2.1531824
40
0.0507936
50
177.4542244
51
261.5373469
0
ARC
8
DEFAULT_255_2_778
10
18.2957272
20
2.2049128
40
0.2830512
50
179.2248837
51
190.0663692
0
ARC
8
DEFAULT_255_2_778
10
16.967784
20
3.4302671
40
1.0583668
50
3.8180493
51
13.7369163
0
ARC
8
DEFAULT_255_2_778
10
17.6203237
20
3.5966401
40
0.3850421
50
12.7459212
51
34.0426977
0
ARC
8
DEFAULT_255_2_778
10
17.7760294
20
3.6929545
40
0.2022372
50
36.1276439
51
42.1772125
0
ARC
8
DEFAULT_255_2_778
10
17.7234709
20
3.6295919
40
0.2839699
50
44.531909
51
78.487962
0
ARC
8
DEFAULT_255_2_778
10
17.615099
20
3.1960132
40
0.7307192
50
76.9461647
51
90.9015356
0
ARC
8
DEFAULT_255_2_778
10
17.6163388
20
3.4961898
40
0.4306404
50
91.6948797
51
118.4389278
0
ARC
8
DEFAULT_255_2_778
10
17.8199545
20
3.0814631
40
0.8924773
50
117.2539027
51
127.7388556
0
ARC
8
DEFAULT_255_2_778
10
17.779029
20
3.1220584
40
0.835359
50
127.2232498
51
134.0805232
0
ARC
8
DEFAULT_255_2_778
10
17.6637768
20
3.2448416
40
0.6669839
50
134.3058897
51
135.4400307
0
ARC
8
DEFAULT_255_2_778
10
17.4966064
20
3.396746
40
0.4413807
50
134.2636588
51
153.9131085
0
ARC
8
DEFAULT_255_2_778
10
17.3210609
20
3.4854163
40
0.2447393
50
154.4852656
51
176.4097903
0
ARC
8
DEFAULT_255_2_778
10
17.0333614
20
2.1458699
40
0.0540382
50
296.7472515
51
12.5825045
0
ARC
8
DEFAULT_255_2_778
10
17.0448246
20
2.1407617
40
0.0450228
50
269.3346773
51
286.5927759
0
ARC
8
DEFAULT_255_2_778
10
16.7611302
20
0.4431941
40
1.6665666
50
84.4123267
51
89.6302274
0
ARC
8
DEFAULT_255_2_778
10
16.7610152
20
0.4312296
40
1.6785317
50
89.6289376
51
89.9999982
0
ARC
8
DEFAULT_255_2_778
10
16.7611213
20
0.4310928
40
1.6786686
50
90.0036205
51
96.104717
0
ARC
8
DEFAULT_255_2_778
10
16.5851672
20
2.1511896
40
0.0510123
50
164.4868239
51
267.117295
0
ARC
8
DEFAULT_255_2_778
10
16.7260714
20
2.1669512
40
0.1900699
50
180.0028164
51
180.6384366
0
ARC
8
DEFAULT_255_2_778
10
15.0101164
20
3.4072578
40
1.5399307
50
359.5603626
51
6.5672413
0
ARC
8
DEFAULT_255_2_778
10
15.9498524
20
3.5222285
40
0.5932502
50
5.9163343
51
20.4324757
0
ARC
8
DEFAULT_255_2_778
10
16.2478095
20
3.6269665
40
0.277537
50
21.6442868
51
30.0254918
0
ARC
8
DEFAULT_255_2_778
10
16.2267354
20
3.6143939
40
0.3020742
50
30.0900299
51
82.4912904
0
ARC
8
DEFAULT_255_2_778
10
16.1565474
20
3.3102316
40
0.6135263
50
79.7035747
51
90.4151697
0
ARC
8
DEFAULT_255_2_778
10
16.1645999
20
3.41061
40
0.5132841
50
91.3952564
51
113.6739202
0
ARC
8
DEFAULT_255_2_778
10
16.3661736
20
2.9105106
40
1.0523605
50
112.7921486
51
122.3090565
0
ARC
8
DEFAULT_255_2_778
10
16.1676147
20
3.1637675
40
0.7329055
50
119.770996
51
133.4054707
0
ARC
8
DEFAULT_255_2_778
10
15.839366
20
3.499839
40
0.2632961
50
131.7640639
51
165.863547
0
ARC
8
DEFAULT_255_2_778
10
15.75212
20
3.5299583
40
0.1715182
50
168.5031369
51
179.9720854
0
ARC
8
DEFAULT_255_2_778
10
15.5330678
20
2.1507205
40
0.0538816
50
269.3981029
51
13.7657864
0
ARC
8
DEFAULT_255_2_778
10
15.0991891
20
2.1457738
40
0.0489368
50
164.633348
51
269.195212
0
ARC
8
DEFAULT_255_2_778
10
11.0455956
20
3.3025498
40
4.0111327
50
359.7913368
51
0.0007757
0
ARC
8
DEFAULT_255_2_778
10
11.0314839
20
3.3021991
40
4.0252446
50
0.0057651
51
12.6446768
0
ARC
8
DEFAULT_255_2_778
10
14.9890705
20
4.1884815
40
0.0304063
50
105.7799149
51
189.7314833
0
ARC
8
DEFAULT_255_2_778
10
15.4174977
20
3.6485341
40
0.6332107
50
105.062035
51
107.1953086
0
ARC
8
DEFAULT_255_2_778
10
15.6703699
20
2.6671595
40
1.6466183
50
101.4735668
51
104.684847
0
ARC
8
DEFAULT_255_2_778
10
17.4738755
20
-6.0517855
40
10.5501269
50
100.9989745
51
101.653486
0
ARC
8
DEFAULT_255_2_778
10
15.464963
20
4.2706706
40
0.0383351
50
6.2758688
51
67.7124557
0
ARC
8
DEFAULT_255_2_778
10
15.0009357
20
4.1109336
40
0.5282136
50
8.6078172
51
18.0799314
0
ARC
8
DEFAULT_255_2_778
10
14.0241932
20
3.9340368
40
1.5207015
50
7.8616934
51
9.6897805
0
ARC
8
DEFAULT_255_2_778
10
16.9432317
20
4.34386
40
1.4269736
50
188.1306524
51
192.3832507
0
ARC
8
DEFAULT_255_2_778
10
15.7383669
20
4.0710901
40
0.1918133
50
189.9806889
51
206.7078769
0
ARC
8
DEFAULT_255_2_778
10
15.5758663
20
3.9888642
40
0.0097034
50
204.235588
51
258.9214404
0
ARC
8
DEFAULT_255_2_778
10
16.5902565
20
3.0587823
40
1.3621935
50
117.3466477
51
131.3450721
0
ARC
8
DEFAULT_255_2_778
10
16.3692587
20
3.5189523
40
0.8520637
50
90.7569801
51
118.3613915
0
ARC
8
DEFAULT_255_2_778
10
16.37071
20
3.3986404
40
0.9723845
50
74.6731363
51
90.7488281
0
ARC
8
DEFAULT_255_2_778
10
16.4744315
20
3.7670257
40
0.5896912
50
16.6150311
51
74.9314936
0
ARC
8
DEFAULT_255_2_778
10
17.96926
20
3.2102654
40
1.1792461
50
119.091612
51
142.039447
0
ARC
8
DEFAULT_255_2_778
10
17.8720217
20
3.438058
40
0.9332693
50
91.6467728
51
120.6747238
0
ARC
8
DEFAULT_255_2_778
10
17.8579293
20
3.2890909
40
1.0819258
50
76.8472064
51
90.6740297
0
ARC
8
DEFAULT_255_2_778
10
17.9790293
20
3.77702
40
0.5792816
50
48.2548281
51
77.5292547
0
ARC
8
DEFAULT_255_2_778
10
18.036976
20
3.8562432
40
0.4816841
50
33.2065691
51
47.1231365
0
ARC
8
DEFAULT_255_2_778
10
17.8740786
20
3.7811848
40
0.6596158
50
13.3791554
51
30.9118546
0
ARC
8
DEFAULT_255_2_778
10
17.2101216
20
3.6125857
40
1.3446061
50
3.8107703
51
13.8217972
0
ARC
8
DEFAULT_255_2_778
10
16.3332717
20
3.5393311
40
2.2244354
50
359.8766415
51
4.1923923
0
ARC
8
DEFAULT_255_2_778
10
19.9435097
20
3.2412956
40
0.7442874
50
358.6870756
51
0.0000365
0
ARC
8
DEFAULT_255_2_778
10
19.9441335
20
3.241292
40
0.7436637
50
0.0003103
51
39.5920772
0
ARC
8
DEFAULT_255_2_778
10
20.0704572
20
3.3715596
40
0.5636472
50
37.5712173
51
89.998532
0
ARC
8
DEFAULT_255_2_778
10
20.0704623
20
3.3714565
40
0.5637504
50
89.9990479
51
90.8700687
0
ARC
8
DEFAULT_255_2_778
10
20.0531294
20
3.3486452
40
0.5865622
50
89.1430785
51
89.9996293
0
ARC
8
DEFAULT_255_2_778
10
20.0532394
20
3.3501634
40
0.5850441
50
90.0103972
51
141.2141354
0
ARC
8
DEFAULT_255_2_778
10
20.1500353
20
3.2384561
40
0.7309491
50
139.1410974
51
179.9938785
0
ARC
8
DEFAULT_255_2_778
10
20.1498346
20
3.2385281
40
0.7307484
50
179.9995239
51
181.0182644
0
ARC
8
DEFAULT_255_2_778
10
20.1399931
20
3.2120875
40
0.7209169
50
178.9306359
51
221.1562094
0
ARC
8
DEFAULT_255_2_778
10
20.0554949
20
3.1147209
40
0.5934823
50
219.447206
51
270.0100086
0
ARC
8
DEFAULT_255_2_778
10
20.0556541
20
3.0786113
40
0.5573729
50
269.9942982
51
270.2002146
0
ARC
8
DEFAULT_255_2_778
10
20.0572251
20
3.1078895
40
0.5866478
50
270.0367863
51
321.4312254
0
ARC
8
DEFAULT_255_2_778
10
19.9554638
20
3.2114306
40
0.7309737
50
320.0585175
51
0.0008135
0
ARC
8
DEFAULT_255_2_778
10
19.9547402
20
3.211435
40
0.7316975
50
0.0004629
51
1.1047072
0
ARC
8
DEFAULT_255_2_778
10
26.7297108
20
3.1538475
40
5.548751
50
169.6352879
51
179.1285201
0
ARC
8
DEFAULT_255_2_778
10
21.1870103
20
2.1526618
40
0.0565195
50
263.183283
51
12.4449952
0
ARC
8
DEFAULT_255_2_778
10
21.2114753
20
0.5515079
40
1.5453484
50
91.1558761
51
98.3072269
0
ARC
8
DEFAULT_255_2_778
10
20.8089182
20
2.1134608
40
0.0502799
50
192.0055186
51
255.2321587
0
ARC
8
DEFAULT_255_2_778
10
21.1619771
20
2.2624684
40
0.4326957
50
188.6227681
51
201.6256681
0
ARC
8
DEFAULT_255_2_778
10
21.6785524
20
2.3633906
40
0.9588232
50
188.1452327
51
189.9573783
0
ARC
8
DEFAULT_255_2_778
10
19.483206
20
2.0594814
40
1.2574769
50
7.680503
51
12.5582925
0
ARC
8
DEFAULT_255_2_778
10
20.5508151
20
2.3054953
40
0.1621158
50
9.7315412
51
29.390566
0
ARC
8
DEFAULT_255_2_778
10
20.6830129
20
2.379934
40
0.0104011
50
29.497498
51
82.3264261
0
ARC
8
DEFAULT_255_2_778
10
20.7146339
20
2.3018658
40
0.093404
50
108.8850362
51
130.6870932
0
ARC
8
DEFAULT_255_2_778
10
21.5660101
20
1.115127
40
1.5536103
50
125.9580575
51
128.9440607
0
ARC
8
DEFAULT_255_2_778
10
23.4966132
20
-1.320303
40
4.6613848
50
128.5842687
51
129.0396621
0
ARC
8
DEFAULT_255_2_778
10
19.4757737
20
3.6344631
40
1.7195924
50
301.1982042
51
309.1138575
0
ARC
8
DEFAULT_255_2_778
10
19.8695779
20
2.9999418
40
0.9728791
50
296.5873816
51
300.7170262
0
ARC
8
DEFAULT_255_2_778
10
19.9077097
20
2.9054794
40
0.8713779
50
280.6042208
51
297.1251385
0
ARC
8
DEFAULT_255_2_778
10
19.9376651
20
2.7734919
40
0.73615
50
270.010634
51
280.2029924
0
ARC
8
DEFAULT_255_2_778
10
19.9290909
20
2.9905694
40
0.9532674
50
270.0014666
51
270.5235705
0
ARC
8
DEFAULT_255_2_778
10
19.9330358
20
3.009338
40
0.9720439
50
219.07355
51
269.7689125
0
ARC
8
DEFAULT_255_2_778
10
20.081398
20
3.1808893
40
1.1960126
50
180.0064855
51
220.9741414
0
ARC
8
DEFAULT_255_2_778
10
20.0783443
20
3.1807772
40
1.192959
50
179.1996002
51
180.0011197
0
ARC
8
DEFAULT_255_2_778
10
20.3403449
20
3.2105769
40
1.4549025
50
163.6586974
51
180.5172815
0
ARC
8
DEFAULT_255_2_778
10
20.0629808
20
3.2858662
40
1.1675742
50
139.1572951
51
163.37452
0
ARC
8
DEFAULT_255_2_778
10
19.9537336
20
3.3663363
40
1.0323558
50
90.0008643
51
138.5706637
0
ARC
8
DEFAULT_255_2_778
10
19.9537147
20
3.3643667
40
1.0343254
50
87.8176507
51
89.999813
0
ARC
8
DEFAULT_255_2_778
10
20.0065158
20
3.528688
40
0.8693574
50
45.790775
51
90.8841012
0
ARC
8
DEFAULT_255_2_778
10
20.7230938
20
4.04206
40
0.0407997
50
309.4201849
51
355.2964797
0
ARC
8
DEFAULT_255_2_778
10
19.9613233
20
4.2670976
40
0.8343005
50
344.1129353
51
349.7269435
0
ARC
8
DEFAULT_255_2_778
10
18.5650267
20
4.5463586
40
2.2581634
50
349.0730913
51
350.0466088
0
ARC
8
DEFAULT_255_2_778
10
21.3078442
20
4.082712
40
0.5238007
50
160.6195912
51
171.9524
0
ARC
8
DEFAULT_255_2_778
10
20.8796653
20
4.242375
40
0.0674433
50
116.938015
51
167.885355
0
ARC
8
DEFAULT_255_2_778
10
20.8543076
20
4.2817686
40
0.0213733
50
90.0155983
51
104.0697502
0
ARC
8
DEFAULT_255_2_778
10
20.8363547
20
3.699459
40
0.6039496
50
80.4981004
51
88.2971373
0
ARC
8
DEFAULT_255_2_778
10
20.5049615
20
1.5076978
40
2.8205634
50
78.5307643
51
81.2084862
0
ARC
8
DEFAULT_255_2_778
10
20.0108598
20
-1.0393652
40
5.4150593
50
78.5242632
51
78.7659467
0
ARC
8
DEFAULT_255_2_778
10
20.8238766
20
3.0080028
40
1.2868778
50
72.8060148
51
78.1470655
0
ARC
8
DEFAULT_255_2_778
10
21.1433281
20
4.0141725
40
0.2313717
50
57.4551407
51
74.7239059
0
ARC
8
DEFAULT_255_2_778
10
21.2569545
20
4.1900802
40
0.0219904
50
8.5296042
51
60.4591613
0
ARC
8
DEFAULT_255_2_778
10
22.7446425
20
2.2361941
40
0.1777951
50
0.0030161
51
2.2395306
0
ARC
8
DEFAULT_255_2_778
10
22.7516812
20
2.2359676
40
0.1707566
50
344.467612
51
0.0791385
0
ARC
8
DEFAULT_255_2_778
10
22.8835773
20
2.2095478
40
0.0379088
50
316.1413672
51
329.3844177
0
ARC
8
DEFAULT_255_2_778
10
22.8309344
20
2.2678413
40
0.1163903
50
291.0827118
51
313.4046573
0
ARC
8
DEFAULT_255_2_778
10
22.5441196
20
2.8744234
40
0.7870938
50
280.6765591
51
294.6824973
0
ARC
8
DEFAULT_255_2_778
10
22.3706582
20
3.7250645
40
1.6551955
50
273.6342519
51
281.1218913
0
ARC
8
DEFAULT_255_2_778
10
22.2806414
20
4.9639511
40
2.8973188
50
269.8528767
51
273.8578391
0
ARC
8
DEFAULT_255_2_778
10
22.2607016
20
2.9041676
40
0.837619
50
255.3199259
51
270.8550823
0
ARC
8
DEFAULT_255_2_778
10
22.1363884
20
2.48124
40
0.3972093
50
189.8117562
51
257.2064505
0
ARC
8
DEFAULT_255_2_778
10
22.4354243
20
2.553841
40
0.7045438
50
179.5526518
51
191.4856186
0
ARC
8
DEFAULT_255_2_778
10
21.6573948
20
3.7552591
40
0.0913616
50
353.1370395
51
92.3794041
0
ARC
8
DEFAULT_255_2_778
10
21.5109349
20
3.9042619
40
0.0625986
50
185.0460179
51
243.7025362
0
ARC
8
DEFAULT_255_2_778
10
21.9091384
20
4.0062531
40
0.4729382
50
180.7014834
51
193.1379471
0
ARC
8
DEFAULT_255_2_778
10
22.5276245
20
4.0376698
40
1.092023
50
179.9490004
51
181.9525296
0
ARC
8
DEFAULT_255_2_778
10
22.5634168
20
4.035854
40
1.1278185
50
172.6753097
51
179.8583696
0
ARC
8
DEFAULT_255_2_778
10
21.5239993
20
4.167948
40
0.0800562
50
93.6507563
51
171.6007272
0
ARC
8
DEFAULT_255_2_778
10
21.6458039
20
4.340426
40
0.0920401
50
261.3125363
51
3.1863043
0
ARC
8
DEFAULT_255_2_778
10
22.1771808
20
4.9239926
40
0.4520241
50
167.398341
51
181.4515868
0
ARC
8
DEFAULT_255_2_778
10
21.804566
20
5.0171679
40
0.0687361
50
108.7217315
51
175.4577405
0
ARC
8
DEFAULT_255_2_778
10
21.7903003
20
5.0375712
40
0.0453707
50
89.8718796
51
99.8950104
0
ARC
8
DEFAULT_255_2_778
10
21.7550329
20
4.6793685
40
0.4051202
50
79.9746156
51
84.9914359
0
ARC
8
DEFAULT_255_2_778
10
20.9553803
20
-0.4874946
40
5.6334101
50
80.5090194
51
81.1140971
0
ARC
8
DEFAULT_255_2_778
10
17.7043061
20
-20.001574
40
25.416452
50
80.2616809
51
80.5341549
0
ARC
8
DEFAULT_255_2_778
10
4.1272047
20
-99.3040299
40
105.8727568
50
80.191277
51
80.2792336
0
ARC
8
DEFAULT_255_2_778
10
-31.901463
20
-307.9866924
40
317.6427209
50
80.1885489
51
80.2001297
0
ARC
8
DEFAULT_255_2_778
10
22.2288437
20
4.9591207
40
0.0510581
50
359.9115662
51
92.1796902
0
ARC
8
DEFAULT_255_2_778
10
19.7051715
20
4.9716495
40
2.5747611
50
356.8792722
51
359.7194435
0
ARC
8
DEFAULT_255_2_778
10
16.5640436
20
5.132276
40
5.7199851
50
355.2040399
51
356.9855987
0
ARC
8
DEFAULT_255_2_778
10
22.3048958
20
4.3376343
40
0.0575843
50
170.4966155
51
276.687569
0
ARC
8
DEFAULT_255_2_778
10
22.8772721
20
4.2507004
40
0.0307909
50
3.6150007
51
105.0020625
0
ARC
8
DEFAULT_255_2_778
10
22.2764652
20
4.2713312
40
0.6318131
50
352.785944
51
358.3049114
0
ARC
8
DEFAULT_255_2_778
10
16.3056295
20
4.9133675
40
6.6369673
50
353.5052163
51
353.760149
0
ARC
8
DEFAULT_255_2_778
10
23.6687116
20
4.0380204
40
0.778746
50
170.7914542
51
179.8852871
0
ARC
8
DEFAULT_255_2_778
10
23.6067309
20
4.0395428
40
0.7167637
50
179.9970649
51
181.478416
0
ARC
8
DEFAULT_255_2_778
10
23.5801933
20
4.038625
40
0.6902113
50
181.4590931
51
186.1867062
0
ARC
8
DEFAULT_255_2_778
10
22.8466339
20
3.8621187
40
0.0491007
50
258.1872177
51
354.417109
0
ARC
8
DEFAULT_255_2_778
10
22.8305695
20
3.9700815
40
0.1561395
50
269.975124
51
272.2069401
0
ARC
8
DEFAULT_255_2_778
10
22.2880285
20
3.8098738
40
0.0343859
50
122.601242
51
182.9358338
0
ARC
8
DEFAULT_255_2_778
10
22.8210552
20
3.6957452
40
0.5783877
50
168.7975147
51
175.7123257
0
ARC
8
DEFAULT_255_2_778
10
23.7598074
20
3.6050589
40
1.5214275
50
174.9497986
51
176.1565185
0
ARC
8
DEFAULT_255_2_778
10
23.583579
20
2.8882058
40
1.3543272
50
179.5077226
51
186.3268294
0
ARC
8
DEFAULT_255_2_778
10
22.6606235
20
2.7789352
40
0.4250074
50
185.3971741
51
200.9438106
0
ARC
8
DEFAULT_255_2_778
10
22.4415065
20
2.7025967
40
0.1932077
50
203.0287084
51
205.0005766
0
ARC
8
DEFAULT_255_2_778
10
22.4538173
20
2.7135039
40
0.2090271
50
206.2841601
51
268.3834081
0
ARC
8
DEFAULT_255_2_778
10
22.4959107
20
2.9427988
40
0.4408584
50
263.7506102
51
270.1548004
0
ARC
8
DEFAULT_255_2_778
10
22.4841592
20
3.2050373
40
0.7032146
50
271.0545774
51
279.9324393
0
ARC
8
DEFAULT_255_2_778
10
22.3585326
20
4.0106673
40
1.5185148
50
279.3582772
51
283.2936126
0
ARC
8
DEFAULT_255_2_778
10
23.1215465
20
0.693836
40
1.884996
50
98.5822137
51
102.6824132
0
ARC
8
DEFAULT_255_2_778
10
22.9215424
20
2.0251234
40
0.5387698
50
90.7913095
51
98.6780644
0
ARC
8
DEFAULT_255_2_778
10
22.9108851
20
2.531558
40
0.0324437
50
342.9435588
51
84.3100743
0
ARC
8
DEFAULT_255_2_778
10
24.2349191
20
3.486248
40
0.4526987
50
359.5182739
51
359.9998935
0
ARC
8
DEFAULT_255_2_778
10
24.2377642
20
3.4861935
40
0.4498536
50
0.0068261
51
48.5245737
0
ARC
8
DEFAULT_255_2_778
10
24.1888273
20
3.4930799
40
0.4788828
50
43.5859477
51
89.4646461
0
ARC
8
DEFAULT_255_2_778
10
24.1965259
20
3.4603872
40
0.5115649
50
90.3611063
51
138.4129722
0
ARC
8
DEFAULT_255_2_778
10
24.1855558
20
3.4119606
40
0.5372673
50
133.7686993
51
179.5967513
0
ARC
8
DEFAULT_255_2_778
10
23.7018469
20
3.4197266
40
0.0536932
50
184.2560603
51
281.1945782
0
ARC
8
DEFAULT_255_2_778
10
23.7312317
20
3.6184225
40
0.2520816
50
265.686343
51
270.1523052
0
ARC
8
DEFAULT_255_2_778
10
23.7179287
20
7.6834434
40
4.3171241
50
270.1854467
51
274.4243897
0
ARC
8
DEFAULT_255_2_778
10
23.5314146
20
10.1690556
40
6.8097201
50
274.3756706
51
277.4905186
0
ARC
8
DEFAULT_255_2_778
10
23.2726415
20
12.2496393
40
8.9062951
50
277.3961792
51
278.2647731
0
ARC
8
DEFAULT_255_2_778
10
24.4785177
20
4.0502348
40
0.6188794
50
276.903158
51
285.5175561
0
ARC
8
DEFAULT_255_2_778
10
24.6370246
20
3.510964
40
0.0574852
50
277.0586851
51
325.9408653
0
ARC
8
DEFAULT_255_2_778
10
24.6726988
20
3.4824468
40
0.0125031
50
342.8956564
51
359.9772699
0
ARC
8
DEFAULT_255_2_778
10
25.015883
20
3.3218942
40
0.2215827
50
288.9667812
51
5.0611147
0
ARC
8
DEFAULT_255_2_778
10
25.0021201
20
3.3777111
40
0.2788894
50
278.646734
51
287.9136347
0
ARC
8
DEFAULT_255_2_778
10
24.7136519
20
5.0240602
40
1.950259
50
277.0081401
51
279.7536218
0
ARC
8
DEFAULT_255_2_778
10
24.1299027
20
9.6122509
40
6.5754233
50
275.9430206
51
277.1787633
0
ARC
8
DEFAULT_255_2_778
10
23.1634953
20
18.7901144
40
15.804024
50
275.2579181
51
275.9826932
0
ARC
8
DEFAULT_255_2_778
10
21.9126147
20
32.2351251
40
29.3070948
50
274.9073828
51
275.2843631
0
ARC
8
DEFAULT_255_2_778
10
20.3978233
20
49.8604098
40
46.9973535
50
274.5981504
51
274.909185
0
ARC
8
DEFAULT_255_2_778
10
18.5883127
20
72.2762522
40
69.4861128
50
274.4029021
51
274.6036596
0
ARC
8
DEFAULT_255_2_778
10
16.6461694
20
97.4755274
40
94.760119
50
274.2398766
51
274.404036
0
ARC
8
DEFAULT_255_2_778
10
24.1426256
20
3.0528964
40
0.4968097
50
189.0509576
51
234.4911899
0
ARC
8
DEFAULT_255_2_778
10
24.2903465
20
3.2168515
40
0.7165108
50
232.4901462
51
234.8856096
0
ARC
8
DEFAULT_255_2_778
10
24.2777784
20
3.1421003
40
0.6489599
50
231.995849
51
269.8784586
0
ARC
8
DEFAULT_255_2_778
10
24.2798961
20
3.5833804
40
1.0902442
50
269.816359
51
269.9999883
0
ARC
8
DEFAULT_255_2_778
10
24.279973
20
3.570268
40
1.0771318
50
269.995899
51
313.6233287
0
ARC
8
DEFAULT_255_2_778
10
25.0279268
20
2.74822
40
0.042596
50
62.0344213
51
96.5041545
0
ARC
8
DEFAULT_255_2_778
10
24.9373793
20
2.7009689
40
0.1393508
50
25.4723425
51
37.5215447
0
ARC
8
DEFAULT_255_2_778
10
20.9441607
20
0.5157138
40
4.691185
50
27.8620974
51
28.5938014
0
ARC
8
DEFAULT_255_2_778
10
54.0098984
20
18.0586072
40
32.7400397
50
207.9603146
51
208.1210661
0
ARC
8
DEFAULT_255_2_778
10
24.1221346
20
2.0476774
40
1.1666
50
20.6055632
51
29.7770623
0
ARC
8
DEFAULT_255_2_778
10
25.1433283
20
2.4769786
40
0.0732117
50
313.0026358
51
345.1715288
0
ARC
8
DEFAULT_255_2_778
10
24.8088442
20
2.7504667
40
0.5047026
50
316.8572684
51
319.6116643
0
ARC
8
DEFAULT_255_2_778
10
24.3407159
20
3.1919511
40
1.1481705
50
270.003615
51
316.7566909
0
ARC
8
DEFAULT_255_2_778
10
24.3407869
20
3.1934191
40
1.1496386
50
268.0566809
51
270.0000685
0
ARC
8
DEFAULT_255_2_778
10
24.2880745
20
3.5079259
40
1.4635484
50
255.4984819
51
270.53741
0
ARC
8
DEFAULT_255_2_778
10
24.1811252
20
3.097587
40
1.0395019
50
224.7981769
51
255.542072
0
ARC
8
DEFAULT_255_2_778
10
24.2063627
20
3.1219846
40
1.0746012
50
188.6971037
51
224.7731019
0
ARC
8
DEFAULT_255_2_778
10
24.6696055
20
3.2154805
40
1.5468168
50
179.7643662
51
189.5258703
0
ARC
8
DEFAULT_255_2_778
10
24.3527076
20
3.2415442
40
1.2300637
50
179.9997573
51
180.9177652
0
ARC
8
DEFAULT_255_2_778
10
24.3503599
20
3.2416648
40
1.227716
50
138.5953976
51
180.0053829
0
ARC
8
DEFAULT_255_2_778
10
24.2090226
20
3.4138216
40
1.0084755
50
90.0056279
51
140.6213099
0
ARC
8
DEFAULT_255_2_778
10
24.2089395
20
3.4154012
40
1.006896
50
89.3989586
51
90.0009042
0
ARC
8
DEFAULT_255_2_778
10
24.2395882
20
3.4761355
40
0.9463196
50
89.9995628
51
91.2162448
0
ARC
8
DEFAULT_255_2_778
10
24.2395518
20
3.4775569
40
0.9448983
50
41.4576167
51
89.9973528
0
ARC
8
DEFAULT_255_2_778
10
24.1574769
20
3.3713838
40
1.0769982
50
0.0066112
51
42.8000724
0
ARC
8
DEFAULT_255_2_778
10
24.1570788
20
3.3715032
40
1.0773963
50
358.7096751
51
0.0002567
0
ARC
8
DEFAULT_255_2_778
10
27.246939
20
2.149886
40
0.0514678
50
271.739982
51
352.807289
0
ARC
8
DEFAULT_255_2_778
10
27.1844057
20
3.811535
40
1.7142918
50
270.6002283
51
272.1427436
0
ARC
8
DEFAULT_255_2_778
10
27.1845033
20
3.8050651
40
1.7078213
50
270.0006557
51
270.5992285
0
ARC
8
DEFAULT_255_2_778
10
27.1842769
20
3.7794793
40
1.6822356
50
265.9034273
51
270.0083763
0
ARC
8
DEFAULT_255_2_778
10
27.052493
20
2.9919614
40
0.8904952
50
262.2520087
51
270.7469438
0
ARC
8
DEFAULT_255_2_778
10
26.9503927
20
2.2987181
40
0.1899725
50
239.4598738
51
264.5773098
0
ARC
8
DEFAULT_255_2_778
10
26.8850789
20
2.179542
40
0.0543113
50
221.6584313
51
234.9132457
0
ARC
8
DEFAULT_255_2_778
10
26.0898366
20
2.5503835
40
0.3874431
50
33.2899469
51
47.4573907
0
ARC
8
DEFAULT_255_2_778
10
26.3803234
20
2.7784237
40
0.0641118
50
116.4152744
51
146.5790927
0
ARC
8
DEFAULT_255_2_778
10
27.1820941
20
2.0894727
40
1.1207422
50
139.7416599
51
143.7111485
0
ARC
8
DEFAULT_255_2_778
10
30.2976313
20
-0.2312455
40
5.0056033
50
143.406111
51
144.9293725
0
ARC
8
DEFAULT_255_2_778
10
38.493229
20
-6.0089619
40
15.0330505
50
144.8544196
51
145.5596547
0
ARC
8
DEFAULT_255_2_778
10
47.2477202
20
-12.0397898
40
25.6637467
50
145.5091249
51
145.5408272
0
ARC
8
DEFAULT_255_2_778
10
21.3602492
20
5.5958017
40
5.6607917
50
324.6792425
51
326.6193597
0
ARC
8
DEFAULT_255_2_778
10
23.8560404
20
3.8208564
40
2.5982202
50
321.5554845
51
324.7956348
0
ARC
8
DEFAULT_255_2_778
10
25.2954712
20
2.6695062
40
0.7550136
50
314.7642926
51
322.0695697
0
ARC
8
DEFAULT_255_2_778
10
25.7590857
20
2.1943414
40
0.0913305
50
291.7991988
51
318.1767825
0
ARC
8
DEFAULT_255_2_778
10
25.7108456
20
2.8423188
40
0.7373681
50
271.5600845
51
276.3970687
0
ARC
8
DEFAULT_255_2_778
10
25.571113
20
6.343978
40
4.2417654
50
270.6884761
51
272.159118
0
ARC
8
DEFAULT_255_2_778
10
25.4740181
20
13.2766511
40
11.1751131
50
269.9532598
51
270.7591565
0
ARC
8
DEFAULT_255_2_778
10
25.4539363
20
2.1420416
40
0.0419579
50
178.0875056
51
285.1497869
0
ARC
8
DEFAULT_255_2_778
10
25.5061233
20
2.3639315
40
0.0993838
50
141.032828
51
161.271643
0
ARC
8
DEFAULT_255_2_778
10
26.7343775
20
1.5256786
40
1.5861126
50
142.2110423
51
145.3961041
0
ARC
8
DEFAULT_255_2_778
10
30.1666303
20
-1.1020519
40
5.9087436
50
141.1580127
51
142.4680506
0
ARC
8
DEFAULT_255_2_778
10
35.8202989
20
-5.6399204
40
13.1583065
50
140.4376263
51
141.2076074
0
ARC
8
DEFAULT_255_2_778
10
40.6543513
20
-9.618227
40
19.4188887
50
140.2689013
51
140.4727128
0
ARC
8
DEFAULT_255_2_778
10
25.9296044
20
3.1777549
40
0.1037421
50
15.0208871
51
38.3315313
0
ARC
8
DEFAULT_255_2_778
10
24.8994073
20
2.4982818
40
1.3374834
50
33.7885997
51
37.6908304
0
ARC
8
DEFAULT_255_2_778
10
21.8352001
20
0.1654292
40
5.1886356
50
37.3880278
51
38.8828839
0
ARC
8
DEFAULT_255_2_778
10
15.5062458
20
-4.9193227
40
13.3071503
50
38.8193718
51
39.5728815
0
ARC
8
DEFAULT_255_2_778
10
8.5505629
20
-10.646143
40
22.317024
50
39.5295857
51
39.7042982
0
ARC
8
DEFAULT_255_2_778
10
25.4576976
20
4.2682057
40
0.0470021
50
77.2113942
51
180.9312014
0
ARC
8
DEFAULT_255_2_778
10
25.4519792
20
2.6862731
40
1.6278486
50
86.1067318
51
89.4325229
0
ARC
8
DEFAULT_255_2_778
10
25.2675049
20
-0.4048056
40
4.72439
50
85.4571109
51
86.4199868
0
ARC
8
DEFAULT_255_2_778
10
25.8127899
20
4.2218632
40
0.0737181
50
33.8651441
51
88.1251104
0
ARC
8
DEFAULT_255_2_778
10
26.6985965
20
3.8887238
40
0.4757303
50
211.2761771
51
223.005716
0
ARC
8
DEFAULT_255_2_778
10
26.3286912
20
3.6038443
40
0.045308
50
299.0647267
51
327.5248357
0
ARC
8
DEFAULT_255_2_778
10
25.774336
20
4.0592815
40
0.7624455
50
321.0055945
51
325.3826808
0
ARC
8
DEFAULT_255_2_778
10
26.9002106
20
4.2373577
40
0.0652955
50
91.0608001
51
148.2244482
0
ARC
8
DEFAULT_255_2_778
10
27.2507797
20
4.2671231
40
0.0477224
50
359.7824133
51
103.4227405
0
ARC
8
DEFAULT_255_2_778
10
27.1927848
20
4.0478673
40
0.1084795
50
322.9676802
51
347.0418165
0
ARC
8
DEFAULT_255_2_778
10
26.2759001
20
4.6264469
40
1.19231
50
322.8377101
51
327.3126085
0
ARC
8
DEFAULT_255_2_778
10
23.6435129
20
6.5919582
40
4.4775111
50
321.2486742
51
323.1421147
0
ARC
8
DEFAULT_255_2_778
10
18.1859476
20
10.9524348
40
11.4631164
50
320.3319491
51
321.3262066
0
ARC
8
DEFAULT_255_2_778
10
13.1599511
20
15.0960775
40
17.9769627
50
320.2874457
51
320.3915358
0
ARC
8
DEFAULT_255_2_778
10
26.7719011
20
3.2339333
40
0.0976809
50
198.7456556
51
219.259972
0
ARC
8
DEFAULT_255_2_778
10
27.9903851
20
4.072997
40
1.5768077
50
214.8431327
51
218.0359788
0
ARC
8
DEFAULT_255_2_778
10
31.5249015
20
6.8030357
40
6.0428709
50
217.7745705
51
219.0539225
0
ARC
8
DEFAULT_255_2_778
10
37.6498902
20
11.7567189
40
13.9203323
50
219.0034645
51
219.7320981
0
ARC
8
DEFAULT_255_2_778
10
43.1741699
20
16.3315912
40
21.0929896
50
219.6972049
51
219.8853391
0
ARC
8
DEFAULT_255_2_778
10
18.9518148
20
-3.9246026
40
10.4828888
50
38.8035411
51
39.9427549
0
ARC
8
DEFAULT_255_2_778
10
23.4691138
20
-0.2982423
40
4.6900977
50
36.9987287
51
38.8616251
0
ARC
8
DEFAULT_255_2_778
10
26.0166303
20
1.6146548
40
1.5043597
50
33.4309657
51
37.2026978
0
ARC
8
DEFAULT_255_2_778
10
27.1085073
20
2.3256679
40
0.2015796
50
20.0729139
51
35.754851
0
ARC
8
DEFAULT_255_2_778
10
27.2789102
20
2.3897931
40
0.0195967
50
1.3121427
51
14.9639836
0
ARC
8
DEFAULT_255_2_778
10
27.467134
20
2.5518037
40
1.4454886
50
353.455002
51
358.998629
0
ARC
8
DEFAULT_255_2_778
10
28.8550199
20
2.2070647
40
0.0291247
50
315.5830647
51
335.4025803
0
ARC
8
DEFAULT_255_2_778
10
28.8032095
20
2.2649233
40
0.1067451
50
289.0791527
51
312.8630671
0
ARC
8
DEFAULT_255_2_778
10
28.5186451
20
2.8496676
40
0.7563962
50
281.1466943
51
294.9824326
0
ARC
8
DEFAULT_255_2_778
10
28.3421387
20
3.6897606
40
1.6147996
50
273.7061773
51
281.5287842
0
ARC
8
DEFAULT_255_2_778
10
28.2464488
20
4.9724139
40
2.900983
50
269.8430416
51
273.9546222
0
ARC
8
DEFAULT_255_2_778
10
28.2261742
20
2.9059939
40
0.8346431
50
255.2980258
51
270.8462782
0
ARC
8
DEFAULT_255_2_778
10
28.1028168
20
2.4872808
40
0.3985459
50
189.612896
51
257.174866
0
ARC
8
DEFAULT_255_2_778
10
28.3992702
20
2.5587715
40
0.703088
50
179.5705078
51
191.3229985
0
ARC
8
DEFAULT_255_2_778
10
27.6240725
20
3.7603416
40
0.0912824
50
353.1421081
51
92.4302838
0
ARC
8
DEFAULT_255_2_778
10
27.4775349
20
3.9092619
40
0.0625986
50
185.0460179
51
243.7025362
0
ARC
8
DEFAULT_255_2_778
10
27.8757384
20
4.0112531
40
0.4729382
50
180.7014834
51
193.1379471
0
ARC
8
DEFAULT_255_2_778
10
28.4942245
20
4.0426698
40
1.092023
50
179.9490004
51
181.9525296
0
ARC
8
DEFAULT_255_2_778
10
28.5113831
20
4.0412897
40
1.1091838
50
172.5742606
51
179.8784994
0
ARC
8
DEFAULT_255_2_778
10
27.4870726
20
4.1770021
40
0.0759561
50
91.1850472
51
174.2273576
0
ARC
8
DEFAULT_255_2_778
10
27.6126811
20
4.3462713
40
0.0928189
50
261.2128758
51
2.6370936
0
ARC
8
DEFAULT_255_2_778
10
28.1466808
20
4.9289926
40
0.4520241
50
167.398341
51
181.4515868
0
ARC
8
DEFAULT_255_2_778
10
27.774066
20
5.0221679
40
0.0687361
50
108.7217315
51
175.4577405
0
ARC
8
DEFAULT_255_2_778
10
27.7598003
20
5.0425712
40
0.0453707
50
89.8718796
51
99.8950104
0
ARC
8
DEFAULT_255_2_778
10
27.7208636
20
4.6709411
40
0.4188241
50
79.9219618
51
84.6517534
0
ARC
8
DEFAULT_255_2_778
10
26.8221028
20
-1.0748751
40
6.2344235
50
80.4864178
51
81.0300365
0
ARC
8
DEFAULT_255_2_778
10
23.1709105
20
-22.9313984
40
28.3938185
50
80.2659782
51
80.5096264
0
ARC
8
DEFAULT_255_2_778
10
8.2250755
20
-110.2462259
40
116.9785625
50
80.202022
51
80.2816814
0
ARC
8
DEFAULT_255_2_778
10
-29.292934
20
-327.7720654
40
337.7161695
50
80.1990297
51
80.2099333
0
ARC
8
DEFAULT_255_2_778
10
28.1981476
20
4.9639722
40
0.0512544
50
0.1896516
51
93.2949297
0
ARC
8
DEFAULT_255_2_778
10
25.7880894
20
4.9826747
40
2.4613821
50
356.595169
51
359.568591
0
ARC
8
DEFAULT_255_2_778
10
18.4584456
20
5.3885253
40
9.802238
50
355.7320969
51
356.7715605
0
ARC
8
DEFAULT_255_2_778
10
28.2744986
20
4.3423147
40
0.0571482
50
170.0982219
51
275.6266283
0
ARC
8
DEFAULT_255_2_778
10
28.8464575
20
4.2566545
40
0.0300605
50
1.8821785
51
106.7349169
0
ARC
8
DEFAULT_255_2_778
10
28.1013055
20
4.2730156
40
0.7753487
50
357.9098951
51
358.8638544
0
ARC
8
DEFAULT_255_2_778
10
28.2521744
20
4.2653435
40
0.6243039
50
351.0056673
51
358.1085559
0
ARC
8
DEFAULT_255_2_778
10
29.6083702
20
4.0459316
40
0.7495326
50
170.6470988
51
180.0087244
0
ARC
8
DEFAULT_255_2_778
10
29.5830363
20
4.0457713
40
0.7241987
50
179.9963493
51
180.2446346
0
ARC
8
DEFAULT_255_2_778
10
29.6141326
20
4.0458462
40
0.7552951
50
180.240242
51
185.798249
0
ARC
8
DEFAULT_255_2_778
10
28.8169945
20
3.8674825
40
0.0491462
50
258.2710017
51
354.3475015
0
ARC
8
DEFAULT_255_2_778
10
28.8008722
20
3.9751693
40
0.1559273
50
269.9741256
51
272.2537208
0
ARC
8
DEFAULT_255_2_778
10
28.8182485
20
6.4365304
40
2.6173467
50
267.070356
51
269.6180752
0
ARC
8
DEFAULT_255_2_778
10
29.2360895
20
15.2128473
40
11.403592
50
266.4012574
51
267.2274159
0
ARC
8
DEFAULT_255_2_778
10
28.2568417
20
3.8151542
40
0.0344095
50
122.6022484
51
182.9012226
0
ARC
8
DEFAULT_255_2_778
10
28.7919523
20
3.7002995
40
0.580601
50
168.7657519
51
175.6549033
0
ARC
8
DEFAULT_255_2_778
10
29.7397059
20
3.6078631
40
1.5327692
50
174.8936061
51
176.0914956
0
ARC
8
DEFAULT_255_2_778
10
29.554179
20
2.8935058
40
1.3543272
50
179.5077226
51
186.3268294
0
ARC
8
DEFAULT_255_2_778
10
28.6312235
20
2.7842352
40
0.4250074
50
185.3971741
51
200.9438106
0
ARC
8
DEFAULT_255_2_778
10
28.4121065
20
2.7078967
40
0.1932077
50
203.0287084
51
205.0005766
0
ARC
8
DEFAULT_255_2_778
10
28.4238632
20
2.7175053
40
0.2079572
50
206.0309521
51
268.823614
0
ARC
8
DEFAULT_255_2_778
10
28.465188
20
2.950495
40
0.4432545
50
264.0959791
51
270.1439713
0
ARC
8
DEFAULT_255_2_778
10
28.4538566
20
3.2198444
40
0.7127113
50
271.0005349
51
279.8609856
0
ARC
8
DEFAULT_255_2_778
10
28.3307709
20
4.0128585
40
1.5151586
50
279.3110348
51
283.2677127
0
ARC
8
DEFAULT_255_2_778
10
29.0936527
20
0.6913375
40
1.892891
50
98.5838709
51
102.6691594
0
ARC
8
DEFAULT_255_2_778
10
28.8923822
20
2.0309253
40
0.5382685
50
90.7962811
51
98.6825421
0
ARC
8
DEFAULT_255_2_778
10
28.8816852
20
2.536858
40
0.0324437
50
342.943605
51
84.3101193
0
LINE
8
DEFAULT_255_2_778
10
11.3327018
20
2.1870419
11
11.3203018
21
2.3405419
0
LINE
8
DEFAULT_255_2_778
10
11.4349018
20
2.5310419
11
11.5044018
21
2.5230419
0
LINE
8
DEFAULT_255_2_778
10
12.1643018
20
4.1685419
11
12.2077018
21
3.9780419
0
LINE
8
DEFAULT_255_2_778
10
12.1627018
20
3.9454419
11
11.8637018
21
3.9052419
0
LINE
8
DEFAULT_255_2_778
10
14.4249018
20
2.7315419
11
14.4990018
21
2.7918419
0
LINE
8
DEFAULT_255_2_778
10
14.5239018
20
2.7871419
11
14.6106018
21
2.6283419
0
LINE
8
DEFAULT_255_2_778
10
14.6106018
20
2.6283419
11
14.6911018
21
2.4595419
0
LINE
8
DEFAULT_255_2_778
10
18.5109018
20
2.0984419
11
18.4056018
21
2.1045419
0
LINE
8
DEFAULT_255_2_778
10
18.1794018
20
2.1076419
11
18.0603018
21
2.1029419
0
LINE
8
DEFAULT_255_2_778
10
18.0127018
20
2.2087419
11
18.0206018
21
2.5278419
0
LINE
8
DEFAULT_255_2_778
10
18.0206018
20
2.5278419
11
18.0238018
21
3.5007419
0
LINE
8
DEFAULT_255_2_778
10
17.0768018
20
3.5007419
11
17.0861018
21
2.1576419
0
LINE
8
DEFAULT_255_2_778
10
17.0443018
20
2.0957419
11
16.9234018
21
2.1018419
0
LINE
8
DEFAULT_255_2_778
10
16.5360018
20
2.1669419
11
16.5440018
21
2.5016419
0
LINE
8
DEFAULT_255_2_778
10
16.5440018
20
2.5016419
11
16.5500018
21
2.8376419
0
LINE
8
DEFAULT_255_2_778
10
16.5500018
20
2.8376419
11
16.5500018
21
3.3954419
0
LINE
8
DEFAULT_255_2_778
10
15.5806018
20
3.5300419
11
15.5806018
21
2.8527419
0
LINE
8
DEFAULT_255_2_778
10
15.5806018
20
2.8527419
11
15.5854018
21
2.1635419
0
LINE
8
DEFAULT_255_2_778
10
15.5325018
20
2.0968419
11
15.0985018
21
2.0968419
0
LINE
8
DEFAULT_255_2_778
10
15.0520018
20
2.1587419
11
15.0567018
21
3.2879419
0
LINE
8
DEFAULT_255_2_778
10
14.9808018
20
4.2177419
11
15.2303018
21
4.2534419
0
LINE
8
DEFAULT_255_2_778
10
15.4610018
20
4.3045419
11
15.4795018
21
4.3061419
0
LINE
8
DEFAULT_255_2_778
10
15.5740018
20
3.9793419
11
15.6904018
21
4.0814419
0
LINE
8
DEFAULT_255_2_778
10
18.5577018
20
3.5345419
11
18.5529018
21
3.2975419
0
LINE
8
DEFAULT_255_2_778
10
18.5529018
20
3.2975419
11
18.5561018
21
2.6201419
0
LINE
8
DEFAULT_255_2_778
10
18.5561018
20
2.6201419
11
18.5622018
21
2.1817419
0
LINE
8
DEFAULT_255_2_778
10
21.2795018
20
4.1939419
11
21.2715018
21
4.1521419
0
LINE
8
DEFAULT_255_2_778
10
21.1816018
20
3.2382419
11
21.2390018
21
2.1957419
0
LINE
8
DEFAULT_255_2_778
10
21.2390018
20
2.1957419
11
21.2422018
21
2.1648419
0
LINE
8
DEFAULT_255_2_778
10
20.9882018
20
2.0806419
11
20.7961018
21
2.0648419
0
LINE
8
DEFAULT_255_2_778
10
20.6127018
20
4.1518419
11
20.7365018
21
4.0184419
0
LINE
8
DEFAULT_255_2_778
10
20.7365018
20
4.0184419
11
20.7490018
21
4.0105419
0
LINE
8
DEFAULT_255_2_778
10
22.9456018
20
2.5220419
11
22.9363018
21
2.3825419
0
LINE
8
DEFAULT_255_2_778
10
22.9363018
20
2.3825419
11
22.9223018
21
2.2431419
0
LINE
8
DEFAULT_255_2_778
10
21.7309018
20
2.5593419
11
21.7388018
21
3.1525419
0
LINE
8
DEFAULT_255_2_778
10
21.7388018
20
3.1525419
11
21.7481018
21
3.7443419
0
LINE
8
DEFAULT_255_2_778
10
21.6536018
20
3.8465419
11
21.4832018
21
3.8481419
0
LINE
8
DEFAULT_255_2_778
10
21.5189018
20
4.2478419
11
21.6319018
21
4.2494419
0
LINE
8
DEFAULT_255_2_778
10
21.7377018
20
4.3455419
11
21.7253018
21
4.9125419
0
LINE
8
DEFAULT_255_2_778
10
22.2640018
20
4.6540419
11
22.2481018
21
4.3471419
0
LINE
8
DEFAULT_255_2_778
10
22.3116018
20
4.2804419
11
22.8693018
21
4.2804419
0
LINE
8
DEFAULT_255_2_778
10
22.8940018
20
3.9642419
11
22.8955018
21
3.8573419
0
LINE
8
DEFAULT_255_2_778
10
22.8305018
20
3.8139419
11
22.5516018
21
3.8264419
0
LINE
8
DEFAULT_255_2_778
10
22.5516018
20
3.8264419
11
22.2695018
21
3.8388419
0
LINE
8
DEFAULT_255_2_778
10
22.2418018
20
3.7070419
11
22.2293018
21
3.2453419
0
LINE
8
DEFAULT_255_2_778
10
22.2293018
20
3.2453419
11
22.2293018
21
2.8998419
0
LINE
8
DEFAULT_255_2_778
10
26.8445018
20
2.1434419
11
26.4137018
21
2.7630419
0
LINE
8
DEFAULT_255_2_778
10
25.4120018
20
2.1434419
11
25.4120018
21
2.3958419
0
LINE
8
DEFAULT_255_2_778
10
25.7202018
20
2.7940419
11
26.0298018
21
3.2046419
0
LINE
8
DEFAULT_255_2_778
10
25.7202018
20
3.6105419
11
25.4107018
21
4.0195419
0
LINE
8
DEFAULT_255_2_778
10
25.4107018
20
4.0195419
11
25.4107018
21
4.2674419
0
LINE
8
DEFAULT_255_2_778
10
25.6417018
20
4.3047419
11
25.8152018
21
4.2955419
0
LINE
8
DEFAULT_255_2_778
10
25.8740018
20
4.2629419
11
26.2920018
21
3.6417419
0
LINE
8
DEFAULT_255_2_778
10
26.4018018
20
3.6261419
11
26.8447018
21
4.2717419
0
LINE
8
DEFAULT_255_2_778
10
26.8990018
20
4.3026419
11
27.0693018
21
4.3087419
0
LINE
8
DEFAULT_255_2_778
10
27.0693018
20
4.3087419
11
27.2397018
21
4.3135419
0
LINE
8
DEFAULT_255_2_778
10
27.2985018
20
4.2669419
11
27.2985018
21
4.0235419
0
LINE
8
DEFAULT_255_2_778
10
26.9889018
20
3.6099419
11
26.6794018
21
3.2025419
0
LINE
8
DEFAULT_255_2_778
10
27.2985018
20
2.3902419
11
27.2985018
21
2.1423419
0
LINE
8
DEFAULT_255_2_778
10
28.9032018
20
2.3870419
11
28.8815018
21
2.1949419
0
LINE
8
DEFAULT_255_2_778
10
27.6962018
20
2.5640419
11
27.7147018
21
3.7494419
0
LINE
8
DEFAULT_255_2_778
10
27.6202018
20
3.8515419
11
27.4498018
21
3.8531419
0
LINE
8
DEFAULT_255_2_778
10
27.4855018
20
4.2529419
11
27.5985018
21
4.2545419
0
LINE
8
DEFAULT_255_2_778
10
27.7054018
20
4.3505419
11
27.6993018
21
4.6325419
0
LINE
8
DEFAULT_255_2_778
10
27.6993018
20
4.6325419
11
27.6948018
21
4.9175419
0
LINE
8
DEFAULT_255_2_778
10
28.2335018
20
4.6590419
11
28.2182018
21
4.3521419
0
LINE
8
DEFAULT_255_2_778
10
28.2801018
20
4.2854419
11
28.8378018
21
4.2854419
0
LINE
8
DEFAULT_255_2_778
10
28.8627018
20
3.9695419
11
28.8659018
21
3.8626419
0
LINE
8
DEFAULT_255_2_778
10
28.5203018
20
3.8317419
11
28.2383018
21
3.8441419
0
LINE
8
DEFAULT_255_2_778
10
28.2105018
20
3.7123419
11
28.1999018
21
3.2506419
0
LINE
8
DEFAULT_255_2_778
10
28.1999018
20
3.2506419
11
28.1999018
21
2.9051419
0
ARC
8
DEFAULT_255_2_778
10
6.1376234
20
3.2321038
40
4.0895325
50
89.6666846
51
89.9994628
0
ARC
8
DEFAULT_255_2_778
10
6.1377623
20
3.2102153
40
4.1114209
50
90.0014012
51
91.9260516
0
ARC
8
DEFAULT_255_2_778
10
6.1331376
20
3.3316179
40
3.9899316
50
91.9182711
51
93.6637848
0
ARC
8
DEFAULT_255_2_778
10
6.1127167
20
3.654703
40
3.666202
50
93.6679499
51
94.6085487
0
ARC
8
DEFAULT_255_2_778
10
6.0782811
20
4.0789923
40
3.2405175
50
94.6044178
51
95.5295208
0
ARC
8
DEFAULT_255_2_778
10
6.0058718
20
4.8174749
40
2.4984943
50
95.5085799
51
96.6113147
0
ARC
8
DEFAULT_255_2_778
10
5.8712018
20
5.9733856
40
1.3347656
50
96.5816666
51
97.520446
0
ARC
8
DEFAULT_255_2_778
10
5.7368348
20
6.9937646
40
0.3055778
50
97.5834425
51
97.8660874
0
ARC
8
DEFAULT_255_2_778
10
5.6673501
20
5.1322936
40
2.1643503
50
89.2676502
51
89.9982995
0
ARC
8
DEFAULT_255_2_778
10
5.6633346
20
5.336544
40
1.960104
50
89.8807436
51
98.1619985
0
ARC
8
DEFAULT_255_2_778
10
5.6251551
20
5.6023666
40
1.6915536
50
98.1601948
51
108.6230198
0
ARC
8
DEFAULT_255_2_778
10
5.5885959
20
5.7157376
40
1.5724447
50
108.6798235
51
122.4523115
0
ARC
8
DEFAULT_255_2_778
10
5.7034094
20
5.5590071
40
1.7663547
50
122.8669557
51
143.1086911
0
ARC
8
DEFAULT_255_2_778
10
6.2963692
20
5.1121266
40
2.5088517
50
143.0755543
51
156.8243642
0
ARC
8
DEFAULT_255_2_778
10
6.8042049
20
4.8708663
40
3.070733
50
156.4151375
51
157.1436725
0
ARC
8
DEFAULT_255_2_778
10
7.1427542
20
4.734885
40
3.4355236
50
157.247
51
163.2912649
0
ARC
8
DEFAULT_255_2_778
10
7.655895
20
4.5767654
40
3.9724611
50
163.2348373
51
166.9911873
0
ARC
8
DEFAULT_255_2_778
10
7.9186539
20
4.5146321
40
4.242463
50
166.9723967
51
169.6613542
0
ARC
8
DEFAULT_255_2_778
10
7.9404104
20
4.5100482
40
4.2646891
50
169.6532263
51
171.5491438
0
ARC
8
DEFAULT_255_2_778
10
7.7266973
20
4.5412728
40
4.0487076
50
171.5417577
51
173.298325
0
ARC
8
DEFAULT_255_2_778
10
7.2787746
20
4.5939473
40
3.5976985
50
173.2989955
51
174.5309567
0
ARC
8
DEFAULT_255_2_778
10
6.5870507
20
4.6594832
40
2.9028774
50
174.517354
51
175.7720677
0
ARC
8
DEFAULT_255_2_778
10
5.612528
20
4.7313823
40
1.925706
50
175.7678231
51
176.7190446
0
ARC
8
DEFAULT_255_2_778
10
4.4881993
20
4.7951985
40
0.7995681
50
176.673455
51
177.4647129
0
ARC
8
DEFAULT_255_2_778
10
3.6846342
20
4.0340349
40
0.7965465
50
89.6561933
51
97.8494291
0
ARC
8
DEFAULT_255_2_778
10
3.6175994
20
4.4502775
40
0.375171
50
96.389209
51
123.1553934
0
ARC
8
DEFAULT_255_2_778
10
3.9391983
20
4.0697314
40
0.8717916
50
127.1752475
51
132.4858429
0
ARC
8
DEFAULT_255_2_778
10
3.8361327
20
4.1819036
40
0.7194594
50
132.4664778
51
138.9992265
0
ARC
8
DEFAULT_255_2_778
10
3.7452541
20
4.2606988
40
0.5991782
50
138.9843281
51
146.9735081
0
ARC
8
DEFAULT_255_2_778
10
3.7023208
20
4.2898615
40
0.5472888
50
147.0835067
51
148.2656729
0
ARC
8
DEFAULT_255_2_778
10
3.661902
20
4.3133895
40
0.500539
50
148.1227017
51
159.9322237
0
ARC
8
DEFAULT_255_2_778
10
3.6278801
20
4.3265505
40
0.4640674
50
160.0171627
51
174.7524704
0
ARC
8
DEFAULT_255_2_778
10
3.6434101
20
4.3250947
40
0.4796655
50
174.7489588
51
180.0179012
0
ARC
8
DEFAULT_255_2_778
10
3.7174004
20
4.3288056
40
0.5536693
50
180.3995359
51
197.8621096
0
ARC
8
DEFAULT_255_2_778
10
3.8693836
20
4.3748938
40
0.7124683
50
197.640891
51
207.2877596
0
ARC
8
DEFAULT_255_2_778
10
3.9409011
20
4.4096467
40
0.7919621
50
207.1501228
51
209.1404938
0
ARC
8
DEFAULT_255_2_778
10
3.9626954
20
4.4219031
40
0.8169659
50
209.1469665
51
214.0885229
0
ARC
8
DEFAULT_255_2_778
10
3.9179821
20
4.3910714
40
0.7626554
50
214.0529635
51
217.5396923
0
ARC
8
DEFAULT_255_2_778
10
3.7720384
20
4.278603
40
0.5784039
50
217.5144697
51
219.9777329
0
ARC
8
DEFAULT_255_2_778
10
3.5341331
20
4.0784983
40
0.2675335
50
219.8733573
51
221.7740403
0
ARC
8
DEFAULT_255_2_778
10
6.5347762
20
0.1665137
40
4.9175149
50
130.5995453
51
132.2860343
0
ARC
8
DEFAULT_255_2_778
10
3.8265035
20
4.1827869
40
0.7096432
50
198.4699228
51
212.2160074
0
ARC
8
DEFAULT_255_2_778
10
3.1922892
20
6.4614412
40
2.5037759
50
263.333692
51
269.1103513
0
ARC
8
DEFAULT_255_2_778
10
3.0560186
20
5.3323247
40
1.3664807
50
254.3440734
51
263.5128939
0
ARC
8
DEFAULT_255_2_778
10
2.868662
20
4.6821667
40
0.6899016
50
238.283405
51
254.7555084
0
ARC
8
DEFAULT_255_2_778
10
2.6963939
20
4.411421
40
0.3690488
50
190.2317085
51
238.9363405
0
ARC
8
DEFAULT_255_2_778
10
2.9106918
20
4.4560209
40
0.5878899
50
183.0807744
51
190.7994279
0
ARC
8
DEFAULT_255_2_778
10
2.9265172
20
4.4571294
40
0.603752
50
179.9981498
51
183.105105
0
ARC
8
DEFAULT_255_2_778
10
2.8689904
20
4.4659921
40
0.5462969
50
142.640511
51
180.9275191
0
ARC
8
DEFAULT_255_2_778
10
2.687064
20
4.6045759
40
0.3175993
50
90.4141257
51
142.596658
0
ARC
8
DEFAULT_255_2_778
10
2.6847404
20
4.5914723
40
0.3306945
50
87.5608981
51
89.9951363
0
ARC
8
DEFAULT_255_2_778
10
2.684216
20
4.2571833
40
0.6648441
50
80.8966109
51
88.7418563
0
ARC
8
DEFAULT_255_2_778
10
2.7394566
20
4.5892899
40
0.3281867
50
68.1203033
51
81.2458
0
ARC
8
DEFAULT_255_2_778
10
2.8104543
20
4.7599567
40
0.1433735
50
42.6722779
51
69.032745
0
ARC
8
DEFAULT_255_2_778
10
2.8513282
20
4.800008
40
0.0861919
50
359.4928106
51
41.5136007
0
ARC
8
DEFAULT_255_2_778
10
2.8381363
20
4.7992552
40
0.0993805
50
357.3534186
51
359.9941096
0
ARC
8
DEFAULT_255_2_778
10
2.7723506
20
4.813042
40
0.1660799
50
312.0147726
51
353.647592
0
ARC
8
DEFAULT_255_2_778
10
2.8069019
20
4.7690672
40
0.1103461
50
297.5735339
51
313.9688122
0
ARC
8
DEFAULT_255_2_778
10
2.8411557
20
4.7025442
40
0.0355258
50
272.998276
51
298.2662123
0
ARC
8
DEFAULT_255_2_778
10
2.8383152
20
4.8162555
40
0.1492623
50
230.4610826
51
271.8039335
0
ARC
8
DEFAULT_255_2_778
10
2.8561241
20
4.8369864
40
0.1765878
50
225.3003578
51
230.2869506
0
ARC
8
DEFAULT_255_2_778
10
2.6921746
20
4.6731901
40
0.0551756
50
43.9261448
51
70.1381786
0
ARC
8
DEFAULT_255_2_778
10
2.6970109
20
4.68511
40
0.0423246
50
70.8134943
51
89.8283001
0
ARC
8
DEFAULT_255_2_778
10
2.6995008
20
4.6819513
40
0.0455443
50
92.9740863
51
184.7660563
0
ARC
8
DEFAULT_255_2_778
10
2.8275966
20
4.6791641
40
0.1734855
50
180.3292788
51
196.0904732
0
ARC
8
DEFAULT_255_2_778
10
2.846821
20
4.6832772
40
0.1931017
50
195.6821257
51
246.3265872
0
ARC
8
DEFAULT_255_2_778
10
2.852466
20
4.7030655
40
0.2135094
50
247.0714322
51
270.6104111
0
ARC
8
DEFAULT_255_2_778
10
2.8526818
20
4.7875917
40
0.2980307
50
270.3958073
51
284.2387222
0
ARC
8
DEFAULT_255_2_778
10
2.8209179
20
4.9154772
40
0.4298007
50
284.1498096
51
294.3459184
0
ARC
8
DEFAULT_255_2_778
10
2.7748434
20
5.0240238
40
0.5476955
50
294.0560878
51
296.5690014
0
ARC
8
DEFAULT_255_2_778
10
2.8234876
20
4.9389935
40
0.4499205
50
295.8717283
51
313.4037133
0
ARC
8
DEFAULT_255_2_778
10
2.9376848
20
4.8199528
40
0.2849674
50
313.168315
51
345.8576657
0
ARC
8
DEFAULT_255_2_778
10
2.9460094
20
4.8151042
40
0.2757236
50
346.412027
51
357.5200929
0
ARC
8
DEFAULT_255_2_778
10
2.9304864
20
4.8161146
40
0.2912759
50
357.4536556
51
0.0045111
0
ARC
8
DEFAULT_255_2_778
10
2.8681555
20
4.8110474
40
0.3536432
50
0.8247002
51
26.0347346
0
ARC
8
DEFAULT_255_2_778
10
2.7560629
20
4.8150237
40
0.4556824
50
19.3844633
51
52.4991952
0
ARC
8
DEFAULT_255_2_778
10
2.7332937
20
4.7674018
40
0.507442
50
53.7330782
51
78.8509271
0
ARC
8
DEFAULT_255_2_778
10
2.766012
20
5.2962032
40
0.054345
50
2.2820042
51
67.436277
0
ARC
8
DEFAULT_255_2_778
10
2.7656661
20
5.3030531
40
0.0482423
50
63.9330622
51
88.0425103
0
ARC
8
DEFAULT_255_2_778
10
2.6494373
20
5.3010908
40
0.0616499
50
83.6892078
51
164.2093633
0
ARC
8
DEFAULT_255_2_778
10
2.6754065
20
4.2567902
40
1.012727
50
95.433335
51
111.605047
0
ARC
8
DEFAULT_255_2_778
10
2.2189455
20
5.2125248
40
0.0430714
50
44.5991716
51
91.3485814
0
ARC
8
DEFAULT_255_2_778
10
2.2183633
20
5.1879222
40
0.0676634
50
90.3653077
51
101.2006383
0
ARC
8
DEFAULT_255_2_778
10
2.2385515
20
5.1047172
40
0.1532482
50
102.5622302
51
115.73322
0
ARC
8
DEFAULT_255_2_778
10
2.2237031
20
5.0468509
40
0.1827202
50
134.9939929
51
135.5189985
0
ARC
8
DEFAULT_255_2_778
10
2.1406708
20
5.1195621
40
0.0728045
50
130.5546286
51
177.1041213
0
ARC
8
DEFAULT_255_2_778
10
2.144238
20
5.124293
40
0.0762859
50
180.7907165
51
199.4690246
0
ARC
8
DEFAULT_255_2_778
10
2.8618972
20
4.2775241
40
1.0919534
50
134.6490172
51
148.745897
0
ARC
8
DEFAULT_255_2_778
10
1.8774583
20
4.8029924
40
0.0546726
50
70.9379564
51
89.4465972
0
ARC
8
DEFAULT_255_2_778
10
1.8818348
20
4.7948884
40
0.0628921
50
93.5081895
51
134.7357922
0
ARC
8
DEFAULT_255_2_778
10
2.3133018
20
4.2892636
40
0.7274288
50
130.8432833
51
132.9658271
0
ARC
8
DEFAULT_255_2_778
10
1.8351139
20
4.6908198
40
0.0693841
50
153.5107842
51
179.9447466
0
ARC
8
DEFAULT_255_2_778
10
1.8330577
20
4.6908607
40
0.0673277
50
179.9778833
51
191.6795551
0
ARC
8
DEFAULT_255_2_778
10
1.8355371
20
4.6917876
40
0.0699446
50
192.0119316
51
222.7967936
0
ARC
8
DEFAULT_255_2_778
10
2.546962
20
4.4087038
40
0.754371
50
165.3207557
51
179.8761759
0
ARC
8
DEFAULT_255_2_778
10
2.515067
20
4.410769
40
0.7224742
50
180.0344847
51
198.6610058
0
ARC
8
DEFAULT_255_2_778
10
2.6171142
20
4.4464161
40
0.8305634
50
198.738352
51
212.1103683
0
ARC
8
DEFAULT_255_2_778
10
2.743978
20
4.5219465
40
0.9781748
50
211.9077901
51
216.4110693
0
ARC
8
DEFAULT_255_2_778
10
2.8801287
20
4.6249289
40
1.1488756
50
216.5139309
51
224.219361
0
ARC
8
DEFAULT_255_2_778
10
3.092347
20
4.8307078
40
1.4444789
50
224.198497
51
230.5259882
0
ARC
8
DEFAULT_255_2_778
10
3.332113
20
5.1207773
40
1.8208133
50
230.5048066
51
235.7108331
0
ARC
8
DEFAULT_255_2_778
10
3.4782332
20
5.3288469
40
2.0750441
50
235.6140499
51
236.3068819
0
ARC
8
DEFAULT_255_2_778
10
4.6455332
20
7.1117351
40
4.2060351
50
236.5497624
51
239.398842
0
ARC
8
DEFAULT_255_2_778
10
2.5378827
20
3.3622349
40
0.0583572
50
161.897887
51
180.3376022
0
ARC
8
DEFAULT_255_2_778
10
2.5478269
20
3.361946
40
0.0683004
50
180.0461265
51
186.4433027
0
ARC
8
DEFAULT_255_2_778
10
2.5554694
20
3.3620622
40
0.0759113
50
185.8830944
51
247.8219615
0
ARC
8
DEFAULT_255_2_778
10
2.6847253
20
3.343677
40
0.1109836
50
250.9570272
51
269.148625
0
ARC
8
DEFAULT_255_2_778
10
2.6823737
20
3.318793
40
0.0860901
50
270.46761
51
311.8521678
0
ARC
8
DEFAULT_255_2_778
10
5.5162551
20
1.3887921
40
3.345163
50
146.0973846
51
148.7874224
0
ARC
8
DEFAULT_255_2_778
10
7.0366723
20
0.4580399
40
5.1278366
50
148.6966528
51
149.2663721
0
ARC
8
DEFAULT_255_2_778
10
10.7916342
20
-1.767373
40
9.4927172
50
149.3032186
51
149.8575805
0
ARC
8
DEFAULT_255_2_778
10
-3.4733087
20
6.4459659
40
6.9679179
50
327.6549343
51
330.3544645
0
ARC
8
DEFAULT_255_2_778
10
-0.4164635
20
4.5380528
40
3.3646857
50
323.1356278
51
327.2533902
0
ARC
8
DEFAULT_255_2_778
10
-0.5659034
20
4.6543741
40
3.5540317
50
319.4328403
51
323.0806313
0
ARC
8
DEFAULT_255_2_778
10
-1.0316296
20
5.050624
40
4.1655149
50
317.3435418
51
319.4585741
0
ARC
8
DEFAULT_255_2_778
10
1.0893013
20
3.0795351
40
1.2701684
50
306.1665924
51
317.9052729
0
ARC
8
DEFAULT_255_2_778
10
1.2473824
20
2.8613565
40
1.0007432
50
291.0572258
51
306.2315891
0
ARC
8
DEFAULT_255_2_778
10
1.3142457
20
2.6893644
40
0.8162127
50
274.31212
51
291.0149978
0
ARC
8
DEFAULT_255_2_778
10
1.3225865
20
2.6165082
40
0.742941
50
270.0098274
51
274.0931651
0
ARC
8
DEFAULT_255_2_778
10
1.3118604
20
2.4937983
40
0.6203262
50
191.5921752
51
271.0025276
0
ARC
8
DEFAULT_255_2_778
10
1.4075917
20
2.5177453
40
0.7189292
50
179.8671947
51
191.928644
0
ARC
8
DEFAULT_255_2_778
10
1.483019
20
2.5190732
40
0.7943546
50
175.4081406
51
179.9755863
0
ARC
8
DEFAULT_255_2_778
10
1.2643218
20
2.5482554
40
0.57414
50
144.1899742
51
176.5638599
0
ARC
8
DEFAULT_255_2_778
10
1.2997847
20
2.5050182
40
0.6283604
50
99.0437261
51
142.8846327
0
ARC
8
DEFAULT_255_2_778
10
1.2638275
20
2.9308306
40
0.2046164
50
93.6604925
51
107.8774544
0
ARC
8
DEFAULT_255_2_778
10
1.2864729
20
2.5914304
40
0.5447708
50
89.3907582
51
93.758352
0
ARC
8
DEFAULT_255_2_778
10
1.2912331
20
-3.9487719
40
7.0849425
50
89.9583136
51
89.9916509
0
ARC
8
DEFAULT_255_2_778
10
1.3015432
20
10.2248211
40
7.0886542
50
269.9583303
51
269.9916806
0
ARC
8
DEFAULT_255_2_778
10
1.3072307
20
2.7432789
40
0.3929456
50
64.0708929
51
90.9794244
0
ARC
8
DEFAULT_255_2_778
10
1.3554653
20
2.8418129
40
0.2832397
50
359.5187779
51
64.1304201
0
ARC
8
DEFAULT_255_2_778
10
1.3031951
20
2.8410009
40
0.3355037
50
341.1822683
51
359.7324171
0
ARC
8
DEFAULT_255_2_778
10
1.2626717
20
2.8528704
40
0.3776941
50
338.2114163
51
341.4607941
0
ARC
8
DEFAULT_255_2_778
10
1.2434411
20
2.8606818
40
0.3984503
50
333.3348495
51
338.194845
0
ARC
8
DEFAULT_255_2_778
10
1.3432242
20
2.7875123
40
0.2772099
50
334.7647206
51
337.5980549
0
ARC
8
DEFAULT_255_2_778
10
1.1233277
20
2.8897189
40
0.5196966
50
329.8633133
51
334.9077617
0
ARC
8
DEFAULT_255_2_778
10
1.1244085
20
2.8872879
40
0.5175439
50
321.5201259
51
330.035982
0
ARC
8
DEFAULT_255_2_778
10
1.2883781
20
2.7423802
40
0.2992344
50
285.6813169
51
323.7052304
0
ARC
8
DEFAULT_255_2_778
10
1.3200347
20
2.6662431
40
0.2176
50
273.5778515
51
283.0738203
0
ARC
8
DEFAULT_255_2_778
10
1.317326
20
2.5930316
40
0.1440579
50
240.1642869
51
272.0638202
0
ARC
8
DEFAULT_255_2_778
10
1.3112875
20
2.5663054
40
0.118145
50
178.1405348
51
236.2531958
0
ARC
8
DEFAULT_255_2_778
10
1.3656091
20
2.5741391
40
0.1724509
50
180.0002569
51
181.3291259
0
ARC
8
DEFAULT_255_2_778
10
1.3613917
20
2.5759022
40
0.1682427
50
148.0883702
51
180.6007231
0
ARC
8
DEFAULT_255_2_778
10
1.2836637
20
2.6219328
40
0.077956
50
129.7516524
51
146.60788
0
ARC
8
DEFAULT_255_2_778
10
1.2604834
20
2.6511136
40
0.0407068
50
96.2327905
51
130.931793
0
ARC
8
DEFAULT_255_2_778
10
1.2756117
20
2.5571961
40
0.1357978
50
88.859794
51
98.2763327
0
ARC
8
DEFAULT_255_2_778
10
1.2746945
20
2.590696
40
0.1023352
50
64.6864916
51
87.973096
0
ARC
8
DEFAULT_255_2_778
10
0.5356483
20
0.7693433
40
2.0677634
50
67.6568672
51
67.7546114
0
ARC
8
DEFAULT_255_2_778
10
1.3707882
20
2.7841224
40
0.1134215
50
244.3627558
51
268.0424982
0
ARC
8
DEFAULT_255_2_778
10
1.3696723
20
2.7372675
40
0.0665576
50
267.6248046
51
281.959142
0
ARC
8
DEFAULT_255_2_778
10
1.374771
20
2.7059237
40
0.0348701
50
284.4357756
51
316.3784409
0
ARC
8
DEFAULT_255_2_778
10
1.3533431
20
2.7962146
40
0.1235052
50
292.202771
51
315.7139213
0
ARC
8
DEFAULT_255_2_778
10
1.3721959
20
2.7759108
40
0.095842
50
316.5335496
51
325.9771035
0
ARC
8
DEFAULT_255_2_778
10
1.375788
20
2.7733849
40
0.0914515
50
326.0295058
51
355.3376737
0
ARC
8
DEFAULT_255_2_778
10
1.3809311
20
2.7730253
40
0.086296
50
355.2980562
51
359.9555245
0
ARC
8
DEFAULT_255_2_778
10
1.3968356
20
2.7731293
40
0.0703916
50
359.8608116
51
4.8956564
0
ARC
8
DEFAULT_255_2_778
10
1.4329026
20
2.7763472
40
0.0341819
50
4.6808396
51
8.4448758
0
ARC
8
DEFAULT_255_2_778
10
1.32511
20
2.762423
40
0.1428655
50
7.6199093
51
100.117189
0
ARC
8
DEFAULT_255_2_778
10
1.305496
20
2.6013709
40
0.3017461
50
91.0410015
51
103.982129
0
ARC
8
DEFAULT_255_2_778
10
1.34237
20
2.4312634
40
0.4757526
50
103.3414473
51
115.9999817
0
ARC
8
DEFAULT_255_2_778
10
1.2978929
20
2.578603
40
0.3247613
50
120.3465906
51
181.730058
0
ARC
8
DEFAULT_255_2_778
10
1.3448041
20
2.5688146
40
0.3715245
50
180.0025322
51
180.7109352
0
ARC
8
DEFAULT_255_2_778
10
1.3121638
20
2.565235
40
0.3388571
50
180.1741849
51
214.9190156
0
ARC
8
DEFAULT_255_2_778
10
1.3298891
20
2.5746483
40
0.3587877
50
214.531332
51
272.3680971
0
ARC
8
DEFAULT_255_2_778
10
1.3418009
20
2.7698418
40
0.5536824
50
270.3014482
51
285.1579169
0
ARC
8
DEFAULT_255_2_778
10
1.3265014
20
2.8366176
40
0.6221413
50
284.9098754
51
287.7960601
0
ARC
8
DEFAULT_255_2_778
10
1.301811
20
2.9009655
40
0.690967
50
288.1146695
51
313.5001914
0
ARC
8
DEFAULT_255_2_778
10
1.2629699
20
2.9431095
40
0.7482741
50
313.4361902
51
336.4473547
0
ARC
8
DEFAULT_255_2_778
10
1.2032737
20
2.9721242
40
0.8145958
50
336.2543836
51
341.5977232
0
ARC
8
DEFAULT_255_2_778
10
1.5173599
20
2.8709037
40
0.4846269
50
341.2302265
51
355.6637132
0
ARC
8
DEFAULT_255_2_778
10
1.4309765
20
2.8801281
40
0.5714667
50
355.3963686
51
0.0293321
0
ARC
8
DEFAULT_255_2_778
10
1.3569335
20
2.8786799
40
0.6455119
50
0.1545019
51
11.5338292
0
ARC
8
DEFAULT_255_2_778
10
1.3078737
20
2.8702408
40
0.69527
50
11.4068752
51
13.4236052
0
ARC
8
DEFAULT_255_2_778
10
1.2765455
20
2.8619011
40
0.7276788
50
13.4896656
51
45.201754
0
ARC
8
DEFAULT_255_2_778
10
1.3091063
20
2.8921713
40
0.6832589
50
45.3506962
51
72.627758
0
ARC
8
DEFAULT_255_2_778
10
1.28299
20
2.8011938
40
0.7778874
50
72.7926683
51
90.3444243
0
ARC
8
DEFAULT_255_2_778
10
1.285255
20
2.4774803
40
1.1016087
50
90.3610118
51
111.6230369
0
ARC
8
DEFAULT_255_2_778
10
1.2455504
20
2.4845786
40
1.0809231
50
109.80489
51
122.0358414
0
ARC
8
DEFAULT_255_2_778
10
1.184076
20
2.5842331
40
0.9638356
50
122.0803564
51
140.1833715
0
ARC
8
DEFAULT_255_2_778
10
1.3127361
20
2.5015435
40
1.1157674
50
141.1524917
51
173.256851
0
ARC
8
DEFAULT_255_2_778
10
1.6584105
20
2.4356311
40
1.4670007
50
172.2855566
51
180.0744808
0
ARC
8
DEFAULT_255_2_778
10
1.799427
20
2.4345494
40
1.6080162
50
180.0294074
51
185.1679242
0
ARC
8
DEFAULT_255_2_778
10
1.9192632
20
2.445199
40
1.7283247
50
185.1616913
51
213.8757522
0
ARC
8
DEFAULT_255_2_778
10
1.5356779
20
2.1875565
40
1.2662455
50
213.8712682
51
233.5843848
0
ARC
8
DEFAULT_255_2_778
10
1.3075118
20
1.869488
40
0.8748529
50
233.2434923
51
269.5089445
0
ARC
8
DEFAULT_255_2_778
10
1.3261206
20
1.7097506
40
0.7155599
50
267.9091461
51
270.0004112
0
ARC
8
DEFAULT_255_2_778
10
1.3256757
20
1.7258463
40
0.7316557
50
270.0352408
51
280.2058248
0
ARC
8
DEFAULT_255_2_778
10
1.1088509
20
2.5918223
40
1.6234555
50
282.3223112
51
307.547433
0
ARC
8
DEFAULT_255_2_778
10
2.2004405
20
1.3552392
40
0.1079651
50
222.1639865
51
255.5075093
0
ARC
8
DEFAULT_255_2_778
10
2.186666
20
1.3153697
40
0.0660026
50
258.4244242
51
269.9547625
0
ARC
8
DEFAULT_255_2_778
10
2.1840037
20
1.3433698
40
0.0940389
50
271.5905528
51
292.284614
0
ARC
8
DEFAULT_255_2_778
10
2.093316
20
1.5721273
40
0.340112
50
291.8074834
51
297.836708
0
LINE
8
DEFAULT_255_2_778
10
2.2521324
20
1.2713724
11
2.2527139
21
1.2716671
0
ARC
8
DEFAULT_255_2_778
10
2.2996412
20
1.4335594
40
0.090373
50
305.8065236
51
2.9788778
0
ARC
8
DEFAULT_255_2_778
10
2.2488835
20
1.4376952
40
0.1410097
50
0.2278232
51
13.8152365
0
ARC
8
DEFAULT_255_2_778
10
1.3454723
20
2.7074234
40
1.55106
50
311.0418484
51
316.791816
0
ARC
8
DEFAULT_255_2_778
10
8.4702881
20
-4.0008593
40
8.2348525
50
135.7739236
51
136.7120959
0
ARC
8
DEFAULT_255_2_778
10
3.7984281
20
0.5243104
40
1.7308354
50
135.0013467
51
135.2483841
0
ARC
8
DEFAULT_255_2_778
10
2.6518363
20
1.8083173
40
0.0933441
50
241.6518959
51
261.6669722
0
ARC
8
DEFAULT_255_2_778
10
2.6563048
20
1.8872027
40
0.172187
50
264.0006371
51
271.400752
0
ARC
8
DEFAULT_255_2_778
10
2.6635653
20
1.8145132
40
0.0994929
50
268.2425143
51
270.006068
0
ARC
8
DEFAULT_255_2_778
10
2.6634875
20
1.8153753
40
0.1003551
50
270.050413
51
317.9557289
0
ARC
8
DEFAULT_255_2_778
10
2.7037109
20
1.9244084
40
0.1357412
50
325.6756519
51
351.3258948
0
ARC
8
DEFAULT_255_2_778
10
2.7423129
20
1.916671
40
0.0964313
50
352.4116511
51
359.9113941
0
ARC
8
DEFAULT_255_2_778
10
2.7635372
20
1.9176382
40
0.075215
50
359.1495645
51
33.4224223
0
ARC
8
DEFAULT_255_2_778
10
6.2383206
20
-0.6082317
40
4.3282228
50
138.5771642
51
142.7441538
0
ARC
8
DEFAULT_255_2_778
10
3.049848
20
2.2942382
40
0.060914
50
235.1203005
51
276.3333072
0
ARC
8
DEFAULT_255_2_778
10
3.0624154
20
2.7592392
40
0.525576
50
269.3624748
51
270.0646949
0
ARC
8
DEFAULT_255_2_778
10
3.0624034
20
4.747167
40
2.5135033
50
270.0138017
51
270.0699449
0
ARC
8
DEFAULT_255_2_778
10
3.068538
20
-0.2696117
40
2.503279
50
90.0142846
51
90.0701802
0
ARC
8
DEFAULT_255_2_778
10
3.0723372
20
2.3100535
40
0.0765143
50
266.6858911
51
314.9526686
0
ARC
8
DEFAULT_255_2_778
10
3.0065376
20
2.3779986
40
0.1710933
50
314.4707774
51
324.2622819
0
ARC
8
DEFAULT_255_2_778
10
3.1095788
20
2.4550946
40
0.1373974
50
325.6492773
51
351.1189472
0
ARC
8
DEFAULT_255_2_778
10
3.1496776
20
2.4469312
40
0.0965373
50
352.2317878
51
359.906819
0
ARC
8
DEFAULT_255_2_778
10
3.1711178
20
2.4478737
40
0.0751051
50
359.1611982
51
32.9892911
0
ARC
8
DEFAULT_255_2_778
10
4.4349796
20
1.5213841
40
1.5873231
50
133.6357428
51
140.4006912
0
ARC
8
DEFAULT_255_2_778
10
3.6612882
20
2.344185
40
0.4579928
50
117.5349247
51
134.616418
0
ARC
8
DEFAULT_255_2_778
10
3.5152143
20
2.6211938
40
0.1448399
50
91.7409487
51
116.9534744
0
ARC
8
DEFAULT_255_2_778
10
3.502208
20
2.657215
40
0.1090921
50
25.2692404
51
85.4754049
0
ARC
8
DEFAULT_255_2_778
10
3.2755699
20
2.4948034
40
0.3866358
50
27.5268902
51
32.7182831
0
ARC
8
DEFAULT_255_2_778
10
3.1445779
20
2.4243292
40
0.5353729
50
26.901989
51
27.7362527
0
ARC
8
DEFAULT_255_2_778
10
2.9899239
20
2.3491059
40
0.7073326
50
26.509774
51
26.6676572
0
ARC
8
DEFAULT_255_2_778
10
5.3431333
20
3.4510576
40
1.8914049
50
204.5626207
51
208.7395976
0
ARC
8
DEFAULT_255_2_778
10
4.3549439
20
2.9283784
40
0.7738106
50
209.9879398
51
213.625868
0
ARC
8
DEFAULT_255_2_778
10
3.7547075
20
2.41118
40
0.0956239
50
125.2534212
51
179.1928514
0
ARC
8
DEFAULT_255_2_778
10
3.7502771
20
2.412543
40
0.091184
50
180.0100201
51
186.1089595
0
ARC
8
DEFAULT_255_2_778
10
3.759304
20
2.4143109
40
0.1003509
50
186.5641398
51
215.4086531
0
ARC
8
DEFAULT_255_2_778
10
3.8271766
20
2.3007926
40
0.1003561
50
213.7298498
51
270.0068268
0
ARC
8
DEFAULT_255_2_778
10
3.8271846
20
2.3012288
40
0.1007923
50
270.0022468
51
272.9170573
0
ARC
8
DEFAULT_255_2_778
10
4.0761974
20
1.8790164
40
0.0957277
50
125.2754327
51
179.2307826
0
ARC
8
DEFAULT_255_2_778
10
4.0720981
20
1.8803172
40
0.0916197
50
180.009754
51
186.2352661
0
ARC
8
DEFAULT_255_2_778
10
4.0810894
20
1.8820777
40
0.1007519
50
186.675183
51
215.1540504
0
ARC
8
DEFAULT_255_2_778
10
4.1489929
20
1.7689408
40
0.1005908
50
213.8106285
51
269.9824922
0
ARC
8
DEFAULT_255_2_778
10
4.1489634
20
1.7687791
40
0.1004291
50
269.9993019
51
272.7683438
0
ARC
8
DEFAULT_255_2_778
10
6.6295948
20
3.1255607
40
2.8197644
50
210.8627877
51
216.5514181
0
ARC
8
DEFAULT_255_2_778
10
4.4277998
20
1.3600436
40
0.1057908
50
134.7558255
51
179.4006166
0
ARC
8
DEFAULT_255_2_778
10
4.4184117
20
1.361128
40
0.0963969
50
179.9867378
51
187.3839924
0
ARC
8
DEFAULT_255_2_778
10
4.4203988
20
1.3617655
40
0.0984501
50
187.6033108
51
217.3283861
0
ARC
8
DEFAULT_255_2_778
10
4.5096879
20
1.2698616
40
0.112356
50
216.7940173
51
263.7796881
0
ARC
8
DEFAULT_255_2_778
10
11.1419969
20
5.7770602
40
8.0410555
50
214.9672406
51
219.8348988
0
ARC
8
DEFAULT_255_2_778
10
9.0269335
20
4.0233655
40
5.2935408
50
219.9237764
51
223.8548275
0
ARC
8
DEFAULT_255_2_778
10
8.2592094
20
3.2986209
40
4.2378196
50
223.9804757
51
224.6541559
0
ARC
8
DEFAULT_255_2_778
10
7.6143697
20
2.6466569
40
3.3209048
50
224.4717471
51
229.8287863
0
ARC
8
DEFAULT_255_2_778
10
6.8203857
20
1.703344
40
2.0879228
50
229.7791907
51
236.7512706
0
ARC
8
DEFAULT_255_2_778
10
6.3700827
20
1.0123891
40
1.2631908
50
236.6494253
51
246.447358
0
ARC
8
DEFAULT_255_2_778
10
6.160758
20
0.5235025
40
0.7313955
50
246.1756549
51
262.3243851
0
ARC
8
DEFAULT_255_2_778
10
6.1267487
20
0.3174827
40
0.5227159
50
263.0026384
51
269.9194621
0
ARC
8
DEFAULT_255_2_778
10
6.1306184
20
0.3285391
40
0.5340521
50
271.8558723
51
295.9972674
0
ARC
8
DEFAULT_255_2_778
10
6.0764915
20
0.4026629
40
0.6246101
50
297.4797531
51
330.6235627
0
ARC
8
DEFAULT_255_2_778
10
5.6896647
20
0.6377989
40
1.0771484
50
329.8179364
51
346.3780084
0
ARC
8
DEFAULT_255_2_778
10
5.2887393
20
0.7447811
40
1.4920226
50
346.0113159
51
357.1165661
0
ARC
8
DEFAULT_255_2_778
10
5.1815709
20
0.754034
40
1.5995253
50
356.978651
51
0.000025
0
ARC
8
DEFAULT_255_2_778
10
5.2979951
20
0.7587477
40
1.4831087
50
359.8179257
51
12.0011511
0
ARC
8
DEFAULT_255_2_778
10
5.7206676
20
0.8499321
40
1.050715
50
11.9300144
51
23.3876759
0
ARC
8
DEFAULT_255_2_778
10
6.0948418
20
1.0144957
40
0.6419643
50
23.1632591
51
38.8339128
0
ARC
8
DEFAULT_255_2_778
10
6.3215829
20
1.2040983
40
0.3464914
50
37.922293
51
71.4409161
0
ARC
8
DEFAULT_255_2_778
10
6.3480737
20
1.2601958
40
0.2849721
50
72.9004151
51
90.1326568
0
ARC
8
DEFAULT_255_2_778
10
6.3410072
20
0.729211
40
0.8159813
50
89.5501326
51
92.2382736
0
ARC
8
DEFAULT_255_2_778
10
6.3163785
20
1.3042054
40
0.2404733
50
91.7252075
51
106.5910749
0
ARC
8
DEFAULT_255_2_778
10
6.3744116
20
1.0963851
40
0.4562274
50
106.1234158
51
124.521609
0
ARC
8
DEFAULT_255_2_778
10
6.3776799
20
1.0994032
40
0.4556141
50
125.0753416
51
150.1931485
0
ARC
8
DEFAULT_255_2_778
10
6.4737817
20
1.0394876
40
0.5688006
50
149.7681572
51
157.3696386
0
ARC
8
DEFAULT_255_2_778
10
6.6031034
20
0.9882035
40
0.7079029
50
157.5659483
51
169.2671391
0
ARC
8
DEFAULT_255_2_778
10
6.7163772
20
0.9638693
40
0.8237316
50
169.0714412
51
175.1738304
0
ARC
8
DEFAULT_255_2_778
10
6.6489283
20
0.9688068
40
0.7561069
50
175.1166435
51
178.8435199
0
ARC
8
DEFAULT_255_2_778
10
6.4861514
20
0.9727464
40
0.5932841
50
178.9066244
51
179.9839837
0
ARC
8
DEFAULT_255_2_778
10
6.3778502
20
0.9728034
40
0.484983
50
179.987138
51
180.7230008
0
ARC
8
DEFAULT_255_2_778
10
6.2729526
20
0.9714696
40
0.380077
50
180.7214955
51
181.4090802
0
ARC
8
DEFAULT_255_2_778
10
6.1309897
20
0.9679238
40
0.2380698
50
181.3961258
51
182.0708299
0
ARC
8
DEFAULT_255_2_778
10
5.9915075
20
0.962826
40
0.0984945
50
182.0392679
51
182.5947031
0
ARC
8
DEFAULT_255_2_778
10
6.5414395
20
0.4954297
40
0.7966411
50
143.4853271
51
144.4712341
0
ARC
8
DEFAULT_255_2_778
10
7.1350176
20
0.0576716
40
1.5341817
50
141.9006057
51
143.536411
0
ARC
8
DEFAULT_255_2_778
10
7.1529265
20
0.0460739
40
1.5554322
50
138.6469094
51
141.9714585
0
ARC
8
DEFAULT_255_2_778
10
6.9348716
20
0.2358473
40
1.2663671
50
137.5046211
51
138.5738651
0
ARC
8
DEFAULT_255_2_778
10
6.6155457
20
0.5370298
40
0.8274842
50
130.1627507
51
137.9447897
0
ARC
8
DEFAULT_255_2_778
10
6.2932377
20
0.9219355
40
0.3254629
50
117.2405116
51
130.5036412
0
ARC
8
DEFAULT_255_2_778
10
6.1967609
20
1.1123355
40
0.112028
50
92.3773206
51
117.9433933
0
ARC
8
DEFAULT_255_2_778
10
6.1907299
20
1.142607
40
0.0816718
50
21.3791846
51
89.0290143
0
ARC
8
DEFAULT_255_2_778
10
6.0195896
20
1.055001
40
0.2736452
50
8.0152507
51
25.4005902
0
ARC
8
DEFAULT_255_2_778
10
5.5808852
20
0.9831231
40
0.7181561
50
0.3682169
51
8.8134261
0
ARC
8
DEFAULT_255_2_778
10
5.1661448
20
0.9698378
40
1.1330232
50
359.9908402
51
0.9052539
0
ARC
8
DEFAULT_255_2_778
10
4.7984603
20
0.9729747
40
1.5007114
50
356.5695207
51
359.8733185
0
ARC
8
DEFAULT_255_2_778
10
4.0369199
20
1.0173226
40
2.2635413
50
354.1162894
51
356.6024309
0
ARC
8
DEFAULT_255_2_778
10
3.0563464
20
1.1172565
40
3.2491934
50
352.2027036
51
354.1358794
0
ARC
8
DEFAULT_255_2_778
10
2.259776
20
1.222957
40
4.0527406
50
351.6849753
51
352.2500155
0
ARC
8
DEFAULT_255_2_778
10
5.7734664
20
0.693326
40
0.4996476
50
336.7947347
51
353.5118722
0
ARC
8
DEFAULT_255_2_778
10
6.0655879
20
0.5607919
40
0.1790627
50
298.6377875
51
338.9417479
0
ARC
8
DEFAULT_255_2_778
10
6.1039338
20
0.5039381
40
0.1109712
50
269.8864895
51
295.328173
0
ARC
8
DEFAULT_255_2_778
10
6.1093421
20
0.5851734
40
0.1922887
50
244.3420918
51
268.3227636
0
ARC
8
DEFAULT_255_2_778
10
6.2069691
20
0.8021907
40
0.4302207
50
233.380299
51
245.1368197
0
ARC
8
DEFAULT_255_2_778
10
6.4565216
20
1.1441781
40
0.8535703
50
226.3290765
51
233.6287847
0
ARC
8
DEFAULT_255_2_778
10
6.9233109
20
1.6374347
40
1.5326795
50
221.423445
51
226.4398927
0
ARC
8
DEFAULT_255_2_778
10
7.673385
20
2.302455
40
2.5351063
50
217.75334
51
221.4775972
0
ARC
8
DEFAULT_255_2_778
10
8.7480787
20
3.1375163
40
3.896095
50
214.8940033
51
217.7864126
0
ARC
8
DEFAULT_255_2_778
10
9.918053
20
3.9593346
40
5.3258533
50
213.1793893
51
214.9453138
0
ARC
8
DEFAULT_255_2_778
10
11.065593
20
4.7097976
40
6.6969998
50
211.4642026
51
213.1802721
0
ARC
8
DEFAULT_255_2_778
10
12.7013848
20
5.7031408
40
8.6107689
50
208.3792322
51
211.4206928
0
ARC
8
DEFAULT_255_2_778
10
13.2538366
20
6.0122021
40
9.2437307
50
206.0058301
51
208.4370959
0
ARC
8
DEFAULT_255_2_778
10
11.9777063
20
5.3898381
40
7.8239258
50
204.3702882
51
206.0071928
0
ARC
8
DEFAULT_255_2_778
10
10.2601642
20
4.6137018
40
5.939162
50
202.5248344
51
204.3869996
0
ARC
8
DEFAULT_255_2_778
10
8.475277
20
3.8747882
40
4.0073718
50
200.364565
51
202.5422327
0
ARC
8
DEFAULT_255_2_778
10
6.971363
20
3.3183869
40
2.4038337
50
197.4952985
51
200.4056976
0
ARC
8
DEFAULT_255_2_778
10
5.8510066
20
2.9675881
40
1.2298456
50
193.1372417
51
197.5995913
0
ARC
8
DEFAULT_255_2_778
10
5.139334
20
2.8041541
40
0.4996593
50
185.4078036
51
193.4348485
0
ARC
8
DEFAULT_255_2_778
10
4.8693653
20
2.7759871
40
0.2282524
50
180.1807367
51
184.755462
0
ARC
8
DEFAULT_255_2_778
10
4.6847313
20
2.7770132
40
0.0436523
50
77.7222867
51
182.292487
0
ARC
8
DEFAULT_255_2_778
10
4.671954
20
2.4823103
40
0.3380773
50
68.5615543
51
86.2587312
0
ARC
8
DEFAULT_255_2_778
10
1.3571083
20
-7.2265352
40
10.5968802
50
70.5688481
51
71.0662817
0
ARC
8
DEFAULT_255_2_778
10
4.9558171
20
2.666082
40
0.0984455
50
166.1984447
51
180.1888169
0
ARC
8
DEFAULT_255_2_778
10
4.9671236
20
2.6658018
40
0.1097516
50
180.0230785
51
185.3033259
0
ARC
8
DEFAULT_255_2_778
10
4.9690719
20
2.6643926
40
0.1115725
50
184.4902629
51
239.8981688
0
ARC
8
DEFAULT_255_2_778
10
5.0310619
20
2.4847278
40
0.0388211
50
58.4686939
51
84.4537357
0
ARC
8
DEFAULT_255_2_778
10
5.071666
20
2.5509064
40
0.0388211
50
238.4686939
51
264.4537357
0
ARC
8
DEFAULT_255_2_778
10
5.064213
20
2.6208343
40
0.1086302
50
271.9524075
51
296.9867779
0
ARC
8
DEFAULT_255_2_778
10
5.0520451
20
2.650803
40
0.1408844
50
295.865698
51
311.6717746
0
ARC
8
DEFAULT_255_2_778
10
5.7771007
20
3.5443434
40
1.0974268
50
238.1882414
51
242.7121094
0
ARC
8
DEFAULT_255_2_778
10
7.6668292
20
7.1877257
40
5.2017284
50
242.6121274
51
243.7186554
0
ARC
8
DEFAULT_255_2_778
10
2.0115265
20
-4.1933945
40
7.5070493
50
63.2792592
51
63.4790504
0
ARC
8
DEFAULT_255_2_778
10
5.4599153
20
2.4000943
40
0.0979793
50
166.0786284
51
180.1911665
0
ARC
8
DEFAULT_255_2_778
10
5.4712266
20
2.3998113
40
0.1092901
50
180.0230361
51
185.2781565
0
ARC
8
DEFAULT_255_2_778
10
5.4736349
20
2.3985222
40
0.1115797
50
184.5052509
51
239.9222583
0
ARC
8
DEFAULT_255_2_778
10
5.5370058
20
2.2245253
40
0.0330298
50
59.8907246
51
85.8188942
0
ARC
8
DEFAULT_255_2_778
10
5.4073583
20
1.9590953
40
0.3283552
50
63.0982623
51
63.5574073
0
ARC
8
DEFAULT_255_2_778
10
5.5761801
20
2.2848875
40
0.0386944
50
238.4375818
51
264.5632077
0
ARC
8
DEFAULT_255_2_778
10
5.5672515
20
2.3654478
40
0.119197
50
272.5303928
51
313.9740576
0
ARC
8
DEFAULT_255_2_778
10
2.3968173
20
-3.8177016
40
6.9826435
50
59.3610057
51
61.7399939
0
ARC
8
DEFAULT_255_2_778
10
4.9595166
20
0.5891048
40
1.8854702
50
58.0340222
51
58.1182419
0
ARC
8
DEFAULT_255_2_778
10
6.0300664
20
2.0878092
40
0.0973949
50
166.1236843
51
180.2031045
0
ARC
8
DEFAULT_255_2_778
10
6.0425137
20
2.0875259
40
0.1098417
50
180.0323011
51
185.9221148
0
ARC
8
DEFAULT_255_2_778
10
6.044534
20
2.0860599
40
0.1117123
50
185.0672751
51
239.8435417
0
ARC
8
DEFAULT_255_2_778
10
6.106474
20
1.9047817
40
0.0403499
50
59.9754126
51
84.8243383
0
ARC
8
DEFAULT_255_2_778
10
6.1468539
20
1.9746525
40
0.0403499
50
239.9754126
51
264.8243383
0
ARC
8
DEFAULT_255_2_778
10
6.1399891
20
2.043857
40
0.1094374
50
271.6885915
51
296.4929218
0
ARC
8
DEFAULT_255_2_778
10
6.1306682
20
2.0676145
40
0.134877
50
295.5346052
51
312.0544862
0
ARC
8
DEFAULT_255_2_778
10
5.1939444
20
-0.1027855
40
2.3705659
50
59.5097084
51
63.1367648
0
ARC
8
DEFAULT_255_2_778
10
14.7073898
20
16.0488265
40
16.3745724
50
239.5003464
51
240.0004457
0
ARC
8
DEFAULT_255_2_778
10
6.5936176
20
1.7667818
40
0.0984461
50
166.1984463
51
180.1890386
0
ARC
8
DEFAULT_255_2_778
10
6.605068
20
1.7665081
40
0.109896
50
180.0266409
51
185.3414678
0
ARC
8
DEFAULT_255_2_778
10
6.6071406
20
1.7651503
40
0.111844
50
184.5500232
51
239.819597
0
ARC
8
DEFAULT_255_2_778
10
6.6688619
20
1.5854278
40
0.0388211
50
58.4686939
51
84.4537357
0
ARC
8
DEFAULT_255_2_778
10
6.709466
20
1.6516064
40
0.0388211
50
238.4686939
51
264.4537357
0
ARC
8
DEFAULT_255_2_778
10
6.6977361
20
1.7397013
40
0.1269851
50
273.6019832
51
312.4926416
0
ARC
8
DEFAULT_255_2_778
10
20.0668984
20
26.4723048
40
28.0965857
50
241.8873801
51
242.6658613
0
ARC
8
DEFAULT_255_2_778
10
14.1248686
20
14.9361188
40
15.120043
50
242.5953469
51
244.7010215
0
ARC
8
DEFAULT_255_2_778
10
11.8395029
20
10.1436618
40
9.8106144
50
244.8070781
51
245.8461431
0
ARC
8
DEFAULT_255_2_778
10
9.5694057
20
5.1110824
40
4.2897573
50
246.0074528
51
247.7053753
0
ARC
8
DEFAULT_255_2_778
10
9.363022
20
4.5766028
40
3.7169556
50
247.5233328
51
256.2250151
0
ARC
8
DEFAULT_255_2_778
10
9.1047872
20
3.5121929
40
2.621673
50
256.1673509
51
265.7198701
0
ARC
8
DEFAULT_255_2_778
10
9.0459269
20
2.8591518
40
1.9660855
50
266.010061
51
269.9471653
0
ARC
8
DEFAULT_255_2_778
10
9.0625494
20
2.2615941
40
1.3686512
50
269.2282128
51
285.8803612
0
ARC
8
DEFAULT_255_2_778
10
9.2524932
20
1.6547605
40
0.7331922
50
284.5793563
51
339.4366115
0
ARC
8
DEFAULT_255_2_778
10
9.042526
20
1.735304
40
0.9580731
50
339.3372186
51
349.9897199
0
ARC
8
DEFAULT_255_2_778
10
10.1210658
20
1.5714703
40
0.1350789
50
171.7011474
51
181.1466847
0
ARC
8
DEFAULT_255_2_778
10
10.027789
20
1.586522
40
0.0406314
50
139.0216141
51
173.7192376
0
ARC
8
DEFAULT_255_2_778
10
10.0090161
20
1.7499605
40
0.1297298
50
284.5073451
51
334.8754694
0
ARC
8
DEFAULT_255_2_778
10
10.0771528
20
1.7136354
40
0.0527652
50
339.1777239
51
359.2743364
0
ARC
8
DEFAULT_255_2_778
10
10.0768127
20
1.8476267
40
0.0731983
50
331.2928022
51
357.7488523
0
ARC
8
DEFAULT_255_2_778
10
10.0995587
20
1.8403765
40
0.0505853
50
4.9615549
51
80.4928386
0
ARC
8
DEFAULT_255_2_778
10
8.7665304
20
1.8719666
40
1.2754148
50
0.8221454
51
13.6436331
0
ARC
8
DEFAULT_255_2_778
10
1.205952
20
0.2483415
40
9.0079769
50
12.3358076
51
12.5787644
0
LINE
8
DEFAULT_255_2_778
10
9.9977153
20
2.2101124
11
9.9974139
21
2.2114671
0
ARC
8
DEFAULT_255_2_778
10
9.9227543
20
2.3373401
40
0.1352521
50
322.9595576
51
339.8918759
0
ARC
8
DEFAULT_255_2_778
10
9.9370008
20
2.332728
40
0.1202897
50
339.6218382
51
359.5127357
0
ARC
8
DEFAULT_255_2_778
10
9.9930538
20
2.3355766
40
0.0643488
50
356.5507413
51
40.7338745
0
ARC
8
DEFAULT_255_2_778
10
9.9342158
20
2.3679225
40
0.1031428
50
57.9732944
51
84.1581733
0
ARC
8
DEFAULT_255_2_778
10
9.8675332
20
2.0383599
40
0.4390074
50
79.8743555
51
90.0416691
0
ARC
8
DEFAULT_255_2_778
10
9.1861714
20
1.9711892
40
0.8396661
50
37.0730235
51
58.6105156
0
ARC
8
DEFAULT_255_2_778
10
9.4624248
20
2.7525364
40
0.1434083
50
14.0976549
51
14.4239952
0
ARC
8
DEFAULT_255_2_778
10
9.4690669
20
2.759022
40
0.1354391
50
12.4663684
51
71.1107417
0
ARC
8
DEFAULT_255_2_778
10
9.4264363
20
2.82023
40
0.0786565
50
99.6775185
51
129.0844225
0
ARC
8
DEFAULT_255_2_778
10
9.547191
20
2.6362813
40
0.2984024
50
124.8099572
51
131.6620424
0
ARC
8
DEFAULT_255_2_778
10
9.5843116
20
2.5911147
40
0.3568279
50
131.2940343
51
142.291355
0
ARC
8
DEFAULT_255_2_778
10
9.0704382
20
1.6118411
40
1.2197114
50
79.0553228
51
89.0005249
0
ARC
8
DEFAULT_255_2_778
10
9.0773568
20
1.9192429
40
0.9122372
50
89.0982176
51
119.720526
0
ARC
8
DEFAULT_255_2_778
10
8.8908901
20
2.2367901
40
0.544036
50
119.2458143
51
174.5493547
0
ARC
8
DEFAULT_255_2_778
10
9.3953596
20
2.2061976
40
1.0492759
50
175.5030545
51
179.6158673
0
ARC
8
DEFAULT_255_2_778
10
8.7742272
20
2.2026373
40
0.4282508
50
178.5823447
51
206.0001067
0
ARC
8
DEFAULT_255_2_778
10
8.8097075
20
2.2312365
40
0.4727864
50
207.2303968
51
225.8486512
0
ARC
8
DEFAULT_255_2_778
10
9.0179138
20
2.4406092
40
0.7680471
50
225.5839172
51
236.3739023
0
ARC
8
DEFAULT_255_2_778
10
9.1904569
20
2.6863865
40
1.0682746
50
235.9680535
51
238.5607813
0
ARC
8
DEFAULT_255_2_778
10
9.264255
20
2.80621
40
1.2089999
50
238.5387491
51
239.9922713
0
ARC
8
DEFAULT_255_2_778
10
8.9351945
20
2.2084267
40
0.526962
50
238.4689273
51
269.9791946
0
ARC
8
DEFAULT_255_2_778
10
8.9350031
20
2.2220277
40
0.540563
50
270.0000022
51
270.1707367
0
ARC
8
DEFAULT_255_2_778
10
8.9446915
20
2.2507905
40
0.5693807
50
269.1871428
51
301.9769427
0
ARC
8
DEFAULT_255_2_778
10
9.0983717
20
2.0203114
40
0.2926064
50
300.3506391
51
358.3717133
0
ARC
8
DEFAULT_255_2_778
10
9.0951059
20
2.0111226
40
0.2957553
50
0.1693807
51
12.7055486
0
ARC
8
DEFAULT_255_2_778
10
9.056824
20
2.0035651
40
0.3347638
50
12.5263056
51
15.240899
0
ARC
8
DEFAULT_255_2_778
10
9.0325655
20
2.0189284
40
0.3547645
50
11.814973
51
40.6419983
0
ARC
8
DEFAULT_255_2_778
10
9.0799094
20
2.0433876
40
0.3031579
50
42.9629621
51
91.9650977
0
ARC
8
DEFAULT_255_2_778
10
9.0682357
20
1.9759449
40
0.3704244
50
89.8022949
51
89.9905814
0
ARC
8
DEFAULT_255_2_778
10
9.0681181
20
1.9996248
40
0.3467445
50
89.9705016
51
131.8860157
0
ARC
8
DEFAULT_255_2_778
10
9.0117111
20
2.1350829
40
0.2138
50
144.9824737
51
159.129822
0
ARC
8
DEFAULT_255_2_778
10
8.9929028
20
2.1420979
40
0.1937266
50
159.0867114
51
179.8401918
0
ARC
8
DEFAULT_255_2_778
10
8.9469716
20
2.1375822
40
0.147881
50
178.0406847
51
223.5956954
0
ARC
8
DEFAULT_255_2_778
10
8.8911496
20
2.0868156
40
0.072467
50
224.9609109
51
268.7066863
0
ARC
8
DEFAULT_255_2_778
10
8.8939156
20
2.0795922
40
0.0653734
50
266.1392634
51
303.822709
0
ARC
8
DEFAULT_255_2_778
10
8.9070591
20
2.0553276
40
0.0379876
50
307.7278416
51
347.9808913
0
ARC
8
DEFAULT_255_2_778
10
8.8903802
20
2.059596
40
0.0551942
50
347.25247
51
0.3173166
0
ARC
8
DEFAULT_255_2_778
10
8.8723814
20
2.0595909
40
0.0731927
50
0.2433005
51
11.7374518
0
ARC
8
DEFAULT_255_2_778
10
8.8874814
20
2.0632207
40
0.0576721
50
11.2584139
51
17.3725244
0
ARC
8
DEFAULT_255_2_778
10
9.0461956
20
2.1429805
40
0.1210694
50
192.6654596
51
211.0872572
0
ARC
8
DEFAULT_255_2_778
10
8.9950868
20
2.1301829
40
0.0684104
50
180.281409
51
191.5932175
0
ARC
8
DEFAULT_255_2_778
10
8.9927705
20
2.1222828
40
0.0665247
50
88.3122507
51
173.4712024
0
ARC
8
DEFAULT_255_2_778
10
9.0296653
20
1.9715594
40
0.2200107
50
89.7008721
51
99.1366609
0
ARC
8
DEFAULT_255_2_778
10
9.0308027
20
1.9925673
40
0.1989998
50
82.3429482
51
89.9967618
0
ARC
8
DEFAULT_255_2_778
10
9.0538893
20
2.0687111
40
0.1211301
50
0.5468146
51
88.3779311
0
ARC
8
DEFAULT_255_2_778
10
9.0405162
20
2.057506
40
0.1350646
50
0.0378808
51
5.251048
0
ARC
8
DEFAULT_255_2_778
10
9.0179632
20
2.0723152
40
0.1583032
50
287.5990713
51
354.6646386
0
ARC
8
DEFAULT_255_2_778
10
8.8942921
20
2.3040325
40
0.4193036
50
284.4164879
51
294.1479677
0
ARC
8
DEFAULT_255_2_778
10
8.8902193
20
2.3136792
40
0.4296633
50
281.4501384
51
284.6222254
0
ARC
8
DEFAULT_255_2_778
10
8.959275
20
2.3268061
40
0.4342693
50
254.7938861
51
270.6780288
0
ARC
8
DEFAULT_255_2_778
10
8.9158193
20
2.170989
40
0.2725116
50
228.24493
51
255.0177375
0
ARC
8
DEFAULT_255_2_778
10
8.9091307
20
2.1553196
40
0.256426
50
191.1477229
51
227.0281369
0
ARC
8
DEFAULT_255_2_778
10
8.9635051
20
2.170219
40
0.312682
50
179.9582619
51
191.9000404
0
ARC
8
DEFAULT_255_2_778
10
8.9369659
20
2.1722385
40
0.2861484
50
163.5969027
51
180.3587645
0
ARC
8
DEFAULT_255_2_778
10
8.8061988
20
2.212624
40
0.1493101
50
144.4837728
51
164.2930276
0
ARC
8
DEFAULT_255_2_778
10
8.7491932
20
2.2501099
40
0.0811755
50
139.5575677
51
142.6449345
0
ARC
8
DEFAULT_255_2_778
10
9.0768756
20
2.0376745
40
0.4711204
50
121.64684
51
145.7582858
0
ARC
8
DEFAULT_255_2_778
10
9.0569374
20
2.066079
40
0.4364834
50
107.1162554
51
121.3751147
0
ARC
8
DEFAULT_255_2_778
10
9.0539423
20
2.0770675
40
0.4251002
50
90.1116503
51
107.1663413
0
ARC
8
DEFAULT_255_2_778
10
9.0461403
20
2.0090171
40
0.4931993
50
14.0910525
51
89.1898329
0
ARC
8
DEFAULT_255_2_778
10
9.0446099
20
2.0117833
40
0.4940196
50
359.9207631
51
13.7366726
0
ARC
8
DEFAULT_255_2_778
10
8.9930917
20
2.0124753
40
0.5455391
50
346.5676362
51
359.8555696
0
ARC
8
DEFAULT_255_2_778
10
8.8985017
20
2.0349113
40
0.6427535
50
336.1559723
51
346.5810688
0
ARC
8
DEFAULT_255_2_778
10
8.8227559
20
2.0662863
40
0.7247202
50
334.0331763
51
336.3080055
0
ARC
8
DEFAULT_255_2_778
10
9.0869367
20
1.9007264
40
0.4160432
50
289.7137272
51
338.6066875
0
ARC
8
DEFAULT_255_2_778
10
9.0615265
20
2.023028
40
0.5400264
50
269.1074065
51
287.8743131
0
ARC
8
DEFAULT_255_2_778
10
9.0624943
20
2.4244822
40
0.9414618
50
258.0176568
51
269.4291177
0
ARC
8
DEFAULT_255_2_778
10
9.1961329
20
3.0792568
40
1.6097231
50
250.3135586
51
258.2031394
0
ARC
8
DEFAULT_255_2_778
10
9.4889944
20
3.9160653
40
2.4962848
50
245.2452863
51
250.4548035
0
ARC
8
DEFAULT_255_2_778
10
20.6574237
20
30.0624412
40
30.9271539
50
246.3529405
51
246.7390996
0
ARC
8
DEFAULT_255_2_778
10
17.7459162
20
23.4219646
40
23.6764444
50
245.6163046
51
246.3614908
0
ARC
8
DEFAULT_255_2_778
10
15.394947
20
18.2419965
40
17.9879371
50
244.4722002
51
245.6250328
0
ARC
8
DEFAULT_255_2_778
10
12.5093645
20
12.2742724
40
11.3593109
50
240.7844678
51
244.6340944
0
ARC
8
DEFAULT_255_2_778
10
10.164729
20
8.0533023
40
6.5308979
50
237.3167404
51
240.6628218
0
ARC
8
DEFAULT_255_2_778
10
8.9207331
20
6.1144252
40
4.2272552
50
233.391978
51
237.3174104
0
ARC
8
DEFAULT_255_2_778
10
8.0751326
20
4.9743956
40
2.8078516
50
229.1650584
51
233.3705559
0
ARC
8
DEFAULT_255_2_778
10
7.5388037
20
4.3512851
40
1.9857132
50
225.2302935
51
229.1172668
0
ARC
8
DEFAULT_255_2_778
10
7.1669605
20
3.9770195
40
1.458132
50
220.5511936
51
225.24631
0
ARC
8
DEFAULT_255_2_778
10
6.8556557
20
3.7117515
40
1.0491371
50
214.354457
51
220.5965429
0
ARC
8
DEFAULT_255_2_778
10
6.6468471
20
3.5672139
40
0.79519
50
209.6554651
51
214.2469674
0
ARC
8
DEFAULT_255_2_778
10
6.6228482
20
2.9462359
40
0.084941
50
180.7209654
51
247.8436567
0
ARC
8
DEFAULT_255_2_778
10
6.7387031
20
2.9034583
40
0.0844544
50
251.9348534
51
270.2532873
0
ARC
8
DEFAULT_255_2_778
10
6.7390565
20
2.9115868
40
0.0925822
50
270.0123128
51
275.4492034
0
ARC
8
DEFAULT_255_2_778
10
6.740906
20
2.9061193
40
0.0869738
50
274.5783513
51
325.1878735
0
ARC
8
DEFAULT_255_2_778
10
7.3328204
20
5.0627766
40
2.1924292
50
257.4577577
51
265.1593822
0
ARC
8
DEFAULT_255_2_778
10
7.2568636
20
2.8065095
40
0.0809613
50
200.2653019
51
271.2387761
0
ARC
8
DEFAULT_255_2_778
10
7.3780453
20
2.8306711
40
0.0955863
50
278.2213751
51
342.7132108
0
ARC
8
DEFAULT_255_2_778
10
7.1804955
20
6.186484
40
3.3310463
50
275.1657527
51
278.456404
0
ARC
8
DEFAULT_255_2_778
10
7.4757845
20
4.1589162
40
1.2821122
50
278.7285198
51
285.2358227
0
ARC
8
DEFAULT_255_2_778
10
7.960244
20
2.9236628
40
0.1057923
50
228.5506447
51
269.992402
0
ARC
8
DEFAULT_255_2_778
10
7.9602283
20
2.9234919
40
0.1056213
50
270.0009018
51
274.1097744
0
ARC
8
DEFAULT_255_2_778
10
7.9602043
20
2.9236913
40
0.105822
50
274.1149855
51
286.1922291
0
ARC
8
DEFAULT_255_2_778
10
8.0826169
20
2.9444144
40
0.0751811
50
292.5218755
51
0.849276
0
ARC
8
DEFAULT_255_2_778
10
8.0776152
20
2.9464763
40
0.0801799
50
359.3228511
51
359.9998806
0
ARC
8
DEFAULT_255_2_778
10
8.0835562
20
2.94663
40
0.0742393
50
359.8812139
51
13.2669983
0
ARC
8
DEFAULT_255_2_778
10
7.8040938
20
3.8350905
40
0.8537181
50
293.514702
51
301.8487409
0
ARC
8
DEFAULT_255_2_778
10
7.2324775
20
4.7467099
40
1.9297227
50
301.9827678
51
305.9917011
0
ARC
8
DEFAULT_255_2_778
10
7.086659
20
5.1242336
40
2.3231943
50
303.4289916
51
307.6629582
0
ARC
8
DEFAULT_255_2_778
10
7.454731
20
4.649214
40
1.7222627
50
307.6254187
51
313.1161761
0
ARC
8
DEFAULT_255_2_778
10
7.7815921
20
4.3017395
40
1.2452144
50
313.0652522
51
320.2948911
0
ARC
8
DEFAULT_255_2_778
10
8.0540431
20
4.0766858
40
0.8918342
50
320.236536
51
329.8194626
0
ARC
8
DEFAULT_255_2_778
10
8.2629644
20
3.9561608
40
0.6506425
50
329.7452397
51
343.2446388
0
ARC
8
DEFAULT_255_2_778
10
8.3799925
20
3.9198814
40
0.5281252
50
343.3533008
51
359.8870902
0
ARC
8
DEFAULT_255_2_778
10
8.2523588
20
3.8937405
40
0.6562381
50
2.19201
51
40.4848423
0
ARC
8
DEFAULT_255_2_778
10
7.751773
20
3.5283747
40
1.2750558
50
38.3672229
51
46.9912648
0
ARC
8
DEFAULT_255_2_778
10
7.4371962
20
3.2013341
40
1.7287942
50
46.760708
51
49.5729961
0
ARC
8
DEFAULT_255_2_778
10
7.2340222
20
2.9644757
40
2.0408529
50
49.543095
51
50.8864231
0
ARC
8
DEFAULT_255_2_778
10
8.7992162
20
4.8843378
40
0.4361923
50
220.5142046
51
230.4574619
0
ARC
8
DEFAULT_255_2_778
10
8.6736419
20
4.7782819
40
0.2718289
50
205.5719474
51
220.7142915
0
ARC
8
DEFAULT_255_2_778
10
8.5881897
20
4.7379768
40
0.1773505
50
180.5489786
51
205.7424898
0
ARC
8
DEFAULT_255_2_778
10
8.6169937
20
4.7251232
40
0.206448
50
126.9009367
51
176.9028265
0
ARC
8
DEFAULT_255_2_778
10
8.8198657
20
4.4903512
40
0.5164383
50
108.2060983
51
129.2610209
0
ARC
8
DEFAULT_255_2_778
10
8.9191087
20
4.2189999
40
0.8052685
50
89.9000179
51
108.8816858
0
ARC
8
DEFAULT_255_2_778
10
8.8398154
20
0.2356659
40
4.7892812
50
84.3850146
51
89.0345306
0
ARC
8
DEFAULT_255_2_778
10
9.3071213
20
5.0264052
40
0.0244722
50
273.0279093
51
359.0193834
0
ARC
8
DEFAULT_255_2_778
10
9.307358
20
5.0270873
40
0.0242568
50
357.3985581
51
0.0090119
0
ARC
8
DEFAULT_255_2_778
10
9.3106376
20
5.0274568
40
0.0209804
50
359.0012838
51
64.971205
0
ARC
8
DEFAULT_255_2_778
10
8.6947074
20
3.9411218
40
1.2697132
50
60.5222993
51
71.5576126
0
ARC
8
DEFAULT_255_2_778
10
8.7849361
20
4.2148741
40
0.9814768
50
71.4988235
51
86.1512118
0
ARC
8
DEFAULT_255_2_778
10
8.7970899
20
4.3354941
40
0.8603225
50
86.4195962
51
89.9877529
0
ARC
8
DEFAULT_255_2_778
10
8.7954314
20
4.4034462
40
0.7923726
50
89.8667833
51
103.3288262
0
ARC
8
DEFAULT_255_2_778
10
8.7868807
20
4.4459914
40
0.7490035
50
103.4426515
51
105.3813028
0
ARC
8
DEFAULT_255_2_778
10
8.4388697
20
5.0626971
40
0.1801813
50
45.118238
51
46.1184027
0
ARC
8
DEFAULT_255_2_778
10
8.5099979
20
5.1451165
40
0.0717117
50
41.4285257
51
87.4510488
0
ARC
8
DEFAULT_255_2_778
10
8.514306
20
5.1383527
40
0.0784126
50
90.8175778
51
109.2811228
0
ARC
8
DEFAULT_255_2_778
10
8.4091184
20
5.1081287
40
0.063127
50
108.858264
51
163.7931696
0
ARC
8
DEFAULT_255_2_778
10
8.4251933
20
5.1006978
40
0.0806808
50
161.9115953
51
179.6666862
0
ARC
8
DEFAULT_255_2_778
10
9.3604921
20
3.4586474
40
1.9033563
50
122.2613748
51
122.5251407
0
ARC
8
DEFAULT_255_2_778
10
8.5614671
20
4.6712553
40
0.45185
50
119.7699386
51
140.778833
0
ARC
8
DEFAULT_255_2_778
10
8.1504147
20
4.9330195
40
0.0488541
50
70.1369732
51
89.6227118
0
ARC
8
DEFAULT_255_2_778
10
8.1512168
20
4.9339634
40
0.0479114
50
90.5746023
51
117.7428463
0
ARC
8
DEFAULT_255_2_778
10
6.9714489
20
5.3724862
40
1.2233706
50
341.1075213
51
353.6965034
0
ARC
8
DEFAULT_255_2_778
10
6.6862238
20
5.4080007
40
1.5107759
50
353.5454301
51
0.0919021
0
ARC
8
DEFAULT_255_2_778
10
6.3016821
20
5.4032843
40
1.895329
50
0.2158345
51
9.0526424
0
ARC
8
DEFAULT_255_2_778
10
5.8765585
20
5.340722
40
2.3250065
50
8.9267949
51
13.749812
0
ARC
8
DEFAULT_255_2_778
10
5.6502047
20
5.2868275
40
2.557684
50
13.7173213
51
17.0510938
0
ARC
8
DEFAULT_255_2_778
10
5.58324
20
5.2668282
40
2.6275695
50
17.0398546
51
17.1367997
0
ARC
8
DEFAULT_255_2_778
10
5.6107311
20
5.2754429
40
2.5987605
50
17.1338918
51
19.4657292
0
ARC
8
DEFAULT_255_2_778
10
5.7481084
20
5.3243202
40
2.4529476
50
19.4586397
51
21.2721087
0
ARC
8
DEFAULT_255_2_778
10
6.053438
20
5.4434778
40
2.1251908
50
21.2649307
51
22.7713024
0
ARC
8
DEFAULT_255_2_778
10
6.5416102
20
5.6487995
40
1.5955977
50
22.7580365
51
24.0551218
0
ARC
8
DEFAULT_255_2_778
10
7.2172812
20
5.950984
40
0.8554314
50
24.0198223
51
25.1210751
0
ARC
8
DEFAULT_255_2_778
10
7.8193432
20
6.2330356
40
0.1905768
50
25.1877308
51
25.5286632
0
ARC
8
DEFAULT_255_2_778
10
6.8623572
20
6.0004335
40
1.172007
50
15.5775494
51
31.3615699
0
ARC
8
DEFAULT_255_2_778
10
6.7649704
20
5.9021649
40
1.3067307
50
32.8186584
51
68.7486763
0
ARC
8
DEFAULT_255_2_778
10
6.3876766
20
5.0806723
40
2.2097722
50
67.3515243
51
77.6793133
0
ARC
8
DEFAULT_255_2_778
10
6.2073626
20
4.2916753
40
3.0190837
50
77.5312378
51
83.9079207
0
ARC
8
DEFAULT_255_2_778
10
6.1351161
20
3.665327
40
3.6495659
50
83.8236748
51
87.3860808
0
ARC
8
DEFAULT_255_2_778
10
6.1175511
20
3.3154788
40
3.9998514
50
87.36328
51
89.6782295
0
ARC
8
DEFAULT_255_2_778
10
8.1257754
20
4.8313806
40
0.0665657
50
205.9358457
51
222.9009535
0
ARC
8
DEFAULT_255_2_778
10
8.5678576
20
4.5553813
40
0.5130481
50
155.9865117
51
179.967477
0
ARC
8
DEFAULT_255_2_778
10
8.5586255
20
4.5556248
40
0.5038159
50
179.9945766
51
180.2340129
0
ARC
8
DEFAULT_255_2_778
10
8.0535571
20
4.4657604
40
0.0614127
50
134.7601472
51
180.7082141
0
ARC
8
DEFAULT_255_2_778
10
8.0616557
20
4.464989
40
0.0695066
50
179.9898948
51
180.9221281
0
ARC
8
DEFAULT_255_2_778
10
8.0741092
20
4.466003
40
0.0819787
50
181.4906855
51
204.8383829
0
ARC
8
DEFAULT_255_2_778
10
8.1139795
20
4.3656555
40
0.0698688
50
208.7334002
51
268.3766241
0
ARC
8
DEFAULT_255_2_778
10
8.1120221
20
4.353337
40
0.0575224
50
269.9781156
51
288.4366799
0
ARC
8
DEFAULT_255_2_778
10
8.9309508
20
4.9945646
40
1.0202235
50
222.1539466
51
225.2527025
0
ARC
8
DEFAULT_255_2_778
10
-41.779426
20
-46.3483177
40
71.1437158
50
45.3070929
51
45.3565716
0
ARC
8
DEFAULT_255_2_778
10
8.0636305
20
3.9891315
40
0.3060277
50
5.2773079
51
50.950295
0
ARC
8
DEFAULT_255_2_778
10
8.0841367
20
4.0046459
40
0.2845048
50
359.9873652
51
2.5449433
0
ARC
8
DEFAULT_255_2_778
10
8.0351769
20
4.0056383
40
0.3334663
50
351.6434499
51
359.818706
0
ARC
8
DEFAULT_255_2_778
10
7.9689364
20
4.0141208
40
0.4002383
50
349.9341345
51
351.8201692
0
ARC
8
DEFAULT_255_2_778
10
8.0122561
20
4.0076316
40
0.3564531
50
302.3652774
51
349.7441195
0
ARC
8
DEFAULT_255_2_778
10
7.8327445
20
4.2709391
40
0.675036
50
286.7444316
51
303.2711751
0
ARC
8
DEFAULT_255_2_778
10
7.6427305
20
4.8721366
40
1.3055152
50
277.6136877
51
287.1284663
0
ARC
8
DEFAULT_255_2_778
10
7.5016186
20
5.8672969
40
2.3106123
50
271.8991303
51
277.812456
0
ARC
8
DEFAULT_255_2_778
10
7.4558594
20
6.8905097
40
3.3348005
50
269.9610938
51
272.1022937
0
ARC
8
DEFAULT_255_2_778
10
7.4539433
20
7.4330914
40
3.8773816
50
269.2717282
51
269.9948521
0
ARC
8
DEFAULT_255_2_778
10
7.4568994
20
7.6845018
40
4.1288094
50
269.0440266
51
269.275054
0
ARC
8
DEFAULT_255_2_778
10
7.4311663
20
4.8497847
40
1.2942372
50
260.034475
51
268.0892959
0
ARC
8
DEFAULT_255_2_778
10
7.5727069
20
5.6715902
40
2.1281396
50
254.109905
51
260.1102064
0
ARC
8
DEFAULT_255_2_778
10
7.9200305
20
6.8802838
40
3.3857436
50
247.8059376
51
254.0571048
0
ARC
8
DEFAULT_255_2_778
10
8.1579944
20
7.4964155
40
4.0461345
50
246.8422858
51
247.9816366
0
ARC
8
DEFAULT_255_2_778
10
8.1488032
20
7.4763184
40
4.0240422
50
244.9047476
51
246.8500752
0
ARC
8
DEFAULT_255_2_778
10
7.9509805
20
7.055587
40
3.5591249
50
243.2580276
51
244.9161228
0
ARC
8
DEFAULT_255_2_778
10
7.7101295
20
6.5747475
40
3.0213388
50
242.6449283
51
243.233851
0
ARC
8
DEFAULT_255_2_778
10
7.4108651
20
1.1114096
40
2.9855721
50
109.2865268
51
111.3935125
0
ARC
8
DEFAULT_255_2_778
10
4.2863032
20
10.2599108
40
6.6819151
50
288.665071
51
291.1457952
0
ARC
8
DEFAULT_255_2_778
10
5.8098325
20
6.2436911
40
2.3866866
50
291.8150486
51
293.5547846
0
ARC
8
DEFAULT_255_2_778
10
6.5417283
20
5.6517722
40
1.6112561
50
277.9153393
51
284.5217911
0
ARC
8
DEFAULT_255_2_778
10
6.4597148
20
5.9573417
40
1.92763
50
284.6041953
51
290.8750487
0
ARC
8
DEFAULT_255_2_778
10
6.2203474
20
6.5863479
40
2.6006422
50
290.8644914
51
296.097824
0
ARC
8
DEFAULT_255_2_778
10
5.7890505
20
7.470101
40
3.5840215
50
296.0747433
51
300.367613
0
ARC
8
DEFAULT_255_2_778
10
5.3405166
20
8.2505766
40
4.4841765
50
300.2708681
51
301.7990153
0
ARC
8
DEFAULT_255_2_778
10
7.1356046
20
5.3697372
40
1.0898669
50
301.3986587
51
319.0050914
0
ARC
8
DEFAULT_255_2_778
10
7.1938573
20
5.3130366
40
1.0087148
50
319.2653775
51
329.5917213
0
ARC
8
DEFAULT_255_2_778
10
5.2736987
20
4.1211519
40
0.4210152
50
0.00207
51
89.99793
0
ARC
8
DEFAULT_255_2_778
10
5.2737201
20
4.1212609
40
0.4209938
50
269.9991552
51
359.9872337
0
LINE
8
DEFAULT_255_2_778
10
5.2737139
20
3.7002671
11
5.2731523
21
3.7002667
0
ARC
8
DEFAULT_255_2_778
10
5.2731806
20
4.1210683
40
0.4208016
50
210.0158042
51
269.9961463
0
ARC
8
DEFAULT_255_2_778
10
5.2733634
20
4.1208982
40
0.4208747
50
180.0512103
51
209.9833002
0
ARC
8
DEFAULT_255_2_778
10
5.5005477
20
4.1210621
40
0.6480589
50
179.9840845
51
180.0477465
0
ARC
8
DEFAULT_255_2_778
10
5.2728776
20
4.1210477
40
0.4203887
50
149.9173403
51
179.9735093
0
ARC
8
DEFAULT_255_2_778
10
5.2735353
20
4.1217704
40
0.4205967
50
90.0138984
51
150.0474401
0
LINE
8
DEFAULT_255_2_778
10
5.2734333
20
4.5423672
11
5.2737139
21
4.5423671
0
LINE
8
DEFAULT_255_2_778
10
2.8314139
20
5.2652671
11
2.8203139
21
5.2983671
0
LINE
8
DEFAULT_255_2_778
10
2.7673139
20
5.3512671
11
2.6562139
21
5.3623671
0
LINE
8
DEFAULT_255_2_778
10
2.5901139
20
5.3178671
11
2.5795139
21
5.2649671
0
LINE
8
DEFAULT_255_2_778
10
2.3025139
20
5.1983671
11
2.2496139
21
5.2427671
0
LINE
8
DEFAULT_255_2_778
10
2.1720139
20
5.2427671
11
2.0945139
21
5.1760671
0
LINE
8
DEFAULT_255_2_778
10
2.0723139
20
5.0988671
11
2.0945139
21
5.0543671
0
LINE
8
DEFAULT_255_2_778
10
1.9284139
20
4.8440671
11
1.8953139
21
4.8546671
0
LINE
8
DEFAULT_255_2_778
10
1.8175139
20
4.8215671
11
1.7730139
21
4.7217671
0
LINE
8
DEFAULT_255_2_778
10
1.7842139
20
4.6442671
11
1.8172139
21
4.5998671
0
LINE
8
DEFAULT_255_2_778
10
2.5044139
20
3.4914671
11
2.4824139
21
3.3803671
0
LINE
8
DEFAULT_255_2_778
10
2.5268139
20
3.2917671
11
2.6485139
21
3.2387671
0
LINE
8
DEFAULT_255_2_778
10
1.3336139
20
2.4490671
11
1.3225139
21
2.4490671
0
LINE
8
DEFAULT_255_2_778
10
2.0982139
20
1.3046671
11
2.1204139
21
1.2827671
0
LINE
8
DEFAULT_255_2_778
10
2.2527139
20
1.2716671
11
2.3525139
21
1.3602671
0
LINE
8
DEFAULT_255_2_778
10
2.3858139
20
1.4713671
11
2.3639139
21
1.5375671
0
LINE
8
DEFAULT_255_2_778
10
2.5745139
20
1.7481671
11
2.6075139
21
1.7261671
0
LINE
8
DEFAULT_255_2_778
10
2.7380139
20
1.7481671
11
2.8158139
21
1.8478671
0
LINE
8
DEFAULT_255_2_778
10
2.8263139
20
1.9590671
11
2.7933139
21
2.0119671
0
LINE
8
DEFAULT_255_2_778
10
2.9928139
20
2.2553671
11
3.0150139
21
2.2442671
0
LINE
8
DEFAULT_255_2_778
10
3.1454139
20
2.2780671
11
3.2230139
21
2.3775671
0
LINE
8
DEFAULT_255_2_778
10
3.2341139
20
2.4887671
11
3.2119139
21
2.5331671
0
LINE
8
DEFAULT_255_2_778
10
3.7106139
20
2.4998671
11
3.6995139
21
2.4892671
0
LINE
8
DEFAULT_255_2_778
10
3.6775139
20
2.3561671
11
3.7437139
21
2.2450671
0
LINE
8
DEFAULT_255_2_778
10
3.8323139
20
2.2005671
11
3.8767139
21
2.2005671
0
LINE
8
DEFAULT_255_2_778
10
3.8767139
20
2.2005671
11
4.0209139
21
1.9571671
0
LINE
8
DEFAULT_255_2_778
10
3.9987139
20
1.8240671
11
4.0654139
21
1.7129671
0
LINE
8
DEFAULT_255_2_778
10
4.1538139
20
1.6684671
11
4.1760139
21
1.6684671
0
LINE
8
DEFAULT_255_2_778
10
4.1760139
20
1.6684671
11
4.2091139
21
1.6790671
0
LINE
8
DEFAULT_255_2_778
10
4.3644139
20
1.4462671
11
4.3533139
21
1.4351671
0
LINE
8
DEFAULT_255_2_778
10
4.3421139
20
1.3020671
11
4.4197139
21
1.2025671
0
LINE
8
DEFAULT_255_2_778
10
4.4975139
20
1.1581671
11
4.5305139
21
1.1581671
0
LINE
8
DEFAULT_255_2_778
10
4.5305139
20
1.1581671
11
4.5525139
21
1.1686671
0
LINE
8
DEFAULT_255_2_778
10
6.1260139
20
-0.2052329
11
6.1479139
21
-0.2052329
0
LINE
8
DEFAULT_255_2_778
10
4.8824139
20
2.7667671
11
4.8602139
21
2.6895671
0
LINE
8
DEFAULT_255_2_778
10
4.9131139
20
2.5678671
11
5.0348139
21
2.5233671
0
LINE
8
DEFAULT_255_2_778
10
5.1457139
20
2.5455671
11
5.1986139
21
2.6117671
0
LINE
8
DEFAULT_255_2_778
10
5.3870139
20
2.5119671
11
5.3648139
21
2.4236671
0
LINE
8
DEFAULT_255_2_778
10
5.4177139
20
2.3019671
11
5.5394139
21
2.2574671
0
LINE
8
DEFAULT_255_2_778
10
5.6500139
20
2.2796671
11
5.7029139
21
2.3326671
0
LINE
8
DEFAULT_255_2_778
10
5.9577139
20
2.1886671
11
5.9355139
21
2.1111671
0
LINE
8
DEFAULT_255_2_778
10
5.9884139
20
1.9894671
11
6.1101139
21
1.9449671
0
LINE
8
DEFAULT_255_2_778
10
6.2210139
20
1.9674671
11
6.2651139
21
2.0119671
0
LINE
8
DEFAULT_255_2_778
10
6.5202139
20
1.8679671
11
6.4980139
21
1.7902671
0
LINE
8
DEFAULT_255_2_778
10
6.5509139
20
1.6684671
11
6.6726139
21
1.6240671
0
LINE
8
DEFAULT_255_2_778
10
6.7835139
20
1.6460671
11
6.8276139
21
1.6904671
0
LINE
8
DEFAULT_255_2_778
10
9.9971139
20
1.6131671
11
10.0415139
21
1.6243671
0
LINE
8
DEFAULT_255_2_778
10
10.1299139
20
1.7129671
11
10.1410139
21
1.8124671
0
LINE
8
DEFAULT_255_2_778
10
10.1079139
20
1.8902671
11
10.0418139
21
1.8902671
0
LINE
8
DEFAULT_255_2_778
10
9.9974139
20
2.2114671
11
10.0307139
21
2.2558671
0
LINE
8
DEFAULT_255_2_778
10
10.0418139
20
2.3775671
11
9.9889139
21
2.4553671
0
LINE
8
DEFAULT_255_2_778
10
9.8672139
20
2.4773671
11
9.8561139
21
2.4773671
0
LINE
8
DEFAULT_255_2_778
10
9.6235139
20
2.6879671
11
9.6015139
21
2.7874671
0
LINE
8
DEFAULT_255_2_778
10
9.5129139
20
2.8871671
11
9.4132139
21
2.8977671
0
LINE
8
DEFAULT_255_2_778
10
8.9755139
20
1.8925671
11
8.9644139
21
1.8925671
0
LINE
8
DEFAULT_255_2_778
10
5.9558139
20
3.1737671
11
6.5379139
21
3.0228671
0
LINE
8
DEFAULT_255_2_778
10
6.5379139
20
3.0228671
11
6.5379139
21
2.9451671
0
LINE
8
DEFAULT_255_2_778
10
6.5908139
20
2.8675671
11
6.7125139
21
2.8231671
0
LINE
8
DEFAULT_255_2_778
10
6.8123139
20
2.8564671
11
6.8567139
21
2.9226671
0
LINE
8
DEFAULT_255_2_778
10
7.1478139
20
2.8781671
11
7.1809139
21
2.7784671
0
LINE
8
DEFAULT_255_2_778
10
7.2586139
20
2.7255671
11
7.3917139
21
2.7360671
0
LINE
8
DEFAULT_255_2_778
10
7.4693139
20
2.8022671
11
7.4804139
21
2.8689671
0
LINE
8
DEFAULT_255_2_778
10
7.8127139
20
2.9218671
11
7.8902139
21
2.8443671
0
LINE
8
DEFAULT_255_2_778
10
7.9897139
20
2.8220671
11
8.1114139
21
2.8749671
0
LINE
8
DEFAULT_255_2_778
10
8.1558139
20
2.9636671
11
8.1447139
21
3.0522671
0
LINE
8
DEFAULT_255_2_778
10
8.5882139
20
5.1681671
11
8.5660139
21
5.1903671
0
LINE
8
DEFAULT_255_2_778
10
8.4884139
20
5.2123671
11
8.3887139
21
5.1678671
0
LINE
8
DEFAULT_255_2_778
10
8.3445139
20
5.1011671
11
8.3445139
21
5.0681671
0
LINE
8
DEFAULT_255_2_778
10
8.2114139
20
4.9569671
11
8.1670139
21
4.9789671
0
LINE
8
DEFAULT_255_2_778
10
6.1400139
20
7.3152671
11
6.1614139
21
7.3215671
0
LINE
8
DEFAULT_255_2_778
10
8.0770139
20
4.7860671
11
8.0992139
21
4.7641671
0
LINE
8
DEFAULT_255_2_778
10
8.0548139
20
4.5535671
11
8.0103139
21
4.5093671
0
LINE
8
DEFAULT_255_2_778
10
7.9997139
20
4.4315671
11
8.0527139
21
4.3320671
0
LINE
8
DEFAULT_255_2_778
10
8.1302139
20
4.2987671
11
8.1746139
21
4.3098671
0
LINE
8
DEFAULT_255_2_778
10
8.0638139
20
4.8024671
11
8.0659139
21
4.8022671
0
LINE
8
DEFAULT_255_2_778
10
5.2737139
20
4.5423671
11
5.2737139
21
4.5421671
0
ARC
8
DEFAULT_255_2_778
10
5.1444499
20
4.2338088
40
0.1265998
50
170.6950165
51
172.2490793
0
ARC
8
DEFAULT_255_2_778
10
5.2989937
20
4.2124353
40
0.2826144
50
172.1810878
51
174.3953191
0
ARC
8
DEFAULT_255_2_778
10
5.357904
20
4.206199
40
0.3418524
50
174.3193791
51
174.3970974
0
ARC
8
DEFAULT_255_2_778
10
5.3964924
20
4.2027036
40
0.3805978
50
174.4405809
51
177.3466498
0
ARC
8
DEFAULT_255_2_778
10
5.4260756
20
4.2011348
40
0.4102219
50
177.3190426
51
180.0022139
0
ARC
8
DEFAULT_255_2_778
10
5.4018517
20
4.200481
40
0.3859985
50
179.9053124
51
188.2656807
0
ARC
8
DEFAULT_255_2_778
10
5.3292498
20
4.1899044
40
0.3126304
50
188.2603182
51
196.8891518
0
ARC
8
DEFAULT_255_2_778
10
5.2299861
20
4.1541239
40
0.2073235
50
195.3969146
51
237.3888543
0
ARC
8
DEFAULT_255_2_778
10
5.2404343
20
4.1829888
40
0.2373648
50
239.0196791
51
262.3310893
0
ARC
8
DEFAULT_255_2_778
10
5.2614939
20
4.3050073
40
0.3611314
50
261.6031449
51
270.2256224
0
ARC
8
DEFAULT_255_2_778
10
5.2674122
20
4.2604521
40
0.3166053
50
269.1863057
51
286.71002
0
ARC
8
DEFAULT_255_2_778
10
5.3012261
20
4.1490159
40
0.2001528
50
286.6112621
51
318.0762261
0
ARC
8
DEFAULT_255_2_778
10
5.2805068
20
4.1618605
40
0.2241918
50
319.1717999
51
343.7376271
0
ARC
8
DEFAULT_255_2_778
10
5.1749637
20
4.1948788
40
0.3347652
50
343.3711283
51
356.6449147
0
ARC
8
DEFAULT_255_2_778
10
5.1073177
20
4.2010249
40
0.4026608
50
356.3351981
51
0.0133821
0
ARC
8
DEFAULT_255_2_778
10
5.1025549
20
4.2011872
40
0.4074234
50
359.9903945
51
3.700402
0
ARC
8
DEFAULT_255_2_778
10
5.1401495
20
4.2036124
40
0.3697507
50
3.7013582
51
5.58153
0
ARC
8
DEFAULT_255_2_778
10
5.2209509
20
4.2117514
40
0.2885409
50
5.5335834
51
7.7028433
0
ARC
8
DEFAULT_255_2_778
10
5.3723688
20
4.2324165
40
0.1357196
50
7.6254811
51
9.2630735
0
ARC
8
DEFAULT_255_2_778
10
5.2550104
20
4.6642053
40
0.4808267
50
287.6394817
51
301.5103952
0
ARC
8
DEFAULT_255_2_778
10
5.267098
20
4.6293073
40
0.4439077
50
271.985158
51
287.5176036
0
ARC
8
DEFAULT_255_2_778
10
5.2666745
20
4.6374863
40
0.4520964
50
269.9977578
51
272.0028916
0
ARC
8
DEFAULT_255_2_778
10
5.2674779
20
4.6602147
40
0.4748256
50
257.432692
51
269.9009145
0
ARC
8
DEFAULT_255_2_778
10
5.2743392
20
4.6936641
40
0.5089669
50
249.0730027
51
257.4981208
0
ARC
8
DEFAULT_255_2_778
10
5.2720408
20
4.6879023
40
0.5027642
50
248.5895688
51
249.0831294
0
ARC
8
DEFAULT_255_2_778
10
5.2642629
20
4.6693287
40
0.4826333
50
243.262221
51
248.6442777
0
ARC
8
DEFAULT_255_2_778
10
5.2149133
20
4.5719012
40
0.3734205
50
239.6188509
51
243.2989702
0
ARC
8
DEFAULT_255_2_778
10
5.1147172
20
4.4019614
40
0.1761434
50
236.9741202
51
239.7782988
0
ENDSEC
0
EOF