0
SECTION
2
HEADER
9
$MEASUREMENT
70
1
0
ENDSEC
0
SECTION
2
TABLES
0
TABLE
2
LTYPE
0
LTYPE
72
65
70
64
2
CONTINUOUS
3
______
73
0
40
0
0
ENDTAB
0
TABLE
2
LAYER
0
LAYER
2
DEFAULT_255_2_778
70
0
62
255
6
CONTINUOUS
0
ENDTAB
0
ENDSEC
0
SECTION
2
ENTITIES
0
ARC
8
DEFAULT_255_2_778
10
2.6092639
20
7.148832
40
0.3357562
50
242.6199174
51
267.1093971
0
ARC
8
DEFAULT_255_2_778
10
2.5031942
20
5.9843713
40
0.8339093
50
79.3398982
51
83.8638426
0
ARC
8
DEFAULT_255_2_778
10
2.301079
20
4.87437
40
1.9621531
50
46.9525305
51
79.5356462
0
ARC
8
DEFAULT_255_2_778
10
3.3638664
20
6.0250763
40
0.3958651
50
40.9993064
51
45.6781679
0
ARC
8
DEFAULT_255_2_778
10
-1.4584065
20
1.9112113
40
6.734477
50
39.9649048
51
40.4986518
0
ARC
8
DEFAULT_255_2_778
10
2.2165255
20
5.0223441
40
1.1771677
50
40.0556711
51
78.9249711
0
ARC
8
DEFAULT_255_2_778
10
2.1712113
20
4.9933049
40
1.2149932
50
77.0906155
51
87.6779784
0
ARC
8
DEFAULT_255_2_778
10
2.1712116
20
4.9930388
40
1.2152593
50
87.6785021
51
89.9999827
0
ARC
8
DEFAULT_255_2_778
10
2.1711605
20
4.9933321
40
1.2149661
50
89.9975733
51
117.4521062
0
ARC
8
DEFAULT_255_2_778
10
1.9824012
20
5.3476333
40
0.8135518
50
117.1584926
51
143.5768393
0
ARC
8
DEFAULT_255_2_778
10
1.9248898
20
5.3987544
40
0.7369551
50
144.1201252
51
180.4141368
0
ARC
8
DEFAULT_255_2_778
10
2.0394788
20
5.3951984
40
0.8515268
50
180.1191398
51
192.0002371
0
ARC
8
DEFAULT_255_2_778
10
2.1088706
20
5.4079345
40
0.9220522
50
191.8778312
51
193.9859807
0
ARC
8
DEFAULT_255_2_778
10
1.8070601
20
5.351988
40
0.6159502
50
195.7215357
51
236.0255239
0
ARC
8
DEFAULT_255_2_778
10
2.4751906
20
6.3523447
40
1.8189064
50
236.1814875
51
253.6600457
0
LINE
8
DEFAULT_255_2_778
10
1.9634669
20
4.6069051
11
1.9655526
21
4.6061888
0
ARC
8
DEFAULT_255_2_778
10
2.2980634
20
2.8908972
40
1.5085284
50
31.84308
51
70.0710348
0
ARC
8
DEFAULT_255_2_778
10
2.6387205
20
3.125426
40
1.095579
50
7.5295951
51
30.8231019
0
ARC
8
DEFAULT_255_2_778
10
1.6088138
20
2.9731416
40
2.1366202
50
0.2041479
51
7.9590331
0
ARC
8
DEFAULT_255_2_778
10
2.2565336
20
2.9622717
40
1.4890017
50
336.2040665
51
0.7112243
0
ARC
8
DEFAULT_255_2_778
10
2.3068179
20
2.9250781
40
1.4280513
50
310.524953
51
336.7554666
0
ARC
8
DEFAULT_255_2_778
10
2.2374754
20
3.0285896
40
1.5518585
50
291.2034494
51
309.9877178
0
ARC
8
DEFAULT_255_2_778
10
1.9541454
20
3.7145366
40
2.2938994
50
269.9989099
51
291.6044741
0
ARC
8
DEFAULT_255_2_778
10
1.9541051
20
3.7153058
40
2.2946685
50
268.3555961
51
269.9999177
0
ARC
8
DEFAULT_255_2_778
10
1.9540961
20
3.7146357
40
2.2939984
50
258.5001582
51
268.3553381
0
ARC
8
DEFAULT_255_2_778
10
1.8311398
20
3.5284819
40
2.088733
50
227.9574646
51
260.7878276
0
ARC
8
DEFAULT_255_2_778
10
1.5987872
20
3.2247554
40
1.7078473
50
222.6495094
51
226.922637
0
ARC
8
DEFAULT_255_2_778
10
-14.4707431
20
-11.5120873
40
20.0959261
50
42.5121638
51
42.9800725
0
ARC
8
DEFAULT_255_2_778
10
2.1713372
20
3.674549
40
1.6721624
50
219.2134687
51
233.6068517
0
ARC
8
DEFAULT_255_2_778
10
1.9289734
20
3.3460255
40
1.2639127
50
233.6147336
51
270.5114992
0
ARC
8
DEFAULT_255_2_778
10
1.9384524
20
3.620922
40
1.5387599
50
270.0671825
51
276.3217515
0
ARC
8
DEFAULT_255_2_778
10
1.9192163
20
3.8063622
40
1.725191
50
276.2785759
51
279.7694141
0
ARC
8
DEFAULT_255_2_778
10
2.0865115
20
3.0185785
40
0.9209726
50
277.8283123
51
324.7000975
0
ARC
8
DEFAULT_255_2_778
10
2.2215726
20
2.9211971
40
0.7544728
50
324.8087517
51
351.0382579
0
ARC
8
DEFAULT_255_2_778
10
2.2182503
20
2.9216223
40
0.7578208
50
351.0456271
51
358.1625789
0
ARC
8
DEFAULT_255_2_778
10
2.2159685
20
2.9217323
40
0.7601049
50
358.159808
51
359.9996393
0
ARC
8
DEFAULT_255_2_778
10
2.2187817
20
2.9225268
40
0.757292
50
359.9395258
51
46.5783605
0
ARC
8
DEFAULT_255_2_778
10
2.2126889
20
2.9156357
40
0.7664852
50
46.6016388
51
50.2555171
0
ARC
8
DEFAULT_255_2_778
10
1.854264
20
2.4497702
40
1.3540381
50
51.1976549
51
71.547022
0
ARC
8
DEFAULT_255_2_778
10
1.9898809
20
5.6659167
40
1.7352092
50
229.0074986
51
251.6030927
0
ARC
8
DEFAULT_255_2_778
10
1.6317519
20
5.2746399
40
1.2050341
50
182.9849789
51
229.6566284
0
ARC
8
DEFAULT_255_2_778
10
2.2552879
20
5.3587443
40
1.8328282
50
180.0166905
51
184.5957568
0
ARC
8
DEFAULT_255_2_778
10
2.2182251
20
5.3577542
40
1.7957653
50
169.7081786
51
179.9854431
0
ARC
8
DEFAULT_255_2_778
10
1.7405707
20
5.4165245
40
1.3155838
50
124.5701873
51
168.5098217
0
ARC
8
DEFAULT_255_2_778
10
2.075036
20
5.0280358
40
1.8260862
50
125.7420024
51
126.2953561
0
ARC
8
DEFAULT_255_2_778
10
2.0206719
20
5.0555782
40
1.772197
50
98.2605206
51
124.8355366
0
ARC
8
DEFAULT_255_2_778
10
1.8376963
20
6.3497733
40
0.4651657
50
93.7581658
51
98.8598125
0
ARC
8
DEFAULT_255_2_778
10
1.7122788
20
8.0290773
40
1.2188409
50
274.4669398
51
275.3021254
0
ARC
8
DEFAULT_255_2_778
10
1.8219923
20
6.9756912
40
0.1602662
50
271.0427252
51
309.9268554
0
ARC
8
DEFAULT_255_2_778
10
2.0443333
20
6.8567288
40
0.0279596
50
188.1010612
51
272.5492352
0
ARC
8
DEFAULT_255_2_778
10
2.0427172
20
6.9356922
40
0.1069336
50
271.5323943
51
279.9495578
0
LINE
8
DEFAULT_255_2_778
10
2.0611933
20
6.8303668
11
2.0616997
21
6.8304432
0
ARC
8
DEFAULT_255_2_778
10
2.0809372
20
6.7219019
40
0.1102329
50
91.6446222
51
100.0505251
0
ARC
8
DEFAULT_255_2_778
10
2.0780238
20
6.7943988
40
0.0376916
50
80.6418587
51
90.3805349
0
ARC
8
DEFAULT_255_2_778
10
2.2927675
20
6.8632519
40
0.0316853
50
272.1435938
51
302.0625436
0
ARC
8
DEFAULT_255_2_778
10
2.2021285
20
7.0155002
40
0.2088648
50
300.963425
51
305.3739238
0
ARC
8
DEFAULT_255_2_778
10
2.3825792
20
6.7601009
40
0.1038528
50
115.8162669
51
124.9792912
0
ARC
8
DEFAULT_255_2_778
10
25.4554478
20
82.0154436
40
80.4569579
50
269.8909848
51
269.9842654
0
ARC
8
DEFAULT_255_2_778
10
25.1392694
20
-86.1788352
40
87.7376182
50
89.8934931
51
89.9718514
0
ARC
8
DEFAULT_255_2_778
10
25.1739726
20
-24.5814589
40
26.1402327
50
89.9815859
51
90.0061386
0
ARC
8
DEFAULT_255_2_778
10
25.1112655
20
-11.5718183
40
13.130729
50
89.7385979
51
92.0399815
0
ARC
8
DEFAULT_255_2_778
10
24.6186471
20
2.1755018
40
0.6254211
50
270.0356698
51
272.3097424
0
ARC
8
DEFAULT_255_2_778
10
24.6012027
20
1.8590937
40
0.309527
50
212.9087012
51
273.3029878
0
ARC
8
DEFAULT_255_2_778
10
24.793833
20
2.0219293
40
0.5606332
50
215.8748695
51
216.1859674
0
ARC
8
DEFAULT_255_2_778
10
23.8260765
20
2.8658858
40
0.3159782
50
202.3582647
51
212.5907982
0
ARC
8
DEFAULT_255_2_778
10
22.5325161
20
1.7143341
40
0.1615627
50
270.0202697
51
327.484122
0
ARC
8
DEFAULT_255_2_778
10
22.5325797
20
1.714776
40
0.1620046
50
264.6067241
51
269.9977366
0
ARC
8
DEFAULT_255_2_778
10
22.621877
20
4.8225723
40
0.2060881
50
90.0017019
51
94.626853
0
ARC
8
DEFAULT_255_2_778
10
22.6220103
20
4.8238868
40
0.2047737
50
32.7914935
51
90.0390283
0
ARC
8
DEFAULT_255_2_778
10
536.7322089
20
398.3604619
40
647.2372717
50
217.4344842
51
217.6035735
0
ARC
8
DEFAULT_255_2_778
10
24.3026662
20
3.736008
40
0.4681528
50
222.4900128
51
231.7838089
0
ARC
8
DEFAULT_255_2_778
10
24.6889682
20
3.7116907
40
0.7595199
50
206.7029778
51
214.2628232
0
ARC
8
DEFAULT_255_2_778
10
-2966.5949943
20
-2364.5783897
40
3814.5507604
50
38.3391626
51
38.3705428
0
ARC
8
DEFAULT_255_2_778
10
25.696919
20
1.9779035
40
0.4747651
50
224.3897063
51
236.0900427
0
LINE
8
DEFAULT_255_2_778
10
3.7031526
20
6.2368888
11
3.1705526
21
5.7200888
0
LINE
8
DEFAULT_255_2_778
10
3.1705526
20
5.7200888
11
3.1175526
21
5.7798888
0
LINE
8
DEFAULT_255_2_778
10
1.9655526
20
4.6061888
11
2.8122526
21
4.3090888
0
LINE
8
DEFAULT_255_2_778
10
0.2312526
20
2.1881888
11
0.8207526
21
2.6874888
0
LINE
8
DEFAULT_255_2_778
10
0.8207526
20
2.6874888
11
0.8757526
21
2.6173888
0
LINE
8
DEFAULT_255_2_778
10
2.2828526
20
3.7341888
11
1.4422526
21
4.0193888
0
LINE
8
DEFAULT_255_2_778
10
1.9248526
20
6.8527888
11
2.0166526
21
6.8527888
0
LINE
8
DEFAULT_255_2_778
10
2.0841526
20
6.8315888
11
2.2939526
21
6.8315888
0
LINE
8
DEFAULT_255_2_778
10
2.3373526
20
6.8535888
11
2.4548526
21
6.8506888
0
LINE
8
DEFAULT_255_2_778
10
24.3395526
20
1.6933888
11
23.5598526
21
2.6956888
0
LINE
8
DEFAULT_255_2_778
10
23.5338526
20
2.7456888
11
23.1793526
21
2.2878888
0
LINE
8
DEFAULT_255_2_778
10
23.1793526
20
2.2878888
11
22.6687526
21
1.6274888
0
LINE
8
DEFAULT_255_2_778
10
22.5173526
20
1.5534888
11
21.6370526
21
1.5552888
0
LINE
8
DEFAULT_255_2_778
10
21.6370526
20
1.5552888
11
22.3390526
21
2.4548888
0
LINE
8
DEFAULT_255_2_778
10
22.3390526
20
2.4548888
11
23.0409526
21
3.3480888
0
LINE
8
DEFAULT_255_2_778
10
23.0409526
20
3.3480888
11
21.7000526
21
5.0186888
0
LINE
8
DEFAULT_255_2_778
10
21.7000526
20
5.0186888
11
21.7918526
21
5.0252888
0
LINE
8
DEFAULT_255_2_778
10
21.7918526
20
5.0252888
11
22.6052526
21
5.0279888
0
LINE
8
DEFAULT_255_2_778
10
24.0130526
20
3.3681888
11
24.0104526
21
3.3703888
0
LINE
8
DEFAULT_255_2_778
10
25.4320526
20
1.5838888
11
25.4333526
21
1.5584888
0
ARC
8
DEFAULT_255_2_778
10
17.8726485
20
6.8394417
40
0.0476644
50
359.9714449
51
13.6690789
0
ARC
8
DEFAULT_255_2_778
10
17.8697993
20
6.8395058
40
0.0505136
50
346.7236019
51
359.9003075
0
LINE
8
DEFAULT_255_2_778
10
17.9189629
20
6.8279055
11
17.2098629
21
6.8261055
0
LINE
8
DEFAULT_255_2_778
10
17.2098629
20
6.8261055
11
17.2098629
21
6.8507055
0
LINE
8
DEFAULT_255_2_778
10
17.2098629
20
6.8507055
11
17.9189629
21
6.8507055
0
ARC
8
DEFAULT_255_2_778
10
2.4257335
20
6.6989164
40
0.1740608
50
119.3190111
51
124.3928512
0
ARC
8
DEFAULT_255_2_778
10
2.0540707
20
7.2524339
40
0.4926681
50
302.9380123
51
303.6983146
0
ARC
8
DEFAULT_255_2_778
10
2.2896796
20
6.8818076
40
0.0536422
50
277.9521356
51
306.983246
0
ARC
8
DEFAULT_255_2_778
10
1.9909022
20
6.8394536
40
0.0969986
50
353.623768
51
359.9646523
0
ARC
8
DEFAULT_255_2_778
10
1.9968574
20
6.839446
40
0.0910435
50
359.9670961
51
6.5815888
0
LINE
8
DEFAULT_255_2_778
10
2.2971008
20
6.8286812
11
2.0873008
21
6.8286812
0
LINE
8
DEFAULT_255_2_778
10
2.0873008
20
6.8498812
11
2.3405008
21
6.8506812
0
ARC
8
DEFAULT_255_2_778
10
1.9933396
20
6.8400459
40
0.0956289
50
3.2133327
51
6.4230443
0
ARC
8
DEFAULT_255_2_778
10
1.9938371
20
6.8400679
40
0.095131
50
0.0005308
51
3.2169051
0
ARC
8
DEFAULT_255_2_778
10
1.9974351
20
6.8400072
40
0.0915331
50
353.4359914
51
0.0385359
0
ARC
8
DEFAULT_255_2_778
10
2.081425
20
6.792078
40
0.0381037
50
79.5009697
51
90.4392976
0
ARC
8
DEFAULT_255_2_778
10
2.0836429
20
6.7263815
40
0.1038295
50
91.3852388
51
99.4523382
0
LINE
8
DEFAULT_255_2_778
10
2.0665913
20
6.8288012
11
2.0659628
21
6.8287108
0
ARC
8
DEFAULT_255_2_778
10
2.0479654
20
6.9353592
40
0.1081563
50
271.5212327
51
279.5787086
0
ARC
8
DEFAULT_255_2_778
10
2.049914
20
6.8569222
40
0.0296955
50
192.0087674
51
271.7805482
0
LINE
8
DEFAULT_255_2_778
10
2.0208682
20
6.8507437
11
2.0883682
21
6.8507437
0
ARC
8
DEFAULT_255_2_778
10
7.299552
20
3.0187397
40
1.515036
50
305.9073726
51
321.4156759
0
ARC
8
DEFAULT_255_2_778
10
7.3219081
20
3.0485958
40
1.5265226
50
268.518497
51
304.5703969
0
ARC
8
DEFAULT_255_2_778
10
7.2664585
20
3.8032744
40
2.280747
50
269.9997166
51
270.4015093
0
ARC
8
DEFAULT_255_2_778
10
7.2668749
20
3.9031075
40
2.3805801
50
268.3093953
51
269.9897072
0
ARC
8
DEFAULT_255_2_778
10
7.2299773
20
3.2158492
40
1.6926138
50
233.000226
51
268.8715179
0
ARC
8
DEFAULT_255_2_778
10
7.184488
20
3.1645476
40
1.6242756
50
195.6909961
51
233.1926711
0
ARC
8
DEFAULT_255_2_778
10
7.7077681
20
3.3484405
40
2.1780787
50
184.5581722
51
196.6253959
0
ARC
8
DEFAULT_255_2_778
10
7.484398
20
3.3248125
40
1.953546
50
180.0144548
51
184.388012
0
ARC
8
DEFAULT_255_2_778
10
7.3912896
20
3.3259205
40
1.8604381
50
157.1688705
51
180.0493023
0
ARC
8
DEFAULT_255_2_778
10
7.5132658
20
3.2797223
40
1.990789
50
154.7934938
51
157.3055785
0
ARC
8
DEFAULT_255_2_778
10
7.39657
20
3.3529728
40
1.8540833
50
139.5304035
51
155.3057666
0
ARC
8
DEFAULT_255_2_778
10
7.1696613
20
3.5311035
40
1.5658919
50
102.2599704
51
139.1000704
0
ARC
8
DEFAULT_255_2_778
10
7.3017718
20
3.0571804
40
2.057257
50
96.0276587
51
103.052655
0
ARC
8
DEFAULT_255_2_778
10
7.2855188
20
3.5035417
40
1.6119495
50
93.9511469
51
97.119244
0
ARC
8
DEFAULT_255_2_778
10
7.2854679
20
3.5042857
40
1.6112038
50
90.0001729
51
93.951164
0
ARC
8
DEFAULT_255_2_778
10
7.2854466
20
3.504208
40
1.6112815
50
59.7551891
51
89.9994172
0
ARC
8
DEFAULT_255_2_778
10
7.4144721
20
3.7711407
40
1.3158946
50
46.8430884
51
58.7541158
0
ARC
8
DEFAULT_255_2_778
10
7.6305962
20
3.9861175
40
1.0112996
50
41.9091863
51
47.4444986
0
ARC
8
DEFAULT_255_2_778
10
78.3944488
20
66.2589095
40
93.2512736
50
221.3419664
51
221.454143
0
LINE
8
DEFAULT_255_2_778
10
9.2114422
20
4.8996636
11
9.2114422
21
1.7844636
0
ARC
8
DEFAULT_255_2_778
10
6.4556403
20
1.7498476
40
2.7560193
50
0.0004205
51
0.7196625
0
ARC
8
DEFAULT_255_2_778
10
6.4431697
20
1.7507409
40
2.76849
50
343.92726
51
359.9819321
0
ARC
8
DEFAULT_255_2_778
10
7.6297693
20
1.4007
40
1.5313821
50
295.5578769
51
344.2205564
0
ARC
8
DEFAULT_255_2_778
10
7.4099956
20
1.8516137
40
2.0329928
50
271.548747
51
295.6631244
0
ARC
8
DEFAULT_255_2_778
10
7.3123566
20
2.5213334
40
2.7062748
50
272.5387266
51
273.2321742
0
ARC
8
DEFAULT_255_2_778
10
7.312233
20
2.5236301
40
2.7085747
50
270.0000701
51
272.5391867
0
ARC
8
DEFAULT_255_2_778
10
7.3121658
20
2.5224319
40
2.7073764
50
251.2284114
51
270.001492
0
ARC
8
DEFAULT_255_2_778
10
7.2067172
20
2.2707387
40
2.4352111
50
229.6751508
51
251.6718191
0
ARC
8
DEFAULT_255_2_778
10
5.4158524
20
0.1028495
40
0.3783347
50
55.3715083
51
64.8664746
0
ARC
8
DEFAULT_255_2_778
10
7.500173
20
2.3715535
40
1.9847289
50
224.8481094
51
237.2467902
0
ARC
8
DEFAULT_255_2_778
10
7.2816027
20
2.0250198
40
1.5750438
50
237.1135501
51
270.2260482
0
ARC
8
DEFAULT_255_2_778
10
7.2848445
20
2.2701298
40
1.820144
50
270.0935586
51
278.3288789
0
ARC
8
DEFAULT_255_2_778
10
7.2453873
20
2.5478978
40
2.1006982
50
278.2962862
51
284.1194972
0
ARC
8
DEFAULT_255_2_778
10
7.5567995
20
1.3635301
40
0.8762417
50
283.2639603
51
337.6104451
0
ARC
8
DEFAULT_255_2_778
10
7.2937297
20
1.5013915
40
1.1723087
50
336.2777672
51
341.5902271
0
ARC
8
DEFAULT_255_2_778
10
6.9859061
20
1.6074497
40
1.4978768
50
341.4595487
51
353.9568993
0
ARC
8
DEFAULT_255_2_778
10
6.9932209
20
1.6077065
40
1.4906302
50
353.9174805
51
358.5029695
0
ARC
8
DEFAULT_255_2_778
10
3.1741115
20
2.9082677
40
3.1176343
50
5.8644034
51
7.8349566
0
ARC
8
DEFAULT_255_2_778
10
-53.9712788
20
-3.2723346
40
60.5962436
50
6.1504382
51
6.1570025
0
ARC
8
DEFAULT_255_2_778
10
7.7351369
20
3.3346661
40
1.4634697
50
184.4974695
51
194.2889651
0
ARC
8
DEFAULT_255_2_778
10
7.6272732
20
3.3365036
40
1.3596931
50
195.4859097
51
213.0758824
0
ARC
8
DEFAULT_255_2_778
10
7.3151519
20
3.1390372
40
0.9903964
50
213.3578137
51
255.4560804
0
ARC
8
DEFAULT_255_2_778
10
7.4150824
20
3.4535942
40
1.3200874
50
254.6862553
51
262.852959
0
ARC
8
DEFAULT_255_2_778
10
7.4277166
20
3.4773043
40
1.3452194
50
262.4446617
51
269.9024616
0
ARC
8
DEFAULT_255_2_778
10
7.4393352
20
3.1897944
40
1.057799
50
269.2466197
51
315.0867283
0
ARC
8
DEFAULT_255_2_778
10
7.3141434
20
3.3372786
40
1.2506891
50
314.3512056
51
314.6787783
0
ARC
8
DEFAULT_255_2_778
10
7.401289
20
3.2607416
40
1.1350213
50
314.2673552
51
336.807918
0
ARC
8
DEFAULT_255_2_778
10
7.2983488
20
3.2869158
40
1.2400601
50
337.5693983
51
0.7298759
0
ARC
8
DEFAULT_255_2_778
10
6.8734445
20
3.3005015
40
1.6648652
50
0.0760805
51
5.5723282
0
ARC
8
DEFAULT_255_2_778
10
7.3544483
20
3.3523931
40
1.181106
50
5.3326968
51
39.9204739
0
ARC
8
DEFAULT_255_2_778
10
7.4214978
20
3.4107732
40
1.0922207
50
39.8288553
51
77.2503193
0
ARC
8
DEFAULT_255_2_778
10
7.3472018
20
3.0645336
40
1.4463252
50
77.4067232
51
85.5784056
0
ARC
8
DEFAULT_255_2_778
10
7.3649
20
3.2609929
40
1.2490886
50
85.6930596
51
89.9699126
0
ARC
8
DEFAULT_255_2_778
10
7.3549342
20
3.473454
40
1.0366819
50
89.4129431
51
132.1189911
0
ARC
8
DEFAULT_255_2_778
10
7.5225225
20
3.2659342
40
1.3030922
50
131.4652225
51
137.5612132
0
ARC
8
DEFAULT_255_2_778
10
7.4561369
20
3.3611078
40
1.1901483
50
138.7860681
51
178.5535093
0
ARC
8
DEFAULT_255_2_778
10
8.6293057
20
3.2071559
40
2.3700905
50
175.5475254
51
176.918494
0
ARC
8
DEFAULT_255_2_778
10
21.7176997
20
3.8048652
40
0.0496157
50
130.5526872
51
134.9212118
0
ARC
8
DEFAULT_255_2_778
10
21.6744176
20
3.8466901
40
0.0106211
50
280.9889871
51
320.9371714
0
LINE
8
DEFAULT_255_2_778
10
8.5039422
20
4.5246636
11
8.5060422
21
4.6839636
0
LINE
8
DEFAULT_255_2_778
10
8.5060422
20
4.6839636
11
8.5060422
21
5.0133636
0
LINE
8
DEFAULT_255_2_778
10
8.5060422
20
5.0133636
11
9.2114422
21
5.0133636
0
LINE
8
DEFAULT_255_2_778
10
9.2114422
20
5.0133636
11
9.2114422
21
4.8996636
0
LINE
8
DEFAULT_255_2_778
10
5.5765422
20
0.4453636
11
6.0422422
21
1.0134636
0
LINE
8
DEFAULT_255_2_778
10
6.0422422
20
1.0134636
11
6.0930422
21
0.9718636
0
LINE
8
DEFAULT_255_2_778
10
8.4833422
20
1.5687636
11
8.4833422
21
2.0714636
0
LINE
8
DEFAULT_255_2_778
10
8.4833422
20
2.0714636
11
8.4838422
21
2.0738636
0
LINE
8
DEFAULT_255_2_778
10
6.2626422
20
3.3345636
11
6.2626422
21
3.3332636
0
LINE
8
DEFAULT_255_2_778
10
19.4299422
20
3.8325636
11
19.4299422
21
1.5605636
0
LINE
8
DEFAULT_255_2_778
10
19.4299422
20
1.5605636
11
18.6811422
21
1.5605636
0
LINE
8
DEFAULT_255_2_778
10
18.6811422
20
1.5605636
11
18.6811422
21
6.7101636
0
LINE
8
DEFAULT_255_2_778
10
18.6811422
20
6.7101636
11
21.8709422
21
6.7101636
0
LINE
8
DEFAULT_255_2_778
10
21.8709422
20
6.7101636
11
21.8709422
21
6.0486636
0
LINE
8
DEFAULT_255_2_778
10
21.8709422
20
6.0486636
11
19.4352422
21
6.0486636
0
LINE
8
DEFAULT_255_2_778
10
19.4352422
20
6.0486636
11
19.4352422
21
4.4974636
0
LINE
8
DEFAULT_255_2_778
10
19.4352422
20
4.4974636
11
21.6921422
21
4.4974636
0
LINE
8
DEFAULT_255_2_778
10
21.6921422
20
4.4974636
11
21.6921422
21
3.8478636
0
LINE
8
DEFAULT_255_2_778
10
21.6921422
20
3.8478636
11
21.6854422
21
3.8425636
0
LINE
8
DEFAULT_255_2_778
10
21.6764422
20
3.8362636
11
19.4299422
21
3.8325636
0
ARC
8
DEFAULT_255_2_778
10
17.4137054
20
2.0016593
40
1.5674136
50
183.7693979
51
196.3443293
0
ARC
8
DEFAULT_255_2_778
10
7.3296886
20
1.0461632
40
8.5625331
50
5.7136123
51
6.4374059
0
ARC
8
DEFAULT_255_2_778
10
14.7673594
20
2.788647
40
1.3198311
50
272.6001491
51
320.1979917
0
ARC
8
DEFAULT_255_2_778
10
14.6856643
20
3.7348847
40
2.2691305
50
270.0522183
51
273.576979
0
ARC
8
DEFAULT_255_2_778
10
14.659411
20
2.9873313
40
1.5218397
50
246.6171757
51
271.066333
0
ARC
8
DEFAULT_255_2_778
10
14.5380597
20
2.6935363
40
1.2040234
50
229.17231
51
246.3690538
0
ARC
8
DEFAULT_255_2_778
10
14.3719592
20
2.4902797
40
0.9416566
50
183.9198155
51
228.7341175
0
ARC
8
DEFAULT_255_2_778
10
14.6967806
20
2.5400713
40
1.2694192
50
179.9444369
51
185.1597936
0
ARC
8
DEFAULT_255_2_778
10
14.8753632
20
2.5399838
40
1.4480018
50
175.3163844
51
179.9478241
0
ARC
8
DEFAULT_255_2_778
10
15.0182183
20
2.5295303
40
1.5912338
50
173.7857952
51
175.3612513
0
ARC
8
DEFAULT_255_2_778
10
14.2789136
20
2.6224934
40
0.846301
50
150.036405
51
174.6246602
0
ARC
8
DEFAULT_255_2_778
10
14.4256435
20
2.4974752
40
1.0364519
50
117.4614013
51
148.0998626
0
ARC
8
DEFAULT_255_2_778
10
14.7706658
20
1.9545774
40
1.6782118
50
117.932699
51
119.3664061
0
ARC
8
DEFAULT_255_2_778
10
14.8658719
20
1.7652208
40
1.8901112
50
96.7127271
51
117.7936613
0
ARC
8
DEFAULT_255_2_778
10
14.7410446
20
3.8474445
40
1.0686439
50
353.6027412
51
357.4886341
0
ARC
8
DEFAULT_255_2_778
10
14.8432794
20
3.8425187
40
0.9662917
50
357.5148056
51
359.984922
0
ARC
8
DEFAULT_255_2_778
10
15.0667421
20
3.8516128
40
0.7428877
50
359.2789791
51
19.6449737
0
ARC
8
DEFAULT_255_2_778
10
15.1826373
20
3.8736769
40
0.6265844
50
21.307899
51
78.0454411
0
ARC
8
DEFAULT_255_2_778
10
15.0587132
20
3.5217681
40
0.997702
50
75.2680916
51
82.5176738
0
ARC
8
DEFAULT_255_2_778
10
14.9751549
20
2.862481
40
1.662259
50
82.6212787
51
89.8668665
0
ARC
8
DEFAULT_255_2_778
10
14.9690095
20
3.2241961
40
1.3005778
50
89.5591114
51
117.6212924
0
ARC
8
DEFAULT_255_2_778
10
15.1137347
20
2.9557102
40
1.6055675
50
117.7552614
51
129.7731775
0
ARC
8
DEFAULT_255_2_778
10
15.361991
20
2.6415577
40
2.0058676
50
129.4825837
51
132.4307748
0
ARC
8
DEFAULT_255_2_778
10
14.3969351
20
3.8794359
40
1.0464421
50
122.0304147
51
137.5391435
0
ARC
8
DEFAULT_255_2_778
10
14.9802125
20
3.0870213
40
2.0289349
50
94.1740256
51
124.1265426
0
ARC
8
DEFAULT_255_2_778
10
15.0862731
20
1.991796
40
3.1290835
50
90.1847918
51
94.6512487
0
ARC
8
DEFAULT_255_2_778
10
15.101183
20
3.3432863
40
1.7777529
50
73.5960377
51
90.8058194
0
ARC
8
DEFAULT_255_2_778
10
15.1959745
20
3.6848055
40
1.4233762
50
56.6288152
51
73.3740502
0
ARC
8
DEFAULT_255_2_778
10
15.3502895
20
3.9365207
40
1.1283209
50
15.1880899
51
56.1420127
0
ARC
8
DEFAULT_255_2_778
10
14.9650504
20
3.8022368
40
1.5355524
50
10.0300128
51
16.2577339
0
ARC
8
DEFAULT_255_2_778
10
13.8784888
20
3.6485546
40
2.6325464
50
359.9525554
51
9.2049706
0
ARC
8
DEFAULT_255_2_778
10
15.5933966
20
-1.3398169
40
4.530693
50
87.2542598
51
88.7500714
0
ARC
8
DEFAULT_255_2_778
10
15.5935054
20
-1.3351275
40
4.5260023
50
88.7501545
51
89.9998889
0
ARC
8
DEFAULT_255_2_778
10
15.5932683
20
-1.3239054
40
4.5147801
50
89.9968791
51
98.9931492
0
ARC
8
DEFAULT_255_2_778
10
15.0381289
20
1.9311025
40
1.2136516
50
97.1278563
51
122.9376859
0
ARC
8
DEFAULT_255_2_778
10
14.620265
20
2.5610185
40
0.4578564
50
121.9120663
51
179.9786415
0
ARC
8
DEFAULT_255_2_778
10
14.6205751
20
2.5612213
40
0.4581663
50
180.004019
51
187.6947845
0
ARC
8
DEFAULT_255_2_778
10
14.6090818
20
2.5319868
40
0.443711
50
184.1502223
51
249.3491059
0
ARC
8
DEFAULT_255_2_778
10
14.7343601
20
2.7577659
40
0.7001758
50
246.2705821
51
247.8909265
0
ARC
8
DEFAULT_255_2_778
10
14.8182291
20
2.9798718
40
0.9375343
50
248.2510209
51
270.7600961
0
ARC
8
DEFAULT_255_2_778
10
14.820923
20
3.5607237
40
1.5183351
50
270.3676716
51
278.8277815
0
ARC
8
DEFAULT_255_2_778
10
14.9550804
20
2.8828842
40
0.8284286
50
276.8532604
51
333.572121
0
ARC
8
DEFAULT_255_2_778
10
14.7098576
20
3.0108314
40
1.1049834
50
333.2903257
51
2.052177
0
ARC
8
DEFAULT_255_2_778
10
13.3478755
20
3.0449992
40
2.4662628
50
0.1254798
51
3.265269
0
LINE
8
DEFAULT_255_2_778
10
16.5478343
20
1.5605747
11
15.9096343
21
1.5605747
0
LINE
8
DEFAULT_255_2_778
10
15.8382343
20
2.0061747
11
15.7813343
21
1.9437747
0
LINE
8
DEFAULT_255_2_778
10
14.6449343
20
3.6423747
11
15.4987343
21
3.7164747
0
LINE
8
DEFAULT_255_2_778
10
15.4987343
20
3.7164747
11
15.8030343
21
3.7283747
0
LINE
8
DEFAULT_255_2_778
10
14.0086343
20
4.1220747
11
13.6249343
21
4.5858747
0
LINE
8
DEFAULT_255_2_778
10
16.5110343
20
3.6463747
11
16.5163343
21
2.1117747
0
LINE
8
DEFAULT_255_2_778
10
16.5163343
20
2.1117747
11
16.5480343
21
1.5635747
0
LINE
8
DEFAULT_255_2_778
10
16.5480343
20
1.5635747
11
16.5478343
21
1.5605747
0
LINE
8
DEFAULT_255_2_778
10
15.8101343
20
3.1854747
11
15.8104343
21
3.1856747
0
LINE
8
DEFAULT_255_2_778
10
12.2470823
20
1.6722313
11
12.2470823
21
3.4357313
0
ARC
8
DEFAULT_255_2_778
10
5.5961098
20
3.4370586
40
6.6509726
50
359.9885658
51
0.3506197
0
ARC
8
DEFAULT_255_2_778
10
10.4465279
20
3.5259935
40
1.801076
50
358.4653744
51
15.3225068
0
ARC
8
DEFAULT_255_2_778
10
11.4116736
20
3.7750164
40
0.8045703
50
16.3815435
51
36.0766201
0
ARC
8
DEFAULT_255_2_778
10
11.5515704
20
3.8588262
40
0.6423157
50
37.3829082
51
87.6785836
0
ARC
8
DEFAULT_255_2_778
10
11.4952577
20
3.4982849
40
1.0057055
50
85.3043541
51
90.0592481
0
ARC
8
DEFAULT_255_2_778
10
11.4945415
20
3.3728767
40
1.1311133
50
90.0164003
51
92.3590905
0
ARC
8
DEFAULT_255_2_778
10
11.4740475
20
3.6860817
40
0.8173653
50
91.8274294
51
118.8777302
0
ARC
8
DEFAULT_255_2_778
10
11.5540117
20
3.5951458
40
0.9359755
50
120.4758983
51
163.8919831
0
ARC
8
DEFAULT_255_2_778
10
12.1772456
20
3.4042448
40
1.5877413
50
163.5134149
51
180.0601254
0
ARC
8
DEFAULT_255_2_778
10
12.2229688
20
3.4025774
40
1.6334636
50
179.9999553
51
180.8434783
0
LINE
8
DEFAULT_255_2_778
10
10.5896823
20
3.3785313
11
10.5896823
21
1.6709313
0
ARC
8
DEFAULT_255_2_778
10
60.786616
20
2.2475664
40
50.9159586
50
179.9588023
51
180.7805725
0
ARC
8
DEFAULT_255_2_778
10
87.0950445
20
2.2966562
40
77.224375
50
179.9991583
51
180.0092589
0
ARC
8
DEFAULT_255_2_778
10
175.41121
20
2.1968486
40
165.5405714
50
179.7556036
51
179.9650626
0
ARC
8
DEFAULT_255_2_778
10
-155.7297139
20
3.6091738
40
165.6033643
50
359.7556632
51
359.9651617
0
ARC
8
DEFAULT_255_2_778
10
-27.417841
20
3.6457301
40
37.2917135
50
359.7891251
51
2.0976853
0
ARC
8
DEFAULT_255_2_778
10
21.2377714
20
5.7296584
40
10.7308988
50
183.8414645
51
184.2103414
0
ARC
8
DEFAULT_255_2_778
10
5.230015
20
4.5381751
40
5.321149
50
3.01982
51
4.3503964
0
ARC
8
DEFAULT_255_2_778
10
8.2931693
20
4.7064711
40
2.2533922
50
1.5069513
51
2.8496908
0
ARC
8
DEFAULT_255_2_778
10
7.2991339
20
4.6877082
40
3.2475858
50
359.9102338
51
1.3766603
0
ARC
8
DEFAULT_255_2_778
10
-0.3745577
20
4.698662
40
10.9212852
50
359.4637225
51
359.9158405
0
ARC
8
DEFAULT_255_2_778
10
21.8344454
20
4.4929932
40
11.2886705
50
179.4749349
51
179.9343324
0
ARC
8
DEFAULT_255_2_778
10
11.0648219
20
3.4155594
40
1.2076063
50
113.8171351
51
115.455416
0
ARC
8
DEFAULT_255_2_778
10
10.5693369
20
4.5383724
40
0.0196734
50
293.4556074
51
325.1527365
0
ARC
8
DEFAULT_255_2_778
10
11.6376096
20
3.8748417
40
1.2379231
50
124.5916479
51
148.2022404
0
ARC
8
DEFAULT_255_2_778
10
11.6373194
20
3.8385286
40
1.2678235
50
96.3776556
51
123.6491332
0
ARC
8
DEFAULT_255_2_778
10
11.6935969
20
3.5446002
40
1.5663573
50
97.0450983
51
97.2292194
0
ARC
8
DEFAULT_255_2_778
10
11.7152406
20
3.4168646
40
1.695793
50
90.1256802
51
97.2415186
0
ARC
8
DEFAULT_255_2_778
10
11.7321071
20
3.8824171
40
1.2304086
50
56.6518571
51
90.9586748
0
ARC
8
DEFAULT_255_2_778
10
11.7183714
20
3.87044
40
1.2479742
50
55.8585251
51
56.4273539
0
ARC
8
DEFAULT_255_2_778
10
11.7512382
20
3.9200476
40
1.1884704
50
14.5903686
51
55.8277018
0
ARC
8
DEFAULT_255_2_778
10
11.1075787
20
3.7164739
40
1.8629809
50
0.0058257
51
15.6627524
0
ARC
8
DEFAULT_255_2_778
10
11.1134117
20
3.7166426
40
1.8571477
50
359.478252
51
0.0006368
0
LINE
8
DEFAULT_255_2_778
10
12.9704823
20
3.6997313
11
12.9704823
21
1.6270313
0
LINE
8
DEFAULT_255_2_778
10
12.9680823
20
1.5568313
11
12.2470823
21
1.5568313
0
LINE
8
DEFAULT_255_2_778
10
12.2470823
20
1.5568313
11
12.2470823
21
1.6722313
0
LINE
8
DEFAULT_255_2_778
10
10.5896823
20
1.6709313
11
10.5896823
21
1.5539313
0
LINE
8
DEFAULT_255_2_778
10
10.5896823
20
1.5539313
11
9.8753823
21
1.5539313
0
LINE
8
DEFAULT_255_2_778
10
9.8488823
20
5.0107313
11
10.5309823
21
5.0107313
0
LINE
8
DEFAULT_255_2_778
10
12.9704823
20
1.6270313
11
12.9680823
21
1.5568313
0
LINE
8
DEFAULT_255_2_778
10
17.9236409
20
6.7253231
11
17.9236409
21
1.6659231
0
ARC
8
DEFAULT_255_2_778
10
17.8461383
20
1.6610124
40
0.6397631
50
182.8033154
51
189.1639998
0
LINE
8
DEFAULT_255_2_778
10
17.2071409
20
1.6297231
11
17.2071409
21
6.7803231
0
ARC
8
DEFAULT_255_2_778
10
17.3905825
20
6.7827002
40
0.183457
50
179.9955405
51
180.7424136
0
ARC
8
DEFAULT_255_2_778
10
17.5186977
20
6.7800131
40
0.3115839
50
174.8785895
51
179.5032506
0
ARC
8
DEFAULT_255_2_778
10
19.0993484
20
6.6540788
40
1.8972308
50
175.1569703
51
175.3517499
0
ARC
8
DEFAULT_255_2_778
10
16.2327447
20
6.8983292
40
0.9797605
50
355.0773259
51
355.7736042
0
LINE
8
DEFAULT_255_2_778
10
17.2098409
20
6.8258231
11
17.9189409
21
6.8277231
0
LINE
8
DEFAULT_255_2_778
10
17.9189409
20
6.8277231
11
17.9236409
21
6.7253231
0
LINE
8
DEFAULT_255_2_778
10
17.9236409
20
1.6659231
11
17.9236409
21
1.5591231
0
LINE
8
DEFAULT_255_2_778
10
17.9236409
20
1.5591231
11
17.2145409
21
1.5591231
0
LINE
8
DEFAULT_255_2_778
10
17.2098409
20
6.8261231
11
17.2098409
21
6.8258231
0
LINE
8
DEFAULT_255_2_778
10
5.0133485
20
5.0171577
11
5.0133485
21
1.5606577
0
LINE
8
DEFAULT_255_2_778
10
5.0133485
20
1.5606577
11
4.2984485
21
1.5606577
0
LINE
8
DEFAULT_255_2_778
10
4.2984485
20
1.5606577
11
4.2984485
21
5.0171577
0
LINE
8
DEFAULT_255_2_778
10
4.2984485
20
5.0171577
11
5.0133485
21
5.0171577
0
ARC
8
DEFAULT_255_2_778
10
24.2837566
20
4.5070343
40
0.270836
50
179.9992327
51
182.0205772
0
ARC
8
DEFAULT_255_2_778
10
24.2827352
20
4.5070957
40
0.2698147
50
139.2317577
51
180.0122746
0
ARC
8
DEFAULT_255_2_778
10
24.39039
20
4.9177224
40
0.1056227
50
90.0113556
51
147.621094
0
ARC
8
DEFAULT_255_2_778
10
24.3903696
20
4.9173005
40
0.1060445
50
86.8541825
51
90.0002686
0
ARC
8
DEFAULT_255_2_778
10
25.2788944
20
4.8021276
40
0.223318
50
77.861903
51
81.8407054
0
ARC
8
DEFAULT_255_2_778
10
25.2367748
20
4.6223278
40
0.4079685
50
73.3468866
51
77.3883617
0
ARC
8
DEFAULT_255_2_778
10
-158.1052424
20
151.5933429
40
234.8260597
50
320.8903336
51
321.2831191
0
ARC
8
DEFAULT_255_2_778
10
23.3006396
20
4.1899455
40
1.0843659
50
310.9049487
51
317.93754
0
LINE
8
DEFAULT_255_2_778
10
24.013089
20
3.365585
11
24.013089
21
4.497485
0
LINE
8
DEFAULT_255_2_778
10
24.078389
20
4.683285
11
24.301189
21
4.974285
0
LINE
8
DEFAULT_255_2_778
10
24.396189
20
5.023185
11
25.310589
21
5.023185
0
LINE
8
DEFAULT_255_2_778
10
25.353689
20
5.013185
11
25.116889
21
4.716085
0
LINE
8
DEFAULT_255_2_778
10
24.010689
20
3.370385
11
24.013089
21
3.365585
0
LINE
8
DEFAULT_255_2_778
10
5.0119774
20
5.4094916
11
4.2981774
21
5.4094916
0
LINE
8
DEFAULT_255_2_778
10
4.2981774
20
5.4094916
11
4.2981774
21
6.1148916
0
LINE
8
DEFAULT_255_2_778
10
4.2981774
20
6.1148916
11
5.0119774
21
6.1148916
0
LINE
8
DEFAULT_255_2_778
10
5.0119774
20
6.1148916
11
5.0119774
21
5.4094916
0
ENDSEC
0
EOF