0
SECTION
2
HEADER
9
$MEASUREMENT
70
1
0
ENDSEC
0
SECTION
2
TABLES
0
TABLE
2
LTYPE
0
LTYPE
72
65
70
64
2
CONTINUOUS
3
______
73
0
40
0
0
ENDTAB
0
TABLE
2
LAYER
0
LAYER
2
DEFAULT_255_2_778
70
0
62
255
6
CONTINUOUS
0
ENDTAB
0
ENDSEC
0
SECTION
2
ENTITIES
0
ARC
8
DEFAULT_255_2_778
10
0.3862526
20
2.4798922
40
1.1346424
50
339.114474
51
348.570048
0
ARC
8
DEFAULT_255_2_778
10
0.370518
20
2.4811646
40
1.1503187
50
348.6632359
51
0.1012035
0
ARC
8
DEFAULT_255_2_778
10
-0.240289
20
2.4335197
40
1.7618244
50
1.6157354
51
22.8507245
0
ARC
8
DEFAULT_255_2_778
10
-4.2507484
20
0.8571482
40
6.0706002
50
21.8622034
51
26.2327329
0
ARC
8
DEFAULT_255_2_778
10
13.0512019
20
9.3021352
40
13.182392
50
204.5417632
51
205.9172875
0
ARC
8
DEFAULT_255_2_778
10
5.3343234
20
5.7512852
40
4.6878632
50
203.3669801
51
204.2385678
0
ARC
8
DEFAULT_255_2_778
10
2.6318483
20
4.6644402
40
1.7775202
50
183.7962453
51
205.7576983
0
ARC
8
DEFAULT_255_2_778
10
1.9226598
20
4.5714299
40
1.0647173
50
180.0019181
51
181.3280497
0
ARC
8
DEFAULT_255_2_778
10
1.860547
20
4.5728055
40
1.0026056
50
168.6809021
51
180.0806448
0
ARC
8
DEFAULT_255_2_778
10
2.2423365
20
4.4589498
40
1.3997971
50
132.3117679
51
167.1782946
0
ARC
8
DEFAULT_255_2_778
10
2.5444859
20
4.1781285
40
1.8111855
50
107.9892123
51
133.4000062
0
ARC
8
DEFAULT_255_2_778
10
2.6239317
20
3.9296092
40
2.0720921
50
89.7702877
51
107.9563044
0
ARC
8
DEFAULT_255_2_778
10
2.6318875
20
3.7326516
40
2.2690331
50
86.3209153
51
89.991118
0
ARC
8
DEFAULT_255_2_778
10
2.6234204
20
3.6270635
40
2.3749474
50
76.6140525
51
86.280524
0
ARC
8
DEFAULT_255_2_778
10
2.7047515
20
3.8347068
40
2.15434
50
33.7010592
51
77.4398768
0
ARC
8
DEFAULT_255_2_778
10
3.1944843
20
4.2245511
40
1.5315044
50
18.8508904
51
31.7330012
0
ARC
8
DEFAULT_255_2_778
10
3.5639225
20
4.3408175
40
1.1443535
50
0.0028042
51
19.3184142
0
ARC
8
DEFAULT_255_2_778
10
3.5651658
20
4.3408739
40
1.1431101
50
358.1946717
51
359.9999803
0
ARC
8
DEFAULT_255_2_778
10
3.5658169
20
4.3408452
40
1.1424585
50
351.6425047
51
358.1950825
0
ARC
8
DEFAULT_255_2_778
10
3.3730056
20
4.4408218
40
1.3496167
50
346.3571846
51
348.6316027
0
ARC
8
DEFAULT_255_2_778
10
4.2129332
20
4.2598854
40
0.491216
50
343.7574101
51
345.7074546
0
ARC
8
DEFAULT_255_2_778
10
4.684954
20
4.1396507
40
0.0041227
50
345.4848398
51
354.1583717
0
ARC
8
DEFAULT_255_2_778
10
4.7456298
20
4.1162287
40
0.0610979
50
157.8436444
51
164.1891164
0
ARC
8
DEFAULT_255_2_778
10
6.6526304
20
3.5075134
40
2.0628613
50
162.3529305
51
162.911271
0
ARC
8
DEFAULT_255_2_778
10
3.6703536
20
4.4680318
40
1.0708159
50
337.8783414
51
340.6760813
0
ARC
8
DEFAULT_255_2_778
10
5.525069
20
3.7282966
40
0.926026
50
158.6924856
51
159.7546141
0
ARC
8
DEFAULT_255_2_778
10
4.7708041
20
4.0047673
40
0.1227005
50
158.9995823
51
163.6533456
0
ARC
8
DEFAULT_255_2_778
10
4.6577323
20
4.0379197
40
0.0048689
50
163.5167781
51
175.6120527
0
ARC
8
DEFAULT_255_2_778
10
4.6530074
20
4.0382421
40
0.0001391
50
158.8902103
51
246.2005484
0
ARC
8
DEFAULT_255_2_778
10
4.6435888
20
4.0460704
40
0.012286
50
319.6445808
51
338.8087441
0
ARC
8
DEFAULT_255_2_778
10
4.4636856
20
4.1358423
40
0.2132935
50
333.7872184
51
336.1697821
0
ARC
8
DEFAULT_255_2_778
10
4.3575709
20
4.183766
40
0.3297255
50
336.0021279
51
336.3523119
0
ARC
8
DEFAULT_255_2_778
10
4.5483196
20
4.1028024
40
0.1225412
50
335.2550883
51
341.6472648
0
ARC
8
DEFAULT_255_2_778
10
4.6622303
20
4.0648755
40
0.0024861
50
344.6711575
51
356.8883579
0
ARC
8
DEFAULT_255_2_778
10
4.6645942
20
4.0647846
40
0.0001263
50
339.6165713
51
70.62214
0
ARC
8
DEFAULT_255_2_778
10
4.6806491
20
4.0510441
40
0.0211779
50
139.1231578
51
156.8382678
0
ARC
8
DEFAULT_255_2_778
10
5.1240243
20
3.8110368
40
0.5252597
50
151.7844945
51
153.4732694
0
ARC
8
DEFAULT_255_2_778
10
5.9318413
20
3.4025005
40
1.4305012
50
153.2832324
51
153.589347
0
ARC
8
DEFAULT_255_2_778
10
2.3194956
20
5.3721468
40
2.6866985
50
327.8910223
51
327.9918612
0
ARC
8
DEFAULT_255_2_778
10
2.3813954
20
5.3333864
40
2.6136648
50
327.7794237
51
327.8894847
0
ARC
8
DEFAULT_255_2_778
10
2.4813837
20
5.2702585
40
2.495416
50
327.6915651
51
327.7815948
0
ARC
8
DEFAULT_255_2_778
10
5.0260118
20
3.654612
40
0.5188152
50
147.0871907
51
148.5175204
0
ARC
8
DEFAULT_255_2_778
10
4.4826104
20
4.0016139
40
0.1264029
50
323.0061824
51
325.8058394
0
ARC
8
DEFAULT_255_2_778
10
6.7069033
20
2.4380889
40
2.5924536
50
144.4468961
51
144.8510293
0
ARC
8
DEFAULT_255_2_778
10
3.3230382
20
4.909808
40
1.5996897
50
309.4121523
51
320.0206896
0
ARC
8
DEFAULT_255_2_778
10
1.7421364
20
6.8258265
40
4.083712
50
303.6260797
51
309.4813732
0
ARC
8
DEFAULT_255_2_778
10
-4.0678289
20
15.3847563
40
14.4281913
50
303.1465065
51
304.0156303
0
ARC
8
DEFAULT_255_2_778
10
21.8892429
20
-24.4255157
40
33.0968321
50
123.087096
51
123.4059039
0
ARC
8
DEFAULT_255_2_778
10
8.5800932
20
-4.2442127
40
8.9220838
50
123.4110055
51
124.6385787
0
ARC
8
DEFAULT_255_2_778
10
5.0732058
20
0.6862729
40
2.8733947
50
122.9867588
51
140.1957498
0
ARC
8
DEFAULT_255_2_778
10
3.7383717
20
1.8060149
40
1.1311199
50
140.484979
51
178.7819088
0
ARC
8
DEFAULT_255_2_778
10
3.6663251
20
1.8237843
40
1.0588363
50
179.6603832
51
180.002006
0
ARC
8
DEFAULT_255_2_778
10
3.6951122
20
1.8240112
40
1.0876236
50
180.0139084
51
184.0135977
0
ARC
8
DEFAULT_255_2_778
10
3.7284384
20
1.8260708
40
1.1210122
50
183.9993833
51
184.9116693
0
ARC
8
DEFAULT_255_2_778
10
2.7893957
20
1.7365912
40
0.1779717
50
182.0934776
51
222.4852232
0
ARC
8
DEFAULT_255_2_778
10
2.7360286
20
1.6944761
40
0.1102843
50
225.0766351
51
270.7524732
0
ARC
8
DEFAULT_255_2_778
10
2.7347982
20
1.7458094
40
0.1616305
50
270.9496088
51
293.517032
0
ARC
8
DEFAULT_255_2_778
10
2.7083186
20
1.8156208
40
0.2362365
50
292.6496999
51
298.9430258
0
ARC
8
DEFAULT_255_2_778
10
2.6017711
20
1.9750043
40
0.4275793
50
301.1019949
51
346.8367342
0
ARC
8
DEFAULT_255_2_778
10
2.7258627
20
1.9422219
40
0.2993052
50
347.5377704
51
359.7322047
0
ARC
8
DEFAULT_255_2_778
10
2.7713828
20
1.9409353
40
0.253782
50
359.9746606
51
4.0116998
0
ARC
8
DEFAULT_255_2_778
10
2.5755061
20
1.9550772
40
0.4490512
50
0.4609566
51
4.4870589
0
ARC
8
DEFAULT_255_2_778
10
-0.0236326
20
1.7746734
40
3.0544276
50
4.0464243
51
4.1769171
0
ARC
8
DEFAULT_255_2_778
10
3.6025456
20
2.0451201
40
0.5818444
50
181.263529
51
184.7294194
0
ARC
8
DEFAULT_255_2_778
10
3.2685618
20
2.0213444
40
0.2479606
50
175.8680879
51
177.470029
0
ARC
8
DEFAULT_255_2_778
10
-10.210566
20
2.9051702
40
13.2601178
50
356.255602
51
356.3146886
0
ARC
8
DEFAULT_255_2_778
10
0.525194
20
2.2122905
40
2.5020226
50
356.3465211
51
356.4186029
0
ARC
8
DEFAULT_255_2_778
10
2.502853
20
2.0928058
40
0.5207798
50
355.9470473
51
358.3635836
0
ARC
8
DEFAULT_255_2_778
10
3.0193586
20
2.078573
40
0.0040991
50
352.291653
51
17.7281804
0
ARC
8
DEFAULT_255_2_778
10
3.0349587
20
2.0754
40
0.0125035
50
159.2924826
51
177.1582811
0
ARC
8
DEFAULT_255_2_778
10
3.4781406
20
2.0116887
40
0.4601887
50
171.9641345
51
173.5743916
0
ARC
8
DEFAULT_255_2_778
10
2.4677966
20
2.2522879
40
0.5777793
50
347.9015497
51
349.5374366
0
ARC
8
DEFAULT_255_2_778
10
2.982219
20
2.158606
40
0.0549129
50
348.1900486
51
355.7641318
0
ARC
8
DEFAULT_255_2_778
10
3.0364584
20
2.1547209
40
0.0005506
50
341.9150968
51
45.1106885
0
ARC
8
DEFAULT_255_2_778
10
3.0549862
20
2.1448403
40
0.0208451
50
150.4804954
51
168.5235379
0
ARC
8
DEFAULT_255_2_778
10
3.2120871
20
2.0966975
40
0.1850699
50
163.5879468
51
164.8189331
0
ARC
8
DEFAULT_255_2_778
10
3.2541083
20
2.0851852
40
0.2286394
50
164.7922708
51
165.7271604
0
ARC
8
DEFAULT_255_2_778
10
3.111219
20
2.1191781
40
0.0818121
50
164.1271758
51
173.2767708
0
ARC
8
DEFAULT_255_2_778
10
3.030586
20
2.1285193
40
0.0006527
50
160.8624587
51
233.1663909
0
ARC
8
DEFAULT_255_2_778
10
3.0212913
20
2.1359395
40
0.0119314
50
318.2639025
51
345.5398467
0
ARC
8
DEFAULT_255_2_778
10
2.743042
20
2.2498151
40
0.3124751
50
338.0396011
51
340.882229
0
ARC
8
DEFAULT_255_2_778
10
2.2812547
20
2.4153954
40
0.8030397
50
340.5106668
51
340.7385987
0
ARC
8
DEFAULT_255_2_778
10
3.4315552
20
1.9981658
40
0.4207531
50
155.9790059
51
158.7752492
0
ARC
8
DEFAULT_255_2_778
10
4.7007812
20
1.4529765
40
1.8020872
50
156.5182774
51
156.5733012
0
LINE
8
DEFAULT_255_2_778
10
3.0479298
20
2.1710299
11
3.0481049
21
2.1714331
0
ARC
8
DEFAULT_255_2_778
10
2.2347481
20
2.5317564
40
0.8895966
50
336.1062886
51
337.542287
0
ARC
8
DEFAULT_255_2_778
10
3.0501537
20
2.1949097
40
0.0073566
50
336.0993247
51
347.4923425
0
ARC
8
DEFAULT_255_2_778
10
3.0957025
20
2.1682704
40
0.0458583
50
146.8322286
51
155.9183119
0
ARC
8
DEFAULT_255_2_778
10
4.4740147
20
1.4704996
40
1.5906781
50
153.2289802
51
153.9687802
0
ARC
8
DEFAULT_255_2_778
10
7.0330397
20
0.211676
40
4.4425585
50
153.8647463
51
153.9192651
0
ARC
8
DEFAULT_255_2_778
10
2.5718856
20
2.5258634
40
0.5868385
50
329.2355625
51
330.8798636
0
ARC
8
DEFAULT_255_2_778
10
3.0495209
20
2.2617245
40
0.0410691
50
328.527818
51
339.1745233
0
ARC
8
DEFAULT_255_2_778
10
3.0871324
20
2.2472922
40
0.0007926
50
347.7093792
51
358.8690461
0
ARC
8
DEFAULT_255_2_778
10
3.0878253
20
2.247309
40
0.0001047
50
341.9582949
51
82.8464296
0
ARC
8
DEFAULT_255_2_778
10
3.0971028
20
2.2361177
40
0.0146088
50
129.3586809
51
148.3451317
0
ARC
8
DEFAULT_255_2_778
10
3.2753763
20
2.1029407
40
0.2370798
50
143.5531349
51
145.9881706
0
ARC
8
DEFAULT_255_2_778
10
3.3861001
20
2.0268174
40
0.3714437
50
145.8084001
51
146.0744352
0
ARC
8
DEFAULT_255_2_778
10
3.2087214
20
2.1433401
40
0.159245
50
145.2427469
51
150.5458241
0
ARC
8
DEFAULT_255_2_778
10
3.0721101
20
2.2204638
40
0.0023669
50
150.057101
51
169.0446657
0
ARC
8
DEFAULT_255_2_778
10
3.0698427
20
2.2208971
40
0.0000586
50
163.6976383
51
266.1111179
0
ARC
8
DEFAULT_255_2_778
10
3.0553696
20
2.2374031
40
0.021994
50
311.1370925
51
326.623469
0
ARC
8
DEFAULT_255_2_778
10
2.6233864
20
2.5729433
40
0.5689189
50
322.3342636
51
323.9697027
0
ARC
8
DEFAULT_255_2_778
10
1.8414105
20
3.1484728
40
1.5398512
50
323.7663259
51
323.8904116
0
ARC
8
DEFAULT_255_2_778
10
3.7730612
20
1.7658772
40
0.8341135
50
132.6352419
51
138.7186154
0
ARC
8
DEFAULT_255_2_778
10
4.5863188
20
0.890635
40
2.0288623
50
128.9274226
51
132.7897521
0
ARC
8
DEFAULT_255_2_778
10
5.2853648
20
0.042708
40
3.1277557
50
128.2228043
51
129.1295678
0
ARC
8
DEFAULT_255_2_778
10
5.7469177
20
-0.5460354
40
3.8758517
50
126.5213049
51
128.1981595
0
ARC
8
DEFAULT_255_2_778
10
6.0204961
20
-0.9117869
40
4.3325958
50
124.4356844
51
126.5502761
0
ARC
8
DEFAULT_255_2_778
10
5.6329452
20
-0.3483445
40
3.6487376
50
123.6588775
51
124.4196491
0
ARC
8
DEFAULT_255_2_778
10
11.6621034
20
-9.1911927
40
14.3512239
50
123.2644343
51
124.1270273
0
ARC
8
DEFAULT_255_2_778
10
-111.183603
20
177.6597095
40
209.2652578
50
303.3270633
51
303.3629008
0
ARC
8
DEFAULT_255_2_778
10
1.8435383
20
6.2763499
40
3.969857
50
301.1951683
51
316.1946824
0
ARC
8
DEFAULT_255_2_778
10
3.1961252
20
4.8718591
40
2.0229767
50
318.385709
51
322.0179558
0
ARC
8
DEFAULT_255_2_778
10
3.5758594
20
4.5787887
40
1.5433114
50
321.9179096
51
337.7700639
0
ARC
8
DEFAULT_255_2_778
10
3.6249384
20
4.5540473
40
1.4885262
50
337.936914
51
0.1384285
0
ARC
8
DEFAULT_255_2_778
10
3.520258
20
4.5569576
40
1.5932024
50
0.0246689
51
6.3696593
0
ARC
8
DEFAULT_255_2_778
10
3.3656124
20
4.5352976
40
1.749302
50
6.5127778
51
20.785829
0
ARC
8
DEFAULT_255_2_778
10
3.1852712
20
4.4721158
40
1.9403333
50
20.6402757
51
25.8912365
0
ARC
8
DEFAULT_255_2_778
10
3.0848811
20
4.349976
40
2.0850271
50
27.7063819
51
65.6693525
0
ARC
8
DEFAULT_255_2_778
10
2.6543809
20
3.6018423
40
2.9452798
50
64.0344204
51
74.9325687
0
ARC
8
DEFAULT_255_2_778
10
2.636838
20
3.5478025
40
3.0020236
50
74.8773752
51
76.6570451
0
ARC
8
DEFAULT_255_2_778
10
2.8154685
20
4.3016189
40
2.2273315
50
76.6530171
51
81.9751917
0
ARC
8
DEFAULT_255_2_778
10
2.8142894
20
4.2911236
40
2.2378886
50
81.9828094
51
89.9480781
0
ARC
8
DEFAULT_255_2_778
10
2.8144935
20
5.050546
40
1.4784665
50
89.9293182
51
90.0235702
0
ARC
8
DEFAULT_255_2_778
10
2.8454224
20
4.0798303
40
2.4493854
50
90.7377335
51
151.378156
0
ARC
8
DEFAULT_255_2_778
10
2.7789501
20
4.1172103
40
2.3731301
50
151.4015812
51
158.1798362
0
ARC
8
DEFAULT_255_2_778
10
2.1435228
20
4.3449228
40
1.6987691
50
157.3438007
51
179.9961597
0
ARC
8
DEFAULT_255_2_778
10
2.1411919
20
4.3450304
40
1.6964384
50
179.9997856
51
182.9017804
0
ARC
8
DEFAULT_255_2_778
10
2.1409247
20
4.3450092
40
1.6961704
50
182.9015227
51
185.0131674
0
ARC
8
DEFAULT_255_2_778
10
2.8976681
20
4.5356941
40
2.469788
50
187.8870102
51
206.3003203
0
ARC
8
DEFAULT_255_2_778
10
11.3116429
20
8.2286041
40
11.6564974
50
204.2482265
51
205.6474222
0
ARC
8
DEFAULT_255_2_778
10
-265.5389774
20
-123.4031304
40
294.8940423
50
25.4171507
51
25.4206528
0
ARC
8
DEFAULT_255_2_778
10
-5.0437292
20
0.2992677
40
6.5196531
50
21.7794874
51
26.095112
0
ARC
8
DEFAULT_255_2_778
10
-0.5887427
20
2.0782866
40
1.7225906
50
11.9190571
51
21.8103366
0
ARC
8
DEFAULT_255_2_778
10
0.2926266
20
2.2712291
40
0.8204026
50
0.5164535
51
11.447371
0
ARC
8
DEFAULT_255_2_778
10
0.6408524
20
2.2711157
40
0.4722032
50
340.0228819
51
0.9110745
0
ARC
8
DEFAULT_255_2_778
10
1.4383956
20
1.9792915
40
0.3770555
50
159.7511267
51
171.8037889
0
ARC
8
DEFAULT_255_2_778
10
1.4291565
20
1.9789495
40
0.3679632
50
171.5459863
51
177.7629687
0
ARC
8
DEFAULT_255_2_778
10
1.3822997
20
1.9812573
40
0.3210524
50
177.8481083
51
179.9869374
0
ARC
8
DEFAULT_255_2_778
10
1.2052112
20
1.9644117
40
0.1449547
50
173.2972758
51
236.0939597
0
ARC
8
DEFAULT_255_2_778
10
1.1791321
20
1.9519787
40
0.1209854
50
243.0770341
51
265.3589694
0
ARC
8
DEFAULT_255_2_778
10
1.1855851
20
2.0015999
40
0.1709832
50
264.5490579
51
269.9931534
0
ARC
8
DEFAULT_255_2_778
10
1.1555869
20
2.1006125
40
0.271655
50
276.3356167
51
331.4599649
0
ARC
8
DEFAULT_255_2_778
10
0.9582168
20
2.2621872
40
0.5244061
50
326.2474169
51
330.3761563
0
ARC
8
DEFAULT_255_2_778
10
0.9653989
20
2.2591045
40
0.5166399
50
330.2796269
51
338.716311
0
ARC
8
DEFAULT_255_2_778
10
1.0319862
20
2.2317501
40
0.4446667
50
338.8862015
51
339.4814828
0
LINE
8
DEFAULT_255_2_778
10
4.6506428
20
4.0387899
11
4.5977428
21
3.9480899
0
LINE
8
DEFAULT_255_2_778
10
4.5977428
20
3.9454899
11
4.5488428
21
3.8819899
0
LINE
8
DEFAULT_255_2_778
10
3.0208428
20
2.0631899
11
3.0327428
21
2.1311899
0
LINE
8
DEFAULT_255_2_778
10
3.0428428
20
2.1647899
11
3.0761428
21
2.2256899
0
LINE
8
DEFAULT_255_2_778
10
3.0854428
20
2.2409899
11
3.1462428
21
2.3161899
0
ARC
8
DEFAULT_255_2_778
10
0.2648209
20
2.5951036
40
1.1351402
50
339.1173614
51
348.5713542
0
ARC
8
DEFAULT_255_2_778
10
0.2491704
20
2.5963608
40
1.1507309
50
348.6644069
51
0.1011432
0
ARC
8
DEFAULT_255_2_778
10
-0.3629343
20
2.5485093
40
1.7635395
50
1.6208639
51
22.877228
0
ARC
8
DEFAULT_255_2_778
10
-4.3834951
20
0.9668965
40
6.0836277
50
21.8805506
51
26.2324768
0
ARC
8
DEFAULT_255_2_778
10
14.3649065
20
10.1020632
40
14.7720042
50
204.7390337
51
205.8727445
0
ARC
8
DEFAULT_255_2_778
10
5.4158492
20
5.9561286
40
4.909289
50
203.3903035
51
204.5011807
0
ARC
8
DEFAULT_255_2_778
10
2.4957568
20
4.7746038
40
1.7616977
50
183.1521
51
205.8245977
0
ARC
8
DEFAULT_255_2_778
10
1.8024887
20
4.6887759
40
1.0658214
50
180.0019039
51
180.5936089
0
ARC
8
DEFAULT_255_2_778
10
1.7410379
20
4.6901877
40
1.0043716
50
168.8287197
51
180.0825606
0
ARC
8
DEFAULT_255_2_778
10
2.1213128
20
4.5732869
40
1.4006905
50
132.3184676
51
167.1509348
0
ARC
8
DEFAULT_255_2_778
10
2.4209481
20
4.2977496
40
1.8065162
50
108.7289822
51
133.4618727
0
ARC
8
DEFAULT_255_2_778
10
2.49941
20
4.0562365
40
2.0604368
50
89.7416025
51
108.6388651
0
ARC
8
DEFAULT_255_2_778
10
2.5081156
20
3.8330444
40
2.2836079
50
85.4940321
51
89.985279
0
ARC
8
DEFAULT_255_2_778
10
2.4973224
20
3.7133768
40
2.403754
50
76.6708197
51
85.4616538
0
ARC
8
DEFAULT_255_2_778
10
2.5857091
20
3.9537881
40
2.1496592
50
33.5466191
51
77.4859095
0
ARC
8
DEFAULT_255_2_778
10
3.0722912
20
4.3393433
40
1.5319581
50
18.848859
51
31.5848467
0
ARC
8
DEFAULT_255_2_778
10
3.4424106
20
4.4554915
40
1.1442031
50
0.0051388
51
19.3323796
0
ARC
8
DEFAULT_255_2_778
10
3.4446576
20
4.4555931
40
1.141956
50
358.2946303
51
0.0000547
0
ARC
8
DEFAULT_255_2_778
10
3.4455084
20
4.4555568
40
1.1411045
50
351.7124863
51
358.2951793
0
ARC
8
DEFAULT_255_2_778
10
3.2733282
20
4.5516826
40
1.3272056
50
346.3589884
51
348.6760329
0
ARC
8
DEFAULT_255_2_778
10
4.1007166
20
4.3731207
40
0.4815291
50
343.7874801
51
345.7835244
0
ARC
8
DEFAULT_255_2_778
10
4.5634678
20
4.2558991
40
0.0041619
50
345.596179
51
354.2977137
0
ARC
8
DEFAULT_255_2_778
10
4.6225067
20
4.2330063
40
0.0593494
50
157.6988322
51
164.2257933
0
ARC
8
DEFAULT_255_2_778
10
6.4660275
20
3.6439421
40
1.9946626
50
162.3375423
51
162.9143041
0
ARC
8
DEFAULT_255_2_778
10
3.5720055
20
4.5747755
40
1.0458618
50
337.8811031
51
340.7507364
0
ARC
8
DEFAULT_255_2_778
10
5.4036199
20
3.8444852
40
0.9260229
50
158.6924848
51
159.7546133
0
ARC
8
DEFAULT_255_2_778
10
4.6494149
20
4.1209334
40
0.1227614
50
158.9997704
51
163.6509372
0
ARC
8
DEFAULT_255_2_778
10
4.5362835
20
4.1541082
40
0.0048662
50
163.5120189
51
175.6083813
0
ARC
8
DEFAULT_255_2_778
10
4.5315613
20
4.154431
40
0.000139
50
158.9712444
51
246.0733475
0
ARC
8
DEFAULT_255_2_778
10
4.5221261
20
4.1622655
40
0.0123024
50
319.6723924
51
338.8201751
0
ARC
8
DEFAULT_255_2_778
10
4.3418867
20
4.2521397
40
0.2136563
50
333.8034456
51
336.1836935
0
ARC
8
DEFAULT_255_2_778
10
4.2495404
20
4.2939317
40
0.315016
50
336.0121432
51
336.3808367
0
ARC
8
DEFAULT_255_2_778
10
4.4275189
20
4.2186832
40
0.1218212
50
335.269248
51
341.704334
0
ARC
8
DEFAULT_255_2_778
10
4.5407475
20
4.1811025
40
0.0025227
50
344.8005687
51
356.9178402
0
ARC
8
DEFAULT_255_2_778
10
4.5431453
20
4.1810119
40
0.0001292
50
339.6015158
51
70.6370245
0
ARC
8
DEFAULT_255_2_778
10
4.5589881
20
4.167372
40
0.0209529
50
138.9443312
51
156.8329037
0
ARC
8
DEFAULT_255_2_778
10
4.9952558
20
3.9306716
40
0.5172095
50
151.7326359
51
153.4445112
0
ARC
8
DEFAULT_255_2_778
10
5.7816531
20
3.5322692
40
1.3987629
50
153.2478316
51
153.560251
0
ARC
8
DEFAULT_255_2_778
10
2.1980494
20
5.4883343
40
2.6866985
50
327.8910223
51
327.9918612
0
ARC
8
DEFAULT_255_2_778
10
2.2599492
20
5.4495739
40
2.6136648
50
327.7794237
51
327.8894847
0
ARC
8
DEFAULT_255_2_778
10
2.3599375
20
5.3864459
40
2.495416
50
327.6915651
51
327.7815948
0
ARC
8
DEFAULT_255_2_778
10
4.9045657
20
3.7707995
40
0.5188152
50
147.0871907
51
148.5175204
0
ARC
8
DEFAULT_255_2_778
10
4.3611642
20
4.1178014
40
0.1264029
50
323.0061824
51
325.8058394
0
ARC
8
DEFAULT_255_2_778
10
6.5854571
20
2.5542764
40
2.5924536
50
144.4468961
51
144.8510293
0
ARC
8
DEFAULT_255_2_778
10
3.201592
20
5.0259955
40
1.5996897
50
309.4121523
51
320.0206896
0
ARC
8
DEFAULT_255_2_778
10
1.6206902
20
6.942014
40
4.083712
50
303.6260797
51
309.4813732
0
ARC
8
DEFAULT_255_2_778
10
-4.1892751
20
15.5009438
40
14.4281913
50
303.1465065
51
304.0156303
0
ARC
8
DEFAULT_255_2_778
10
21.7677968
20
-24.3093283
40
33.0968321
50
123.087096
51
123.4059039
0
ARC
8
DEFAULT_255_2_778
10
8.4586471
20
-4.1280253
40
8.9220838
50
123.4110055
51
124.6385787
0
ARC
8
DEFAULT_255_2_778
10
4.9517596
20
0.8024604
40
2.8733947
50
122.9867588
51
140.1957498
0
ARC
8
DEFAULT_255_2_778
10
3.6169256
20
1.9222024
40
1.1311199
50
140.484979
51
178.7819088
0
ARC
8
DEFAULT_255_2_778
10
3.5448789
20
1.9399717
40
1.0588363
50
179.6603832
51
180.002006
0
ARC
8
DEFAULT_255_2_778
10
3.573666
20
1.9401987
40
1.0876236
50
180.0139084
51
184.0135977
0
ARC
8
DEFAULT_255_2_778
10
3.6069922
20
1.9422582
40
1.1210122
50
183.9993833
51
184.9116693
0
ARC
8
DEFAULT_255_2_778
10
2.668051
20
1.8529326
40
0.1780787
50
182.141772
51
222.5678957
0
ARC
8
DEFAULT_255_2_778
10
2.6146517
20
1.8106725
40
0.1102775
50
225.1661174
51
270.7468595
0
ARC
8
DEFAULT_255_2_778
10
2.6134139
20
1.8618849
40
0.1615027
50
270.9491275
51
293.5182414
0
ARC
8
DEFAULT_255_2_778
10
2.5869335
20
1.9316944
40
0.2361072
50
292.6504029
51
298.9434223
0
ARC
8
DEFAULT_255_2_778
10
2.4801653
20
2.0913073
40
0.4277607
50
301.1123078
51
346.7631087
0
ARC
8
DEFAULT_255_2_778
10
2.6042948
20
2.0584519
40
0.2994271
50
347.4442634
51
359.7265389
0
ARC
8
DEFAULT_255_2_778
10
2.6502987
20
2.0571354
40
0.2534199
50
359.9745362
51
4.0145698
0
ARC
8
DEFAULT_255_2_778
10
2.3939627
20
2.0692784
40
0.5091647
50
0.6300603
51
4.7766439
0
ARC
8
DEFAULT_255_2_778
10
-0.7134734
20
1.8503693
40
3.6242649
50
4.1345906
51
4.1614755
0
ARC
8
DEFAULT_255_2_778
10
3.482301
20
2.1614241
40
0.5830482
50
181.2723754
51
184.7272644
0
ARC
8
DEFAULT_255_2_778
10
3.147921
20
2.1375031
40
0.2487665
50
175.873257
51
177.4716055
0
ARC
8
DEFAULT_255_2_778
10
-10.3813925
20
3.0236315
40
13.3095408
50
356.2597465
51
356.3186793
0
ARC
8
DEFAULT_255_2_778
10
-0.2253235
20
2.368146
40
3.1323418
50
356.3560414
51
356.4135945
0
ARC
8
DEFAULT_255_2_778
10
2.3797447
20
2.2090905
40
0.5224429
50
355.9515898
51
358.363007
0
ARC
8
DEFAULT_255_2_778
10
2.8979114
20
2.1948044
40
0.0041
50
352.3015842
51
17.6936225
0
ARC
8
DEFAULT_255_2_778
10
2.9135849
20
2.1916163
40
0.0125753
50
159.3535468
51
177.1583982
0
ARC
8
DEFAULT_255_2_778
10
3.3591124
20
2.1277109
40
0.46261
50
171.9817379
51
173.5875596
0
ARC
8
DEFAULT_255_2_778
10
2.3470873
20
2.3681549
40
0.5769917
50
347.9173216
51
349.5580298
0
ARC
8
DEFAULT_255_2_778
10
2.8605993
20
2.2748322
40
0.0550853
50
348.2146155
51
355.7875916
0
ARC
8
DEFAULT_255_2_778
10
2.9150043
20
2.2709589
40
0.0005588
50
341.9701497
51
45.002587
0
ARC
8
DEFAULT_255_2_778
10
2.9333855
20
2.2611332
40
0.0206874
50
150.3924435
51
168.5408363
0
ARC
8
DEFAULT_255_2_778
10
3.0899029
20
2.2131364
40
0.1843113
50
163.5779537
51
164.8119767
0
ARC
8
DEFAULT_255_2_778
10
3.1307862
20
2.2019156
40
0.2267063
50
164.7821465
51
165.7301095
0
ARC
8
DEFAULT_255_2_778
10
2.9891904
20
2.2355709
40
0.0812157
50
164.1178549
51
173.3373472
0
ARC
8
DEFAULT_255_2_778
10
2.9091455
20
2.2447663
40
0.0006588
50
160.8541324
51
233.2073054
0
ARC
8
DEFAULT_255_2_778
10
2.8999251
20
2.2521522
40
0.011854
50
318.119208
51
345.5319789
0
ARC
8
DEFAULT_255_2_778
10
2.6242962
20
2.3652066
40
0.3096615
50
337.9970422
51
340.8591282
0
ARC
8
DEFAULT_255_2_778
10
2.154085
20
2.5339557
40
0.8092256
50
340.4880199
51
340.7136803
0
ARC
8
DEFAULT_255_2_778
10
3.310109
20
2.1143533
40
0.4207531
50
155.9790059
51
158.7752492
0
ARC
8
DEFAULT_255_2_778
10
4.579335
20
1.569164
40
1.8020872
50
156.5182774
51
156.5733012
0
LINE
8
DEFAULT_255_2_778
10
2.9264836
20
2.2872174
11
2.9266587
21
2.2876206
0
ARC
8
DEFAULT_255_2_778
10
2.1133019
20
2.6479439
40
0.8895966
50
336.1062886
51
337.542287
0
ARC
8
DEFAULT_255_2_778
10
2.9287075
20
2.3110971
40
0.0073566
50
336.0993247
51
347.4923425
0
ARC
8
DEFAULT_255_2_778
10
2.9742563
20
2.2844579
40
0.0458583
50
146.8322286
51
155.9183119
0
ARC
8
DEFAULT_255_2_778
10
4.3525685
20
1.5866871
40
1.5906781
50
153.2289802
51
153.9687802
0
ARC
8
DEFAULT_255_2_778
10
6.9115935
20
0.3278635
40
4.4425585
50
153.8647463
51
153.9192651
0
ARC
8
DEFAULT_255_2_778
10
2.4504395
20
2.6420509
40
0.5868385
50
329.2355625
51
330.8798636
0
ARC
8
DEFAULT_255_2_778
10
2.9280747
20
2.377912
40
0.0410691
50
328.527818
51
339.1745233
0
ARC
8
DEFAULT_255_2_778
10
2.9656862
20
2.3634797
40
0.0007926
50
347.7093792
51
358.8690461
0
ARC
8
DEFAULT_255_2_778
10
2.9663791
20
2.3634965
40
0.0001047
50
341.9582949
51
82.8464296
0
ARC
8
DEFAULT_255_2_778
10
2.9756566
20
2.3523051
40
0.0146088
50
129.3586809
51
148.3451317
0
ARC
8
DEFAULT_255_2_778
10
3.1539302
20
2.2191282
40
0.2370798
50
143.5531349
51
145.9881706
0
ARC
8
DEFAULT_255_2_778
10
3.2646539
20
2.1430049
40
0.3714437
50
145.8084001
51
146.0744352
0
ARC
8
DEFAULT_255_2_778
10
3.0872753
20
2.2595276
40
0.159245
50
145.2427469
51
150.5458241
0
ARC
8
DEFAULT_255_2_778
10
2.9506639
20
2.3366512
40
0.0023669
50
150.057101
51
169.0446657
0
ARC
8
DEFAULT_255_2_778
10
2.9483965
20
2.3370846
40
0.0000586
50
163.6976383
51
266.1111179
0
ARC
8
DEFAULT_255_2_778
10
2.9339235
20
2.3535906
40
0.021994
50
311.1370925
51
326.623469
0
ARC
8
DEFAULT_255_2_778
10
2.5019402
20
2.6891307
40
0.5689189
50
322.3342636
51
323.9697027
0
ARC
8
DEFAULT_255_2_778
10
1.7199643
20
3.2646602
40
1.5398512
50
323.7663259
51
323.8904116
0
ARC
8
DEFAULT_255_2_778
10
3.6498834
20
1.8841054
40
0.8314659
50
132.6469563
51
138.7455673
0
ARC
8
DEFAULT_255_2_778
10
4.4600513
20
1.0125281
40
2.0214267
50
128.9284725
51
132.8010719
0
ARC
8
DEFAULT_255_2_778
10
5.1567983
20
0.1674731
40
3.1166413
50
128.2222284
51
129.1312651
0
ARC
8
DEFAULT_255_2_778
10
5.6218228
20
-0.4257158
40
3.8703778
50
126.5141032
51
128.1973176
0
ARC
8
DEFAULT_255_2_778
10
5.9025961
20
-0.8013516
40
4.3393467
50
124.4313394
51
126.5424834
0
ARC
8
DEFAULT_255_2_778
10
5.5193897
20
-0.2440611
40
3.6630193
50
123.6584087
51
124.4161972
0
ARC
8
DEFAULT_255_2_778
10
12.212728
20
-10.2178093
40
15.6745133
50
123.0212873
51
123.8170179
0
ARC
8
DEFAULT_255_2_778
10
-135.7594643
20
216.8408842
40
255.3447237
50
303.0962776
51
303.1196745
0
ARC
8
DEFAULT_255_2_778
10
1.6332233
20
6.520693
40
4.127949
50
300.9831613
51
315.2668908
0
ARC
8
DEFAULT_255_2_778
10
3.0769718
20
4.9838357
40
2.0220877
50
317.4110638
51
322.1890061
0
ARC
8
DEFAULT_255_2_778
10
3.4597132
20
4.6960762
40
1.5433114
50
321.9179096
51
337.7700639
0
ARC
8
DEFAULT_255_2_778
10
3.5087922
20
4.6713347
40
1.4885262
50
337.936914
51
0.1384285
0
ARC
8
DEFAULT_255_2_778
10
3.4041118
20
4.6742451
40
1.5932024
50
0.0246689
51
6.3696593
0
ARC
8
DEFAULT_255_2_778
10
3.2494662
20
4.6525851
40
1.749302
50
6.5127778
51
20.785829
0
ARC
8
DEFAULT_255_2_778
10
3.0691251
20
4.5894033
40
1.9403333
50
20.6402757
51
25.8912365
0
ARC
8
DEFAULT_255_2_778
10
2.9473289
20
4.4398772
40
2.11676
50
28.0932808
51
66.3072292
0
ARC
8
DEFAULT_255_2_778
10
2.5316931
20
3.7030316
40
2.959722
50
64.6709247
51
75.3292742
0
ARC
8
DEFAULT_255_2_778
10
2.5167116
20
3.6556111
40
3.0093916
50
75.2819985
51
76.7572123
0
ARC
8
DEFAULT_255_2_778
10
2.691405
20
4.4194701
40
2.2258322
50
76.6301716
51
81.9227342
0
ARC
8
DEFAULT_255_2_778
10
2.6902527
20
4.409306
40
2.2360576
50
81.9300971
51
89.8852631
0
ARC
8
DEFAULT_255_2_778
10
2.6897442
20
4.3439355
40
2.301429
50
89.8758615
51
89.9976523
0
ARC
8
DEFAULT_255_2_778
10
2.7209818
20
4.2004024
40
2.4451604
50
90.7297802
51
152.1032859
0
ARC
8
DEFAULT_255_2_778
10
2.6500128
20
4.2407969
40
2.36354
50
152.1637814
51
158.2721024
0
ARC
8
DEFAULT_255_2_778
10
2.0220766
20
4.4614103
40
1.6987691
50
157.3438007
51
179.9961597
0
ARC
8
DEFAULT_255_2_778
10
2.0197457
20
4.4615178
40
1.6964384
50
179.9997856
51
182.9017804
0
ARC
8
DEFAULT_255_2_778
10
2.0194785
20
4.4614967
40
1.6961704
50
182.9015227
51
185.0131674
0
ARC
8
DEFAULT_255_2_778
10
2.7762204
20
4.6521813
40
2.4697864
50
187.8870073
51
206.3003288
0
ARC
8
DEFAULT_255_2_778
10
11.1901967
20
8.3450916
40
11.6564974
50
204.2482265
51
205.6474222
0
ARC
8
DEFAULT_255_2_778
10
-265.6604236
20
-123.286643
40
294.8940423
50
25.4171507
51
25.4206528
0
ARC
8
DEFAULT_255_2_778
10
-5.1651754
20
0.4157552
40
6.5196531
50
21.7794874
51
26.095112
0
ARC
8
DEFAULT_255_2_778
10
-0.7101888
20
2.1947741
40
1.7225906
50
11.9190571
51
21.8103366
0
ARC
8
DEFAULT_255_2_778
10
0.1711805
20
2.3877166
40
0.8204026
50
0.5164535
51
11.447371
0
ARC
8
DEFAULT_255_2_778
10
0.5194062
20
2.3876032
40
0.4722032
50
340.0228819
51
0.9110745
0
ARC
8
DEFAULT_255_2_778
10
1.3170447
20
2.095747
40
0.3771559
50
159.7515855
51
171.8010851
0
ARC
8
DEFAULT_255_2_778
10
1.3079078
20
2.0953906
40
0.3681669
50
171.5433967
51
177.7569806
0
ARC
8
DEFAULT_255_2_778
10
1.2612524
20
2.0976999
40
0.3214572
50
177.8428114
51
179.9860172
0
ARC
8
DEFAULT_255_2_778
10
1.0841724
20
2.0809688
40
0.1453525
50
173.3590773
51
235.6864977
0
ARC
8
DEFAULT_255_2_778
10
1.0575007
20
2.0679401
40
0.1204543
50
242.6891987
51
265.379138
0
ARC
8
DEFAULT_255_2_778
10
1.0640507
20
2.1183363
40
0.1712321
50
264.5530518
51
269.9931139
0
ARC
8
DEFAULT_255_2_778
10
1.0341096
20
2.2171603
40
0.2717087
50
276.3222303
51
331.4516376
0
ARC
8
DEFAULT_255_2_778
10
0.8369717
20
2.3785771
40
0.5241823
50
326.2438993
51
330.374514
0
ARC
8
DEFAULT_255_2_778
10
0.8440657
20
2.3755433
40
0.5165167
50
330.2780522
51
338.7167984
0
ARC
8
DEFAULT_255_2_778
10
0.91054
20
2.3482375
40
0.4446667
50
338.8862015
51
339.4814828
0
LINE
8
DEFAULT_255_2_778
10
4.5291966
20
4.1550774
11
4.4762966
21
4.0642774
0
LINE
8
DEFAULT_255_2_778
10
4.4762966
20
4.0616774
11
4.4273966
21
3.9981774
0
LINE
8
DEFAULT_255_2_778
10
2.8993966
20
2.1793774
11
2.9112966
21
2.2473774
0
LINE
8
DEFAULT_255_2_778
10
2.9213966
20
2.2809774
11
2.9546966
21
2.3418774
0
LINE
8
DEFAULT_255_2_778
10
2.9639966
20
2.3571774
11
3.0247966
21
2.4323774
0
ARC
8
DEFAULT_255_2_778
10
1.6083185
20
-1.4412508
40
3.2676185
50
64.6230818
51
81.0304743
0
ARC
8
DEFAULT_255_2_778
10
1.4680855
20
-2.1180468
40
3.9581395
50
80.5527879
51
87.0267315
0
ARC
8
DEFAULT_255_2_778
10
1.4705336
20
-2.0771844
40
3.9172053
50
87.0314892
51
87.2375267
0
ARC
8
DEFAULT_255_2_778
10
1.548332
20
-0.3524215
40
2.1907039
50
87.0958253
51
89.2157935
0
ARC
8
DEFAULT_255_2_778
10
1.5517901
20
-0.1606122
40
1.9988652
50
89.2396576
51
89.9964818
0
ARC
8
DEFAULT_255_2_778
10
1.518666
20
0.5495607
40
1.2891212
50
88.5221619
51
114.5366663
0
ARC
8
DEFAULT_255_2_778
10
1.4226138
20
0.957532
40
0.8819277
50
119.8743773
51
163.4279472
0
ARC
8
DEFAULT_255_2_778
10
1.7889815
20
0.7846965
40
1.2838311
50
160.6973979
51
163.0645602
0
ARC
8
DEFAULT_255_2_778
10
1.0793281
20
1.0045412
40
0.5409253
50
163.4451456
51
170.2672102
0
ARC
8
DEFAULT_255_2_778
10
0.9948413
20
1.0188785
40
0.4552308
50
170.2481037
51
178.953867
0
ARC
8
DEFAULT_255_2_778
10
0.9585181
20
1.0203285
40
0.4188878
50
179.0614501
51
180.0000327
0
ARC
8
DEFAULT_255_2_778
10
0.9844269
20
1.0349225
40
0.4450359
50
181.8792693
51
237.0535275
0
ARC
8
DEFAULT_255_2_778
10
1.4392892
20
1.6432107
40
1.2039538
50
234.6309595
51
251.9093812
0
ARC
8
DEFAULT_255_2_778
10
1.7399355
20
2.4512141
40
2.0656663
50
250.9417926
51
255.6459828
0
ARC
8
DEFAULT_255_2_778
10
1.8350509
20
2.8113161
40
2.4381089
50
255.578483
51
258.0813365
0
ARC
8
DEFAULT_255_2_778
10
1.9144846
20
3.1983355
40
2.8331904
50
258.1259718
51
270.0002474
0
ARC
8
DEFAULT_255_2_778
10
1.9144957
20
3.1990254
40
2.8338803
50
270.0000231
51
271.7245591
0
ARC
8
DEFAULT_255_2_778
10
1.9144796
20
3.1994009
40
2.8342561
50
271.7246547
51
272.7330735
0
ARC
8
DEFAULT_255_2_778
10
1.9784256
20
2.1664022
40
1.7994427
50
272.2676588
51
277.8854108
0
ARC
8
DEFAULT_255_2_778
10
2.0469976
20
1.609661
40
1.238587
50
278.2766296
51
278.8790561
0
ARC
8
DEFAULT_255_2_778
10
2.1783255
20
0.9910712
40
0.6081065
50
275.6479304
51
310.5817898
0
ARC
8
DEFAULT_255_2_778
10
2.3246933
20
0.784177
40
0.3565284
50
314.3495415
51
322.1003739
0
ARC
8
DEFAULT_255_2_778
10
1.9225886
20
1.113109
40
0.8759707
50
321.2793744
51
332.547847
0
ARC
8
DEFAULT_255_2_778
10
2.2340126
20
0.9403502
40
0.5200622
50
333.6206019
51
334.1979218
0
ARC
8
DEFAULT_255_2_778
10
2.3910097
20
0.8721723
40
0.3491112
50
333.0565094
51
352.4554234
0
ARC
8
DEFAULT_255_2_778
10
2.5063779
20
0.8520402
40
0.2321483
50
353.6427208
51
359.9365327
0
ARC
8
DEFAULT_255_2_778
10
2.5386863
20
0.852481
40
0.1998411
50
359.7998881
51
39.7428832
0
ARC
8
DEFAULT_255_2_778
10
2.4520425
20
0.7829346
40
0.3109334
50
39.3891934
51
54.9462196
0
ARC
8
DEFAULT_255_2_778
10
1.9807714
20
0.0458337
40
1.1856014
50
56.7617295
51
78.9571538
0
ARC
8
DEFAULT_255_2_778
10
0.8643823
20
-4.7438356
40
6.1030275
50
77.2831077
51
79.5605779
0
ARC
8
DEFAULT_255_2_778
10
0.908276
20
-4.0672965
40
5.4303146
50
78.7225906
51
80.7174097
0
ARC
8
DEFAULT_255_2_778
10
1.1850232
20
-2.3384806
40
3.6795021
50
80.628002
51
85.2389444
0
ARC
8
DEFAULT_255_2_778
10
1.2724496
20
-1.3496236
40
2.6868054
50
85.3466159
51
88.7550274
0
ARC
8
DEFAULT_255_2_778
10
1.282791
20
-0.9835233
40
2.3205681
50
88.8139044
51
89.9934659
0
ARC
8
DEFAULT_255_2_778
10
1.2557647
20
-0.1987083
40
1.5359956
50
88.9819409
51
106.8119996
0
ARC
8
DEFAULT_255_2_778
10
1.0302483
20
0.5237939
40
0.7791778
50
106.3041179
51
148.0916643
0
ARC
8
DEFAULT_255_2_778
10
1.0375854
20
0.5293924
40
0.7824946
50
148.7236335
51
151.9156005
0
ARC
8
DEFAULT_255_2_778
10
1.0956607
20
0.4827826
40
0.8557854
50
150.9928686
51
160.2594721
0
ARC
8
DEFAULT_255_2_778
10
0.7426833
20
0.6062709
40
0.4818517
50
159.9038234
51
178.2216715
0
ARC
8
DEFAULT_255_2_778
10
0.6484646
20
0.6141271
40
0.3874658
50
178.9504923
51
180.0007234
0
ARC
8
DEFAULT_255_2_778
10
0.6485197
20
0.6159471
40
0.3875253
50
180.2698162
51
210.1466649
0
ARC
8
DEFAULT_255_2_778
10
0.7536109
20
0.6675494
40
0.5043837
50
209.2201749
51
210.8806402
0
ARC
8
DEFAULT_255_2_778
10
0.8521013
20
0.7300529
40
0.6209994
50
211.1659757
51
220.2255629
0
ARC
8
DEFAULT_255_2_778
10
1.0455202
20
0.8900861
40
0.8720298
50
220.0466535
51
224.6386704
0
ARC
8
DEFAULT_255_2_778
10
1.3769608
20
1.3076661
40
1.402745
50
227.2638532
51
253.7072409
0
ARC
8
DEFAULT_255_2_778
10
2.0576286
20
3.1099426
40
3.3268824
50
251.1624937
51
251.5931789
0
ARC
8
DEFAULT_255_2_778
10
1.8014715
20
2.3749705
40
2.5486516
50
251.839918
51
258.7587654
0
ARC
8
DEFAULT_255_2_778
10
1.726973
20
1.9802576
40
2.1469921
50
258.6553223
51
267.2317342
0
ARC
8
DEFAULT_255_2_778
10
1.7043292
20
1.6309181
40
1.7969758
50
267.4149265
51
269.9820821
0
ARC
8
DEFAULT_255_2_778
10
1.728548
20
1.1087597
40
1.2750582
50
268.886386
51
292.8635545
0
ARC
8
DEFAULT_255_2_778
10
1.8507391
20
0.7730137
40
0.9183886
50
293.9778125
51
304.4474393
0
ARC
8
DEFAULT_255_2_778
10
2.0875647
20
0.3684196
40
0.4520291
50
308.7053543
51
342.2708569
0
ARC
8
DEFAULT_255_2_778
10
2.3519318
20
0.2897629
40
0.1763538
50
340.4565637
51
345.3399835
0
ARC
8
DEFAULT_255_2_778
10
2.2606568
20
0.3154142
40
0.2711546
50
344.9773561
51
345.5420828
0
ARC
8
DEFAULT_255_2_778
10
2.2409691
20
0.3207135
40
0.2915419
50
345.4996241
51
352.4732883
0
ARC
8
DEFAULT_255_2_778
10
2.3574237
20
0.3056062
40
0.1741121
50
352.3821308
51
359.5632888
0
ARC
8
DEFAULT_255_2_778
10
2.4895468
20
0.3094617
40
0.0423028
50
352.962904
51
39.5960678
0
ARC
8
DEFAULT_255_2_778
10
2.5124479
20
0.3244698
40
0.0153919
50
50.9565664
51
91.5878431
0
ARC
8
DEFAULT_255_2_778
10
2.5140183
20
0.3020482
40
0.0378603
50
93.023369
51
119.5764871
0
ARC
8
DEFAULT_255_2_778
10
2.5399924
20
0.2486761
40
0.0971709
50
117.3624029
51
124.5920491
0
ARC
8
DEFAULT_255_2_778
10
1.9389266
20
1.2048495
40
1.0323267
50
268.7015108
51
301.924713
0
ARC
8
DEFAULT_255_2_778
10
1.8850925
20
1.9092056
40
1.7366845
50
269.9963956
51
271.0043321
0
ARC
8
DEFAULT_255_2_778
10
1.8990914
20
2.4599603
40
2.2874827
50
261.9946956
51
269.646624
0
ARC
8
DEFAULT_255_2_778
10
1.9077546
20
2.6208117
40
2.4480121
50
259.6963465
51
262.3182047
0
ARC
8
DEFAULT_255_2_778
10
1.7646896
20
2.0266888
40
1.8382046
50
235.8098042
51
260.7714445
0
ARC
8
DEFAULT_255_2_778
10
1.4885202
20
1.4971175
40
1.2468831
50
221.5392146
51
232.6307708
0
ARC
8
DEFAULT_255_2_778
10
0.9057632
20
0.9696858
40
0.4610068
50
203.3227286
51
220.5028046
0
ARC
8
DEFAULT_255_2_778
10
1.1058418
20
0.9780761
40
0.6544032
50
190.8985707
51
193.9813182
0
ARC
8
DEFAULT_255_2_778
10
0.5160544
20
0.8651219
40
0.0539005
50
182.9545295
51
191.5308099
0
ARC
8
DEFAULT_255_2_778
10
0.4634883
20
0.8627901
40
0.0013393
50
127.6325035
51
199.4674544
0
ARC
8
DEFAULT_255_2_778
10
0.444032
20
0.8477786
40
0.0246111
50
14.8190761
51
40.7713005
0
ARC
8
DEFAULT_255_2_778
10
0.1612097
20
0.7286747
40
0.3312664
50
20.8294234
51
22.243471
0
ARC
8
DEFAULT_255_2_778
10
0.8960759
20
0.2474898
40
0.7345839
50
91.3734149
51
125.3731802
0
ARC
8
DEFAULT_255_2_778
10
1.1300235
20
-2.3434092
40
3.3347732
50
91.1700924
51
94.3261429
0
ARC
8
DEFAULT_255_2_778
10
1.1661287
20
-2.0938894
40
3.0863177
50
89.9986293
51
91.9348417
0
ARC
8
DEFAULT_255_2_778
10
1.1585443
20
-2.2365288
40
3.2289662
50
70.1960779
51
89.8641083
0
ARC
8
DEFAULT_255_2_778
10
1.5773825
20
-1.0144671
40
1.93738
50
66.717098
51
69.6054723
0
ARC
8
DEFAULT_255_2_778
10
1.9446632
20
-0.1427565
40
0.9915081
50
65.4351398
51
66.3015322
0
ARC
8
DEFAULT_255_2_778
10
2.2226941
20
0.4053437
40
0.3782595
50
36.4045416
51
69.2260436
0
ARC
8
DEFAULT_255_2_778
10
2.3803951
20
0.5413767
40
0.1713397
50
25.4364257
51
31.0823166
0
ARC
8
DEFAULT_255_2_778
10
2.6689115
20
0.6786638
40
0.1481747
50
191.4043566
51
205.4589808
0
ARC
8
DEFAULT_255_2_778
10
2.6369562
20
0.6716869
40
0.115472
50
180.1259968
51
191.1460713
0
ARC
8
DEFAULT_255_2_778
10
2.6341507
20
0.6696871
40
0.1126798
50
134.2246346
51
179.1122194
0
ARC
8
DEFAULT_255_2_778
10
2.6699985
20
0.6393407
40
0.1594934
50
127.9980575
51
135.8496934
0
ARC
8
DEFAULT_255_2_778
10
2.6728789
20
0.6367275
40
0.1633272
50
114.7052076
51
128.2299726
0
ARC
8
DEFAULT_255_2_778
10
2.6284552
20
0.7376488
40
0.0531076
50
99.1718626
51
116.6716758
0
ARC
8
DEFAULT_255_2_778
10
2.6204367
20
0.782297
40
0.0077932
50
90.0886496
51
93.2858776
0
ARC
8
DEFAULT_255_2_778
10
2.6208696
20
0.7888384
40
0.0013285
50
17.975643
51
109.5657132
0
ARC
8
DEFAULT_255_2_778
10
2.6123813
20
0.794176
40
0.0109261
50
294.4483018
51
333.1926949
0
ARC
8
DEFAULT_255_2_778
10
2.5436819
20
0.897631
40
0.134986
50
296.2649969
51
302.8496549
0
ARC
8
DEFAULT_255_2_778
10
2.4146561
20
1.1526914
40
0.4208198
50
293.1542284
51
296.6509426
0
ARC
8
DEFAULT_255_2_778
10
2.3849156
20
1.23265
40
0.5060485
50
287.8592275
51
292.6905252
0
ARC
8
DEFAULT_255_2_778
10
-0.9693763
20
11.2192151
40
11.0408472
50
288.506405
51
288.5337908
0
ARC
8
DEFAULT_255_2_778
10
3.5252177
20
-2.2097617
40
3.1203249
50
108.5003438
51
108.6181244
0
ARC
8
DEFAULT_255_2_778
10
2.2477731
20
1.6819404
40
0.9760707
50
278.0420695
51
286.7470896
0
ARC
8
DEFAULT_255_2_778
10
2.0624208
20
3.0673918
40
2.3738503
50
270.3541256
51
277.7935767
0
ARC
8
DEFAULT_255_2_778
10
2.0624038
20
3.069795
40
2.3762536
50
270.0007871
51
270.3541763
0
ARC
8
DEFAULT_255_2_778
10
2.0624042
20
3.065624
40
2.3720824
50
260.574146
51
270.0007809
0
ARC
8
DEFAULT_255_2_778
10
1.9976396
20
2.9313325
40
2.2293911
50
259.8084027
51
261.6509724
0
ARC
8
DEFAULT_255_2_778
10
2.0770334
20
3.3793276
40
2.6843658
50
257.7251346
51
259.832464
0
ARC
8
DEFAULT_255_2_778
10
2.0620212
20
3.3183618
40
2.6216029
50
254.3998866
51
257.762455
0
ARC
8
DEFAULT_255_2_778
10
1.9559145
20
2.937234
40
2.2259808
50
251.6616265
51
254.3922762
0
ARC
8
DEFAULT_255_2_778
10
1.6496823
20
2.0825275
40
1.318511
50
237.8592396
51
252.6074818
0
ARC
8
DEFAULT_255_2_778
10
1.2261299
20
1.4064094
40
0.5206831
50
216.785938
51
237.7431259
0
ARC
8
DEFAULT_255_2_778
10
1.0298739
20
1.2578462
40
0.2745461
50
180.4961417
51
216.4817324
0
ARC
8
DEFAULT_255_2_778
10
1.0399817
20
1.254795
40
0.2846444
50
168.3757918
51
179.8643465
0
ARC
8
DEFAULT_255_2_778
10
1.0946613
20
1.2437404
40
0.34043
50
160.2157823
51
168.4077155
0
ARC
8
DEFAULT_255_2_778
10
0.6577367
20
1.3993894
40
0.1233969
50
336.9041968
51
340.8788607
0
ARC
8
DEFAULT_255_2_778
10
0.6270721
20
1.413629
40
0.1571933
50
329.742778
51
336.5143741
0
ARC
8
DEFAULT_255_2_778
10
0.7682805
20
1.3308545
40
0.0064963
50
146.691667
51
163.1725435
0
ARC
8
DEFAULT_255_2_778
10
0.7621314
20
1.3327179
40
0.0000712
50
165.9578003
51
271.1905469
0
ARC
8
DEFAULT_255_2_778
10
0.7448742
20
1.3571365
40
0.0299602
50
305.1734352
51
317.4339657
0
ARC
8
DEFAULT_255_2_778
10
1.3432038
20
0.7283849
40
0.8380539
50
132.0930558
51
133.4421236
0
ARC
8
DEFAULT_255_2_778
10
1.0572289
20
1.0138538
40
0.43502
50
115.1389894
51
129.3459532
0
ARC
8
DEFAULT_255_2_778
10
1.2308657
20
0.6590477
40
0.8300077
50
97.5976516
51
115.585121
0
ARC
8
DEFAULT_255_2_778
10
1.4311065
20
-0.6001886
40
2.1049073
50
89.9994805
51
98.4685104
0
ARC
8
DEFAULT_255_2_778
10
1.4311448
20
-0.6001873
40
2.104906
50
81.5314882
51
90.0005236
0
ARC
8
DEFAULT_255_2_778
10
1.2182751
20
-2.7925428
40
4.3061713
50
79.0646556
51
83.0260035
0
ARC
8
DEFAULT_255_2_778
10
1.455079
20
-1.7219343
40
3.2102158
50
64.7210112
51
79.5895404
0
ARC
8
DEFAULT_255_2_778
10
2.8397084
20
1.2092229
40
0.0315266
50
244.0757466
51
270.461128
0
ARC
8
DEFAULT_255_2_778
10
2.8361427
20
1.2398206
40
0.0622406
50
273.5182556
51
305.9060643
0
ARC
8
DEFAULT_255_2_778
10
2.7625479
20
1.3512246
40
0.1957195
50
304.2302833
51
318.1616639
0
ARC
8
DEFAULT_255_2_778
10
2.6791577
20
1.4331173
40
0.3125191
50
317.1737019
51
317.8305631
0
ARC
8
DEFAULT_255_2_778
10
2.5431973
20
1.5477739
40
0.4903002
50
318.5661355
51
329.0350057
0
ARC
8
DEFAULT_255_2_778
10
2.4076217
20
1.635153
40
0.651532
50
328.580319
51
333.6067109
0
ARC
8
DEFAULT_255_2_778
10
2.5486712
20
1.5692725
40
0.4959128
50
333.1806775
51
343.0787291
0
ARC
8
DEFAULT_255_2_778
10
2.8359521
20
1.4834455
40
0.1960947
50
342.6392806
51
356.8672617
0
ARC
8
DEFAULT_255_2_778
10
2.9312774
20
1.4754413
40
0.100513
50
358.4537005
51
359.9849904
0
ARC
8
DEFAULT_255_2_778
10
2.9778202
20
1.4775727
40
0.0540132
50
357.7105746
51
24.0547642
0
ARC
8
DEFAULT_255_2_778
10
3.0056581
20
1.4893388
40
0.0238044
50
25.5055782
51
63.1065788
0
LINE
8
DEFAULT_255_2_778
10
0.4824256
20
0.7871687
11
0.4708256
21
0.8199687
0
ARC
8
DEFAULT_255_2_778
10
1.490607
20
-1.3246467
40
3.2676185
50
64.6230818
51
81.0304743
0
ARC
8
DEFAULT_255_2_778
10
1.350374
20
-2.0014427
40
3.9581395
50
80.5527879
51
87.0267315
0
ARC
8
DEFAULT_255_2_778
10
1.3528221
20
-1.9605803
40
3.9172053
50
87.0314892
51
87.2375267
0
ARC
8
DEFAULT_255_2_778
10
1.4306205
20
-0.2358175
40
2.1907039
50
87.0958253
51
89.2157935
0
ARC
8
DEFAULT_255_2_778
10
1.4340786
20
-0.0440081
40
1.9988652
50
89.2396576
51
89.9964818
0
ARC
8
DEFAULT_255_2_778
10
1.4009546
20
0.6661648
40
1.2891212
50
88.5221619
51
114.5366663
0
ARC
8
DEFAULT_255_2_778
10
1.3049023
20
1.0741361
40
0.8819277
50
119.8743773
51
163.4279472
0
ARC
8
DEFAULT_255_2_778
10
1.67127
20
0.9013006
40
1.2838311
50
160.6973979
51
163.0645602
0
ARC
8
DEFAULT_255_2_778
10
0.9616166
20
1.1211453
40
0.5409253
50
163.4451456
51
170.2672102
0
ARC
8
DEFAULT_255_2_778
10
0.8771298
20
1.1354826
40
0.4552308
50
170.2481037
51
178.953867
0
ARC
8
DEFAULT_255_2_778
10
0.8408066
20
1.1369326
40
0.4188878
50
179.0614501
51
180.0000327
0
ARC
8
DEFAULT_255_2_778
10
0.8667154
20
1.1515266
40
0.4450359
50
181.8792693
51
237.0535275
0
ARC
8
DEFAULT_255_2_778
10
1.3215777
20
1.7598148
40
1.2039538
50
234.6309595
51
251.9093812
0
ARC
8
DEFAULT_255_2_778
10
1.6222241
20
2.5678182
40
2.0656663
50
250.9417926
51
255.6459828
0
ARC
8
DEFAULT_255_2_778
10
1.7173394
20
2.9279202
40
2.4381089
50
255.578483
51
258.0813365
0
ARC
8
DEFAULT_255_2_778
10
1.7968318
20
3.3155038
40
2.8337546
50
258.1271575
51
269.9998102
0
ARC
8
DEFAULT_255_2_778
10
1.7968338
20
3.3135481
40
2.8317989
50
269.9997688
51
271.295283
0
ARC
8
DEFAULT_255_2_778
10
1.7968461
20
3.3134092
40
2.8316597
50
271.295099
51
272.7340031
0
ARC
8
DEFAULT_255_2_778
10
1.8607142
20
2.2830063
40
1.7994427
50
272.2676588
51
277.8854108
0
ARC
8
DEFAULT_255_2_778
10
1.9292861
20
1.7262651
40
1.238587
50
278.2766296
51
278.8790561
0
ARC
8
DEFAULT_255_2_778
10
2.060614
20
1.1076752
40
0.6081065
50
275.6479304
51
310.5817898
0
ARC
8
DEFAULT_255_2_778
10
2.2069818
20
0.9007811
40
0.3565284
50
314.3495415
51
322.1003739
0
ARC
8
DEFAULT_255_2_778
10
1.8042883
20
1.2301961
40
0.8767323
50
321.2788211
51
332.5381314
0
ARC
8
DEFAULT_255_2_778
10
2.1098011
20
1.0602473
40
0.527365
50
333.6147555
51
334.1841257
0
ARC
8
DEFAULT_255_2_778
10
2.2733661
20
0.9888236
40
0.3490893
50
333.0459822
51
352.4497866
0
ARC
8
DEFAULT_255_2_778
10
2.388846
20
0.9686618
40
0.2320113
50
353.6385907
51
359.9370022
0
ARC
8
DEFAULT_255_2_778
10
2.421102
20
0.9691014
40
0.1997565
50
359.8007496
51
39.7591637
0
ARC
8
DEFAULT_255_2_778
10
2.3343701
20
0.8994517
40
0.3109821
50
39.4039545
51
54.9613112
0
ARC
8
DEFAULT_255_2_778
10
1.8658573
20
0.1642725
40
1.1825342
50
56.8263672
51
78.841095
0
ARC
8
DEFAULT_255_2_778
10
0.5758732
20
-5.347236
40
6.8423879
50
77.1749243
51
79.2532021
0
ARC
8
DEFAULT_255_2_778
10
3.357528
20
8.9067453
40
7.6806486
50
258.6777831
51
258.6941639
0
ARC
8
DEFAULT_255_2_778
10
0.7876646
20
-3.9498924
40
5.4303146
50
78.7225906
51
80.7174097
0
ARC
8
DEFAULT_255_2_778
10
1.0644117
20
-2.2210765
40
3.6795021
50
80.628002
51
85.2389444
0
ARC
8
DEFAULT_255_2_778
10
1.1518381
20
-1.2322195
40
2.6868054
50
85.3466159
51
88.7550274
0
ARC
8
DEFAULT_255_2_778
10
1.1621795
20
-0.8661193
40
2.3205681
50
88.8139044
51
89.9934659
0
ARC
8
DEFAULT_255_2_778
10
1.1351533
20
-0.0813042
40
1.5359956
50
88.9819409
51
106.8119996
0
ARC
8
DEFAULT_255_2_778
10
0.9096368
20
0.641198
40
0.7791778
50
106.3041179
51
148.0916643
0
ARC
8
DEFAULT_255_2_778
10
0.916974
20
0.6467965
40
0.7824946
50
148.7236335
51
151.9156005
0
ARC
8
DEFAULT_255_2_778
10
0.9750492
20
0.6001867
40
0.8557854
50
150.9928686
51
160.2594721
0
ARC
8
DEFAULT_255_2_778
10
0.6220718
20
0.7236749
40
0.4818517
50
159.9038234
51
178.2216715
0
ARC
8
DEFAULT_255_2_778
10
0.5278532
20
0.7315311
40
0.3874658
50
178.9504923
51
180.0007234
0
ARC
8
DEFAULT_255_2_778
10
0.5279083
20
0.7333512
40
0.3875253
50
180.2698162
51
210.1466649
0
ARC
8
DEFAULT_255_2_778
10
0.6329995
20
0.7849535
40
0.5043837
50
209.2201749
51
210.8806402
0
ARC
8
DEFAULT_255_2_778
10
0.7314898
20
0.847457
40
0.6209994
50
211.1659757
51
220.2255629
0
ARC
8
DEFAULT_255_2_778
10
0.9249087
20
1.0074902
40
0.8720298
50
220.0466535
51
224.6386704
0
ARC
8
DEFAULT_255_2_778
10
1.2563494
20
1.4250702
40
1.402745
50
227.2638532
51
253.7072409
0
ARC
8
DEFAULT_255_2_778
10
1.9370172
20
3.2273467
40
3.3268824
50
251.1624937
51
251.5931789
0
ARC
8
DEFAULT_255_2_778
10
1.68086
20
2.4923746
40
2.5486516
50
251.839918
51
258.7587654
0
ARC
8
DEFAULT_255_2_778
10
1.6063615
20
2.0976617
40
2.1469921
50
258.6553223
51
267.2317342
0
ARC
8
DEFAULT_255_2_778
10
1.5837177
20
1.7483222
40
1.7969758
50
267.4149265
51
269.9820821
0
ARC
8
DEFAULT_255_2_778
10
1.6079365
20
1.2261638
40
1.2750582
50
268.886386
51
292.8635545
0
ARC
8
DEFAULT_255_2_778
10
1.7301276
20
0.8904178
40
0.9183886
50
293.9778125
51
304.4474393
0
ARC
8
DEFAULT_255_2_778
10
1.9675517
20
0.4854122
40
0.4513338
50
308.6787377
51
342.2974804
0
ARC
8
DEFAULT_255_2_778
10
2.2313204
20
0.4071669
40
0.1763538
50
340.4565637
51
345.3399835
0
ARC
8
DEFAULT_255_2_778
10
2.1400453
20
0.4328183
40
0.2711546
50
344.9773561
51
345.5420828
0
ARC
8
DEFAULT_255_2_778
10
2.1203576
20
0.4381176
40
0.2915419
50
345.4996241
51
352.4732883
0
ARC
8
DEFAULT_255_2_778
10
2.2368122
20
0.4230102
40
0.1741121
50
352.3821308
51
359.5632888
0
ARC
8
DEFAULT_255_2_778
10
2.3689353
20
0.4268658
40
0.0423028
50
352.962904
51
39.5960678
0
ARC
8
DEFAULT_255_2_778
10
2.3918365
20
0.4418739
40
0.0153919
50
50.9565664
51
91.5878431
0
ARC
8
DEFAULT_255_2_778
10
2.3934068
20
0.4194523
40
0.0378603
50
93.023369
51
119.5764871
0
ARC
8
DEFAULT_255_2_778
10
2.4193809
20
0.3660802
40
0.0971709
50
117.3624029
51
124.5920491
0
ARC
8
DEFAULT_255_2_778
10
1.8184663
20
1.3215376
40
1.0316391
50
268.6922503
51
301.9386176
0
ARC
8
DEFAULT_255_2_778
10
1.7646696
20
2.0259507
40
1.7360472
50
269.9963665
51
270.9984766
0
ARC
8
DEFAULT_255_2_778
10
1.7787333
20
2.578709
40
2.2888493
50
261.9931013
51
269.6451907
0
ARC
8
DEFAULT_255_2_778
10
1.7821062
20
2.6993216
40
2.4087937
50
260.5410804
51
262.3132719
0
ARC
8
DEFAULT_255_2_778
10
1.6574495
20
2.1586456
40
1.8552964
50
235.7886423
51
261.5944409
0
ARC
8
DEFAULT_255_2_778
10
1.3637387
20
1.6073956
40
1.2361112
50
221.4907635
51
232.679283
0
ARC
8
DEFAULT_255_2_778
10
0.7859571
20
1.0863987
40
0.4582176
50
203.2700421
51
220.5554906
0
ARC
8
DEFAULT_255_2_778
10
0.9884303
20
1.0962802
40
0.6544032
50
190.8985707
51
193.9813182
0
ARC
8
DEFAULT_255_2_778
10
0.398643
20
0.983326
40
0.0539005
50
182.9545295
51
191.5308099
0
ARC
8
DEFAULT_255_2_778
10
0.3460768
20
0.9809942
40
0.0013393
50
127.6325035
51
199.4674544
0
ARC
8
DEFAULT_255_2_778
10
0.3266205
20
0.9659827
40
0.0246111
50
14.8190761
51
40.7713005
0
ARC
8
DEFAULT_255_2_778
10
0.0437982
20
0.8468788
40
0.3312664
50
20.8294234
51
22.243471
0
ARC
8
DEFAULT_255_2_778
10
0.7788707
20
0.364971
40
0.7352929
50
91.3881655
51
125.3536718
0
ARC
8
DEFAULT_255_2_778
10
1.012512
20
-2.2160419
40
3.32561
50
91.1715935
51
94.3363577
0
ARC
8
DEFAULT_255_2_778
10
1.0459781
20
-2.0039319
40
3.1144579
50
89.9990836
51
91.866933
0
ARC
8
DEFAULT_255_2_778
10
1.0399504
20
-2.1149276
40
3.2254594
50
70.1909692
51
89.8920422
0
ARC
8
DEFAULT_255_2_778
10
1.4547519
20
-0.9030037
40
1.9447852
50
66.7080774
51
69.5885444
0
ARC
8
DEFAULT_255_2_778
10
1.8270407
20
-0.0200882
40
0.9866424
50
65.4197622
51
66.2916497
0
ARC
8
DEFAULT_255_2_778
10
2.1034573
20
0.5240325
40
0.3776805
50
36.3760199
51
69.2198953
0
ARC
8
DEFAULT_255_2_778
10
2.2610989
20
0.6598888
40
0.1709228
50
25.3885934
51
31.0420456
0
ARC
8
DEFAULT_255_2_778
10
2.5492994
20
0.7967809
40
0.1481367
50
191.3883842
51
205.4286908
0
ARC
8
DEFAULT_255_2_778
10
2.5174257
20
0.7898302
40
0.1155191
50
180.1261183
51
191.1304313
0
ARC
8
DEFAULT_255_2_778
10
2.5146313
20
0.787829
40
0.1127379
50
134.2330024
51
179.1121357
0
ARC
8
DEFAULT_255_2_778
10
2.550524
20
0.7574476
40
0.1596084
50
128.0087816
51
135.8572629
0
ARC
8
DEFAULT_255_2_778
10
2.5534221
20
0.7548095
40
0.163473
50
114.718046
51
128.2397362
0
ARC
8
DEFAULT_255_2_778
10
2.5089245
20
0.8558385
40
0.0531251
50
99.1919017
51
116.6867446
0
ARC
8
DEFAULT_255_2_778
10
2.5008845
20
0.900515
40
0.0077793
50
90.0900771
51
93.2884451
0
ARC
8
DEFAULT_255_2_778
10
2.5013153
20
0.9070484
40
0.0013224
50
17.972999
51
109.5744106
0
ARC
8
DEFAULT_255_2_778
10
2.4928144
20
0.9124025
40
0.0109406
50
294.4170329
51
333.1223692
0
ARC
8
DEFAULT_255_2_778
10
2.4239962
20
1.0161537
40
0.135313
50
296.2454322
51
302.8205108
0
ARC
8
DEFAULT_255_2_778
10
2.2947711
20
1.271821
40
0.4217782
50
293.1389573
51
296.6315731
0
ARC
8
DEFAULT_255_2_778
10
2.2780574
20
1.3160046
40
0.4689797
50
287.6815416
51
292.8954246
0
ARC
8
DEFAULT_255_2_778
10
-1.4335354
20
12.4187949
40
12.1756802
50
288.4370167
51
288.4535315
0
ARC
8
DEFAULT_255_2_778
10
3.1898539
20
-1.4526271
40
2.4459503
50
108.4153666
51
108.6069491
0
ARC
8
DEFAULT_255_2_778
10
2.1305273
20
1.7893805
40
0.965082
50
277.9924075
51
286.7967401
0
ARC
8
DEFAULT_255_2_778
10
1.9425154
20
3.1862435
40
2.3745317
50
270.1506428
51
277.7984837
0
ARC
8
DEFAULT_255_2_778
10
1.9426092
20
3.1750751
40
2.3633631
50
270.0000001
51
270.1490814
0
ARC
8
DEFAULT_255_2_778
10
1.9424789
20
3.1775266
40
2.3658145
50
260.5566497
51
270.0031564
0
ARC
8
DEFAULT_255_2_778
10
1.8780281
20
3.0495366
40
2.2293911
50
259.8084027
51
261.6509724
0
ARC
8
DEFAULT_255_2_778
10
1.957422
20
3.4975317
40
2.6843658
50
257.7251346
51
259.832464
0
ARC
8
DEFAULT_255_2_778
10
1.9424097
20
3.4365659
40
2.6216029
50
254.3998866
51
257.762455
0
ARC
8
DEFAULT_255_2_778
10
1.8363031
20
3.0554381
40
2.2259808
50
251.6616265
51
254.3922762
0
ARC
8
DEFAULT_255_2_778
10
1.5300709
20
2.2007316
40
1.318511
50
237.8592396
51
252.6074818
0
ARC
8
DEFAULT_255_2_778
10
1.1065184
20
1.5246135
40
0.5206831
50
216.785938
51
237.7431259
0
ARC
8
DEFAULT_255_2_778
10
0.9102625
20
1.3760503
40
0.2745461
50
180.4961417
51
216.4817324
0
ARC
8
DEFAULT_255_2_778
10
0.9203702
20
1.3729991
40
0.2846444
50
168.3757918
51
179.8643465
0
ARC
8
DEFAULT_255_2_778
10
0.9750498
20
1.3619445
40
0.34043
50
160.2157823
51
168.4077155
0
ARC
8
DEFAULT_255_2_778
10
0.5387525
20
1.5169611
40
0.1225977
50
337.0029065
51
341.0620922
0
ARC
8
DEFAULT_255_2_778
10
0.5063753
20
1.5319158
40
0.1582483
50
329.9263418
51
336.5985075
0
ARC
8
DEFAULT_255_2_778
10
0.6486963
20
1.449113
40
0.0064162
50
146.9146551
51
163.590846
0
ARC
8
DEFAULT_255_2_778
10
0.6426149
20
1.4509074
40
0.0000757
50
166.0624811
51
271.0919025
0
ARC
8
DEFAULT_255_2_778
10
0.6259886
20
1.4747726
40
0.0291489
50
304.781128
51
317.3840765
0
ARC
8
DEFAULT_255_2_778
10
1.238768
20
0.8277544
40
0.8620628
50
132.0019036
51
133.3100517
0
ARC
8
DEFAULT_255_2_778
10
0.9360394
20
1.1352984
40
0.4313736
50
115.1200729
51
129.4549015
0
ARC
8
DEFAULT_255_2_778
10
1.109937
20
0.7809034
40
0.8261022
50
97.5346214
51
115.6058356
0
ARC
8
DEFAULT_255_2_778
10
1.3115659
20
-0.4748279
40
2.0977258
50
90.0000499
51
98.496913
0
ARC
8
DEFAULT_255_2_778
10
1.3115623
20
-0.4748279
40
2.0977258
50
81.503087
51
89.9999501
0
ARC
8
DEFAULT_255_2_778
10
1.035549
20
-2.9286844
40
4.5663099
50
79.0931609
51
82.6272723
0
ARC
8
DEFAULT_255_2_778
10
1.3123732
20
-1.6717719
40
3.2798994
50
64.9152472
51
79.6871072
0
ARC
8
DEFAULT_255_2_778
10
2.7166974
20
1.3271288
40
0.0315284
50
244.0764763
51
270.4618205
0
ARC
8
DEFAULT_255_2_778
10
2.7131283
20
1.3577554
40
0.0622715
50
273.5199862
51
305.9035608
0
ARC
8
DEFAULT_255_2_778
10
2.6394979
20
1.4692272
40
0.1958267
50
304.2272055
51
318.1564974
0
ARC
8
DEFAULT_255_2_778
10
2.5560429
20
1.5511986
40
0.3127277
50
317.1682919
51
317.8249652
0
ARC
8
DEFAULT_255_2_778
10
2.4202132
20
1.6657634
40
0.4903495
50
318.5602004
51
329.0278483
0
ARC
8
DEFAULT_255_2_778
10
2.2849748
20
1.7529621
40
0.6512002
50
328.5730418
51
333.6015483
0
ARC
8
DEFAULT_255_2_778
10
2.4260237
20
1.6870645
40
0.495574
50
333.1753933
51
343.0768013
0
ARC
8
DEFAULT_255_2_778
10
2.7130557
20
1.6013003
40
0.1960124
50
342.6378246
51
356.869013
0
ARC
8
DEFAULT_255_2_778
10
2.8083225
20
1.5933065
40
0.1004896
50
358.4534455
51
359.9850788
0
ARC
8
DEFAULT_255_2_778
10
2.8548296
20
1.5954404
40
0.0540257
50
357.7085421
51
24.0782074
0
ARC
8
DEFAULT_255_2_778
10
2.8826465
20
1.6072073
40
0.0238362
50
25.534508
51
63.1450044
0
LINE
8
DEFAULT_255_2_778
10
0.3650141
20
0.9053728
11
0.3534141
21
0.9381728
0
ARC
8
DEFAULT_255_2_778
10
3.7876371
20
1.7912881
40
1.1813262
50
136.5424248
51
177.0133709
0
ARC
8
DEFAULT_255_2_778
10
5.2306223
20
0.4873282
40
3.1259904
50
123.4193223
51
137.3853384
0
ARC
8
DEFAULT_255_2_778
10
8.5779249
20
-4.2411312
40
8.9182403
50
123.4097853
51
124.6375746
0
ARC
8
DEFAULT_255_2_778
10
21.8250292
20
-24.3292945
40
32.9810762
50
123.0848283
51
123.4046781
0
ARC
8
DEFAULT_255_2_778
10
-4.1398781
20
15.4880538
40
14.5541582
50
303.1617677
51
304.0234845
0
ARC
8
DEFAULT_255_2_778
10
2.0626362
20
6.3812505
40
3.5361427
50
303.2920427
51
311.663027
0
ARC
8
DEFAULT_255_2_778
10
3.4664329
20
4.777014
40
1.4046098
50
312.3843591
51
320.4135796
0
ARC
8
DEFAULT_255_2_778
10
0.3880261
20
2.4775901
40
1.1339316
50
339.2656867
51
348.6554745
0
ARC
8
DEFAULT_255_2_778
10
0.3709759
20
2.4791334
40
1.1509539
50
348.747111
51
0.1004872
0
ARC
8
DEFAULT_255_2_778
10
-0.2382017
20
2.431755
40
1.7608228
50
1.6075487
51
22.809899
0
ARC
8
DEFAULT_255_2_778
10
-4.2360422
20
0.8620164
40
6.055439
50
21.8363852
51
26.2451659
0
ARC
8
DEFAULT_255_2_778
10
13.0459383
20
9.3004734
40
13.1767452
50
204.5446391
51
205.9243512
0
ARC
8
DEFAULT_255_2_778
10
5.3317401
20
5.7503876
40
4.6849708
50
203.366994
51
204.241357
0
ARC
8
DEFAULT_255_2_778
10
2.6319188
20
4.6646806
40
1.7775146
50
183.7946011
51
205.7574869
0
ARC
8
DEFAULT_255_2_778
10
1.9231503
20
4.5717264
40
1.0651352
50
180.0019167
51
181.3277897
0
ARC
8
DEFAULT_255_2_778
10
1.8611964
20
4.573097
40
1.0031823
50
168.6841668
51
180.0803158
0
ARC
8
DEFAULT_255_2_778
10
2.2424802
20
4.4591141
40
1.3999074
50
132.3115922
51
167.1715779
0
ARC
8
DEFAULT_255_2_778
10
2.5445586
20
4.1783772
40
1.8111855
50
107.9892123
51
133.4000062
0
ARC
8
DEFAULT_255_2_778
10
2.6240044
20
3.9298579
40
2.0720921
50
89.7702877
51
107.9563044
0
ARC
8
DEFAULT_255_2_778
10
2.6319601
20
3.7329003
40
2.2690331
50
86.3209153
51
89.991118
0
ARC
8
DEFAULT_255_2_778
10
2.623493
20
3.6273122
40
2.3749474
50
76.6140525
51
86.280524
0
ARC
8
DEFAULT_255_2_778
10
2.705228
20
3.8354877
40
2.1537327
50
33.6961956
51
77.4472839
0
ARC
8
DEFAULT_255_2_778
10
3.1943471
20
4.2248121
40
1.5316991
50
18.8479168
51
31.72985
0
ARC
8
DEFAULT_255_2_778
10
3.5631637
20
4.3408219
40
1.1452189
50
0.0015302
51
19.3161875
0
ARC
8
DEFAULT_255_2_778
10
3.5639821
20
4.3408509
40
1.1444006
50
358.3428974
51
0.0000783
0
ARC
8
DEFAULT_255_2_778
10
3.5648962
20
4.3408209
40
1.143486
50
351.6689602
51
358.3430785
0
ARC
8
DEFAULT_255_2_778
10
43.5538917
20
-6.1248219
40
40.1995077
50
165.1540492
51
165.3056099
0
ARC
8
DEFAULT_255_2_778
10
9.3349319
20
2.8406901
40
4.8255469
50
165.2127749
51
165.8405163
0
ARC
8
DEFAULT_255_2_778
10
5.0529024
20
3.922701
40
0.4089316
50
166.0731192
51
166.5325063
0
LINE
8
DEFAULT_255_2_778
10
1.4353155
20
2.0444386
11
2.6079155
21
1.8528386
0
LINE
8
DEFAULT_255_2_778
10
4.5489155
20
3.8819386
11
4.6552155
21
4.0176386
0
LINE
8
DEFAULT_255_2_778
10
1.4353155
20
2.0444386
11
1.4485155
21
2.0761386
0
ARC
8
DEFAULT_255_2_778
10
-0.2970318
20
2.877416
40
2.2880986
50
8.8027908
51
37.5614755
0
ARC
8
DEFAULT_255_2_778
10
-0.9158107
20
2.7224052
40
2.9238961
50
4.9356716
51
9.9490336
0
ARC
8
DEFAULT_255_2_778
10
2.2654462
20
2.9914438
40
0.2687715
50
183.7278374
51
206.8246556
0
ARC
8
DEFAULT_255_2_778
10
2.1613623
20
2.9377205
40
0.1516478
50
206.4569794
51
271.2243479
0
ARC
8
DEFAULT_255_2_778
10
2.1615449
20
3.0125781
40
0.2264916
50
270.7735401
51
292.432713
0
ARC
8
DEFAULT_255_2_778
10
2.1400362
20
3.0739446
40
0.2914436
50
291.7374922
51
296.0148184
0
ARC
8
DEFAULT_255_2_778
10
2.1132066
20
3.1254461
40
0.3494979
50
296.2644174
51
308.7081181
0
ARC
8
DEFAULT_255_2_778
10
2.0807999
20
3.168719
40
0.4035352
50
308.4564398
51
310.5875004
0
ARC
8
DEFAULT_255_2_778
10
0.7314286
20
4.5741539
40
2.351344
50
313.2772317
51
325.5919159
0
ARC
8
DEFAULT_255_2_778
10
525.0729132
20
-382.5209297
40
649.3990099
50
143.5551377
51
143.5560601
0
ARC
8
DEFAULT_255_2_778
10
5.6283531
20
1.1399655
40
3.6298239
50
139.2374841
51
144.3827371
0
ARC
8
DEFAULT_255_2_778
10
7.0415218
20
-0.3507513
40
5.6772694
50
129.8692423
51
137.1539192
0
ARC
8
DEFAULT_255_2_778
10
-826.8206626
20
957.2613724
40
1264.1062511
50
311.0537436
51
311.0547235
0
ARC
8
DEFAULT_255_2_778
10
-10.8764253
20
20.4721829
40
21.7943149
50
310.9879779
51
311.4442781
0
ARC
8
DEFAULT_255_2_778
10
6.2932573
20
1.2085761
40
4.0119393
50
114.2516961
51
133.1579432
0
ARC
8
DEFAULT_255_2_778
10
5.5270872
20
2.7351862
40
2.3064601
50
101.4343398
51
112.4750809
0
ARC
8
DEFAULT_255_2_778
10
4.9683166
20
5.3697709
40
0.3874407
50
285.1914184
51
329.0990574
0
ARC
8
DEFAULT_255_2_778
10
4.7518314
20
5.5409066
40
0.6620463
50
326.0108246
51
337.2721391
0
ARC
8
DEFAULT_255_2_778
10
4.8099115
20
5.5192249
40
0.6001044
50
337.0390402
51
347.3313452
0
ARC
8
DEFAULT_255_2_778
10
4.9258722
20
5.490755
40
0.4807289
50
347.6108529
51
349.4296754
0
ARC
8
DEFAULT_255_2_778
10
5.0315128
20
5.4711179
40
0.3732787
50
349.4181609
51
356.3825779
0
ARC
8
DEFAULT_255_2_778
10
5.0419927
20
5.4704585
40
0.3627782
50
356.3820807
51
359.9882089
0
ARC
8
DEFAULT_255_2_778
10
5.1760388
20
5.4846435
40
0.2291763
50
356.4326744
51
44.5846966
0
ARC
8
DEFAULT_255_2_778
10
5.2455786
20
5.5343561
40
0.1453724
50
49.876874
51
91.594798
0
ARC
8
DEFAULT_255_2_778
10
5.2424322
20
5.4586703
40
0.2210035
50
90.2331837
51
100.039163
0
ARC
8
DEFAULT_255_2_778
10
5.2487688
20
5.4168511
40
0.2632891
50
99.8105882
51
101.2633867
0
ARC
8
DEFAULT_255_2_778
10
5.993707
20
2.2859151
40
3.4814594
50
103.2231484
51
129.0291648
0
ARC
8
DEFAULT_255_2_778
10
8.0262101
20
-0.5623292
40
6.9772514
50
127.2659412
51
130.2381358
0
ARC
8
DEFAULT_255_2_778
10
5.3790569
20
1.4448528
40
3.7091901
50
134.5565056
51
142.8340614
0
ARC
8
DEFAULT_255_2_778
10
7.733479
20
-0.1443826
40
6.5473582
50
144.198659
51
145.3135678
0
ARC
8
DEFAULT_255_2_778
10
-2.6908762
20
7.1078332
40
6.1515725
50
324.6598792
51
325.0248216
0
ARC
8
DEFAULT_255_2_778
10
1.1071768
20
4.3921282
40
1.4826478
50
319.4846736
51
325.3703957
0
ARC
8
DEFAULT_255_2_778
10
1.9344504
20
3.6896154
40
0.3973537
50
311.0966571
51
318.9992138
0
ARC
8
DEFAULT_255_2_778
10
-1.4319423
20
2.9372924
40
3.9883053
50
4.907323
51
10.3272374
0
ARC
8
DEFAULT_255_2_778
10
-0.1693541
20
3.2290504
40
2.6945511
50
9.0366972
51
35.3309728
0
ARC
8
DEFAULT_255_2_778
10
0.514128
20
3.6460932
40
1.8965722
50
36.9934555
51
39.1293418
0
ARC
8
DEFAULT_255_2_778
10
1.8300874
20
4.7187874
40
0.1988102
50
38.654608
51
54.8510538
0
ARC
8
DEFAULT_255_2_778
10
1.8581508
20
4.7584699
40
0.1502073
50
54.8895494
51
90.2599786
0
ARC
8
DEFAULT_255_2_778
10
1.859226
20
4.716947
40
0.1917366
50
90.5249686
51
108.4751137
0
ARC
8
DEFAULT_255_2_778
10
1.8737373
20
4.6665906
40
0.2441061
50
107.960098
51
111.3877716
0
ARC
8
DEFAULT_255_2_778
10
1.9274963
20
4.5522923
40
0.3702326
50
112.6839274
51
132.9060207
0
ARC
8
DEFAULT_255_2_778
10
2.1324856
20
4.329871
40
0.6727073
50
132.7974068
51
160.911494
0
ARC
8
DEFAULT_255_2_778
10
1.9556757
20
4.3917535
40
0.4853825
50
160.9891701
51
172.1883923
0
ARC
8
DEFAULT_255_2_778
10
1.8299475
20
4.4104079
40
0.3582883
50
172.4111155
51
179.8526169
0
ARC
8
DEFAULT_255_2_778
10
1.7202169
20
4.4077474
40
0.2485823
50
179.1743274
51
200.4183986
0
ARC
8
DEFAULT_255_2_778
10
1.6587983
20
4.3869789
40
0.1837876
50
201.0305728
51
218.7391247
0
LINE
8
DEFAULT_255_2_778
10
3.5191434
20
4.7638691
11
2.7766434
21
4.0878691
0
LINE
8
DEFAULT_255_2_778
10
2.1956434
20
3.3901691
11
2.5417434
21
3.2784691
0
ARC
8
DEFAULT_255_2_778
10
5.8928034
20
2.3990387
40
3.4531134
50
103.0567402
51
129.1071033
0
ARC
8
DEFAULT_255_2_778
10
7.948641
20
-0.4747659
40
6.9832456
50
127.322685
51
130.2931025
0
ARC
8
DEFAULT_255_2_778
10
5.5581434
20
1.2908072
40
4.0682317
50
134.8325166
51
141.234303
0
ARC
8
DEFAULT_255_2_778
10
-0.1718226
20
3.3536535
40
2.6033796
50
10.723829
51
37.3583083
0
ARC
8
DEFAULT_255_2_778
10
1.7422186
20
4.8091844
40
0.19883
50
38.6544784
51
54.8513165
0
ARC
8
DEFAULT_255_2_778
10
1.7702859
20
4.8488797
40
0.1502145
50
54.8883073
51
90.2591266
0
ARC
8
DEFAULT_255_2_778
10
1.7714161
20
4.8069575
40
0.1921435
50
90.5396119
51
108.7021584
0
ARC
8
DEFAULT_255_2_778
10
1.7859175
20
4.757012
40
0.2441125
50
108.1671626
51
111.2918578
0
ARC
8
DEFAULT_255_2_778
10
1.8390372
20
4.6438555
40
0.3689298
50
112.5972495
51
132.8942798
0
ARC
8
DEFAULT_255_2_778
10
2.0430682
20
4.4223031
40
0.6701161
50
132.7810899
51
161.0136962
0
ARC
8
DEFAULT_255_2_778
10
1.8669425
20
4.4837023
40
0.4835972
50
161.1034706
51
172.249239
0
ARC
8
DEFAULT_255_2_778
10
1.742926
20
4.5019681
40
0.3582528
50
172.4689085
51
179.8556867
0
ARC
8
DEFAULT_255_2_778
10
1.6334013
20
4.4992395
40
0.2487534
50
179.1636478
51
200.6261103
0
ARC
8
DEFAULT_255_2_778
10
1.5724258
20
4.478443
40
0.1843717
50
201.2527207
51
218.9744315
0
ARC
8
DEFAULT_255_2_778
10
-0.3761504
20
2.972936
40
2.278096
50
9.4220802
51
37.5864404
0
ARC
8
DEFAULT_255_2_778
10
-0.9973768
20
2.8116859
40
2.9179033
50
4.962159
51
10.5487874
0
ARC
8
DEFAULT_255_2_778
10
2.1773538
20
3.0815188
40
0.2683309
50
183.7266776
51
206.8805033
0
ARC
8
DEFAULT_255_2_778
10
2.0737217
20
3.0279571
40
0.151682
50
206.5333361
51
271.2280773
0
ARC
8
DEFAULT_255_2_778
10
2.0739349
20
3.1026688
40
0.2263792
50
270.768851
51
292.391632
0
ARC
8
DEFAULT_255_2_778
10
2.0525589
20
3.1637613
40
0.2910293
50
291.7009929
51
295.9459069
0
ARC
8
DEFAULT_255_2_778
10
2.0258773
20
3.2150655
40
0.3488397
50
296.1997456
51
308.7167729
0
ARC
8
DEFAULT_255_2_778
10
1.9933001
20
3.2585501
40
0.4031485
50
308.4637869
51
310.6059044
0
ARC
8
DEFAULT_255_2_778
10
0.6421032
20
4.666154
40
2.3537945
50
313.2769816
51
325.5832762
0
ARC
8
DEFAULT_255_2_778
10
-177.4538183
20
136.3295418
40
223.8323249
50
323.546731
51
323.5493713
0
ARC
8
DEFAULT_255_2_778
10
5.5451289
20
1.2263863
40
3.6355761
50
139.2368076
51
144.3742385
0
ARC
8
DEFAULT_255_2_778
10
7.0466641
20
-0.3803721
40
5.826773
50
130.1815594
51
136.9098439
0
ARC
8
DEFAULT_255_2_778
10
-524.0941639
20
608.2898894
40
802.0044643
50
311.1154969
51
311.123922
0
ARC
8
DEFAULT_255_2_778
10
-9.2855584
20
18.6497763
40
19.2507588
50
311.1260317
51
311.4603128
0
ARC
8
DEFAULT_255_2_778
10
6.2037432
20
1.297708
40
4.0103852
50
114.2484265
51
133.1618977
0
ARC
8
DEFAULT_255_2_778
10
5.4385017
20
2.8226791
40
2.3067835
50
101.4344288
51
112.4739534
0
ARC
8
DEFAULT_255_2_778
10
4.8796636
20
5.4575799
40
0.3874407
50
285.1914184
51
329.0990574
0
ARC
8
DEFAULT_255_2_778
10
4.6631784
20
5.6287156
40
0.6620463
50
326.0108246
51
337.2721391
0
ARC
8
DEFAULT_255_2_778
10
4.7212584
20
5.6070339
40
0.6001044
50
337.0390402
51
347.3313452
0
ARC
8
DEFAULT_255_2_778
10
4.8372192
20
5.578564
40
0.4807289
50
347.6108529
51
349.4296754
0
ARC
8
DEFAULT_255_2_778
10
4.9413139
20
5.5589615
40
0.3748046
50
349.4563618
51
356.3920282
0
ARC
8
DEFAULT_255_2_778
10
4.9522317
20
5.5582765
40
0.3638652
50
356.3914778
51
359.9882326
0
ARC
8
DEFAULT_255_2_778
10
5.0873575
20
5.5725293
40
0.2291878
50
356.4158692
51
44.555538
0
ARC
8
DEFAULT_255_2_778
10
5.1569969
20
5.6221877
40
0.1453503
50
49.8744635
51
91.6062942
0
ARC
8
DEFAULT_255_2_778
10
5.1537916
20
5.5466107
40
0.220872
50
90.2254656
51
99.8561427
0
ARC
8
DEFAULT_255_2_778
10
5.1599513
20
5.5052737
40
0.2626551
50
99.6364538
51
101.254344
0
LINE
8
DEFAULT_255_2_778
10
3.4325903
20
4.8516781
11
2.6898903
21
4.1758781
0
ARC
8
DEFAULT_255_2_778
10
6.9675509
20
3.3056676
40
1.2156507
50
30.113342
51
33.851535
0
ARC
8
DEFAULT_255_2_778
10
6.8340666
20
3.2182792
40
1.3751875
50
33.7772978
51
38.137914
0
ARC
8
DEFAULT_255_2_778
10
7.2549428
20
3.5784313
40
0.8220745
50
36.5099755
51
58.0337102
0
ARC
8
DEFAULT_255_2_778
10
7.5284033
20
3.9919052
40
0.3267868
50
60.3296494
51
73.9739423
0
ARC
8
DEFAULT_255_2_778
10
7.558415
20
4.0940965
40
0.2202824
50
74.1385653
51
89.6317399
0
ARC
8
DEFAULT_255_2_778
10
7.564181
20
4.1386213
40
0.1758068
50
91.4178916
51
114.030995
0
ARC
8
DEFAULT_255_2_778
10
7.5913119
20
4.064751
40
0.2543783
50
112.8364736
51
114.7595077
0
ARC
8
DEFAULT_255_2_778
10
7.6494822
20
3.9601677
40
0.3738191
50
116.1425121
51
154.9844306
0
ARC
8
DEFAULT_255_2_778
10
7.4734122
20
4.045364
40
0.1782603
50
155.8685399
51
178.2511569
0
ARC
8
DEFAULT_255_2_778
10
7.4279346
20
4.0497739
40
0.1327037
50
179.5551535
51
179.9998165
0
ARC
8
DEFAULT_255_2_778
10
7.4182941
20
4.0533417
40
0.123115
50
181.6604062
51
234.7320408
0
ARC
8
DEFAULT_255_2_778
10
7.5575898
20
4.2212387
40
0.3410391
50
231.9108751
51
245.8467174
0
ARC
8
DEFAULT_255_2_778
10
7.7556888
20
4.6476648
40
0.8112157
50
245.403754
51
252.2651816
0
ARC
8
DEFAULT_255_2_778
10
8.1172316
20
5.7675049
40
1.9879699
50
252.1716754
51
255.9248876
0
ARC
8
DEFAULT_255_2_778
10
8.7771658
20
8.3176821
40
4.6221197
50
255.6777801
51
256.4798728
0
ARC
8
DEFAULT_255_2_778
10
9.4920275
20
11.2701779
40
7.6599221
50
256.4439957
51
256.4529583
0
ARC
8
DEFAULT_255_2_778
10
8.5899516
20
7.5262438
40
3.8088466
50
256.4527409
51
256.4707085
0
ARC
8
DEFAULT_255_2_778
10
8.5855441
20
7.5019629
40
3.7842088
50
256.4495847
51
256.467612
0
ARC
8
DEFAULT_255_2_778
10
9.4612456
20
11.1403688
40
7.5265142
50
256.4674494
51
256.4764845
0
ARC
8
DEFAULT_255_2_778
10
9.4512114
20
11.10238
40
7.4872323
50
256.4831616
51
256.4922153
0
ARC
8
DEFAULT_255_2_778
10
9.4413545
20
11.0545979
40
7.4384698
50
256.480071
51
256.4891549
0
ARC
8
DEFAULT_255_2_778
10
9.4313992
20
11.0169069
40
7.3994959
50
256.4959237
51
256.5050264
0
ARC
8
DEFAULT_255_2_778
10
9.4214835
20
10.9793617
40
7.3606734
50
256.5118787
51
256.5210002
0
ARC
8
DEFAULT_255_2_778
10
9.4117438
20
10.9320741
40
7.3124183
50
256.508849
51
256.5180012
0
ARC
8
DEFAULT_255_2_778
10
9.4019074
20
10.8948285
40
7.2739057
50
256.5249484
51
256.5341196
0
ARC
8
DEFAULT_255_2_778
10
9.3921108
20
10.8577296
40
7.2355455
50
256.5411527
51
256.5503429
0
ARC
8
DEFAULT_255_2_778
10
9.3824888
20
10.8109386
40
7.1878001
50
256.5381868
51
256.5474083
0
ARC
8
DEFAULT_255_2_778
10
9.3727716
20
10.7741409
40
7.1497514
50
256.5545396
51
256.5637803
0
ARC
8
DEFAULT_255_2_778
10
9.363228
20
10.7276939
40
7.1023583
50
256.5515974
51
256.5608697
0
ARC
8
DEFAULT_255_2_778
10
9.3535904
20
10.6911982
40
7.064622
50
256.5681011
51
256.5773928
0
ARC
8
DEFAULT_255_2_778
10
9.3441255
20
10.6450958
40
7.0175819
50
256.5651834
51
256.5745071
0
ARC
8
DEFAULT_255_2_778
10
9.3351212
20
10.6136784
40
6.9849324
50
256.5865138
51
256.5958507
0
ARC
8
DEFAULT_255_2_778
10
9.3257331
20
10.5679046
40
6.9382294
50
256.5836378
51
256.593007
0
ARC
8
DEFAULT_255_2_778
10
9.3162532
20
10.5320056
40
6.9011106
50
256.600461
51
256.6098499
0
ARC
8
DEFAULT_255_2_778
10
9.3069439
20
10.4865772
40
6.8547615
50
256.5976115
51
256.6070331
0
ARC
8
DEFAULT_255_2_778
10
9.2975439
20
10.4509823
40
6.8179573
50
256.6145936
51
256.6240351
0
ARC
8
DEFAULT_255_2_778
10
6.1217579
20
-2.9088226
40
6.9141221
50
76.6185523
51
76.6324741
0
ARC
8
DEFAULT_255_2_778
10
9.2746778
20
10.3505308
40
6.7149409
50
256.6299001
51
256.6394081
0
ARC
8
DEFAULT_255_2_778
10
9.265545
20
10.3058813
40
6.6693896
50
256.6271059
51
256.6366474
0
ARC
8
DEFAULT_255_2_778
10
9.2563237
20
10.2709691
40
6.6332913
50
256.6444432
51
256.6540051
0
ARC
8
DEFAULT_255_2_778
10
2.718774
20
-17.2965351
40
21.6987902
50
76.6546081
51
76.6604368
0
ARC
8
DEFAULT_255_2_778
10
9.2296716
20
10.1526432
40
6.5120087
50
256.6612773
51
256.6709211
0
ARC
8
DEFAULT_255_2_778
10
9.2207342
20
10.1088604
40
6.467345
50
256.6585424
51
256.6682207
0
ARC
8
DEFAULT_255_2_778
10
2.8860263
20
-16.6493724
40
21.0305016
50
76.6791019
51
76.6850366
0
ARC
8
DEFAULT_255_2_778
10
9.1945442
20
9.9925096
40
6.34809
50
256.6757418
51
256.685504
0
ARC
8
DEFAULT_255_2_778
10
-14.765952
20
-92.2692194
40
98.6831918
50
76.7387274
51
76.8213702
0
ARC
8
DEFAULT_255_2_778
10
6.5841905
20
-1.6747821
40
5.6069831
50
75.216274
51
76.7304835
0
ARC
8
DEFAULT_255_2_778
10
7.5581978
20
1.8913845
40
1.910597
50
64.3184132
51
76.1693758
0
ARC
8
DEFAULT_255_2_778
10
8.0616704
20
2.939871
40
0.7474943
50
42.8500256
51
64.2690212
0
ARC
8
DEFAULT_255_2_778
10
8.2516946
20
3.1261498
40
0.4815517
50
9.5747303
51
41.9771685
0
ARC
8
DEFAULT_255_2_778
10
8.1623264
20
3.1103298
40
0.5723068
50
359.8342666
51
9.6482826
0
ARC
8
DEFAULT_255_2_778
10
7.8515437
20
3.1040022
40
0.8830995
50
332.8238228
51
0.3031303
0
ARC
8
DEFAULT_255_2_778
10
7.6370354
20
3.2548817
40
1.1434131
50
292.9460334
51
331.0069796
0
ARC
8
DEFAULT_255_2_778
10
7.4350761
20
3.6278554
40
1.5661365
50
278.4430186
51
294.4304095
0
ARC
8
DEFAULT_255_2_778
10
7.4433167
20
3.5577954
40
1.4956273
50
270.2145717
51
278.5248208
0
ARC
8
DEFAULT_255_2_778
10
7.4455302
20
3.4966589
40
1.4344845
50
270.0000231
51
270.135306
0
ARC
8
DEFAULT_255_2_778
10
7.4359874
20
3.0549807
40
0.9928523
50
250.5888531
51
270.5507423
0
ARC
8
DEFAULT_255_2_778
10
7.4656997
20
3.0391053
40
0.9883151
50
203.3389677
51
248.6580057
0
ARC
8
DEFAULT_255_2_778
10
8.0904676
20
3.3793023
40
1.6979771
50
195.7860537
51
205.527661
0
ARC
8
DEFAULT_255_2_778
10
7.7732818
20
3.4460533
40
0.7980846
50
215.8915135
51
220.8992049
0
ARC
8
DEFAULT_255_2_778
10
7.846883
20
3.5079036
40
0.8942134
50
220.8070304
51
221.477926
0
ARC
8
DEFAULT_255_2_778
10
7.7981455
20
3.4423284
40
0.8144403
50
220.2924908
51
251.4637022
0
ARC
8
DEFAULT_255_2_778
10
7.6404068
20
3.0293277
40
0.3731661
50
254.2685333
51
269.5277074
0
ARC
8
DEFAULT_255_2_778
10
7.637224
20
2.9753752
40
0.3192009
50
270.0191669
51
274.8058556
0
ARC
8
DEFAULT_255_2_778
10
7.6592149
20
2.9331137
40
0.2758581
50
270.9869614
51
355.5217197
0
ARC
8
DEFAULT_255_2_778
10
7.7900046
20
2.9107099
40
0.1442288
50
0.3434165
51
66.2253872
0
ARC
8
DEFAULT_255_2_778
10
7.6441478
20
2.6560725
40
0.437146
50
62.1819115
51
74.9502842
0
ARC
8
DEFAULT_255_2_778
10
7.4543434
20
1.9745954
40
1.1445506
50
74.632704
51
80.8916573
0
ARC
8
DEFAULT_255_2_778
10
6.9988084
20
-0.8017156
40
3.9579799
50
80.7426142
51
82.949579
0
ARC
8
DEFAULT_255_2_778
10
10.3225855
20
25.4926902
40
22.5456833
50
262.4758119
51
262.7686449
0
ARC
8
DEFAULT_255_2_778
10
7.9217339
20
7.3135451
40
4.208688
50
260.8563587
51
262.4719491
0
ARC
8
DEFAULT_255_2_778
10
7.4471243
20
4.5679543
40
1.422931
50
247.2244534
51
262.1561184
0
ARC
8
DEFAULT_255_2_778
10
7.0883566
20
3.735732
40
0.5167834
50
202.5301907
51
248.1804688
0
ARC
8
DEFAULT_255_2_778
10
7.1464768
20
3.7433668
40
0.5735951
50
185.2404398
51
201.0099164
0
ARC
8
DEFAULT_255_2_778
10
7.3331541
20
3.7654432
40
0.7615243
50
179.9073743
51
185.6116599
0
ARC
8
DEFAULT_255_2_778
10
7.6991594
20
3.7760463
40
1.1275676
50
161.7154527
51
180.4762283
0
ARC
8
DEFAULT_255_2_778
10
7.5706502
20
3.7975299
40
0.9990052
50
104.2243487
51
160.5729599
0
ARC
8
DEFAULT_255_2_778
10
7.7314367
20
3.3463495
40
1.476547
50
89.685915
51
105.9705282
0
ARC
8
DEFAULT_255_2_778
10
7.734528
20
3.9651622
40
0.8577267
50
81.5155647
51
89.6658171
0
ARC
8
DEFAULT_255_2_778
10
7.6785465
20
3.579725
40
1.2472062
50
74.0483104
51
81.5844199
0
ARC
8
DEFAULT_255_2_778
10
7.6223642
20
3.3706184
40
1.4637053
50
70.0733327
51
74.1833239
0
ARC
8
DEFAULT_255_2_778
10
7.7114925
20
3.5559484
40
1.2592636
50
46.6070407
51
71.0119612
0
ARC
8
DEFAULT_255_2_778
10
8.1904329
20
4.0626064
40
0.5620647
50
15.1167549
51
46.6022744
0
ARC
8
DEFAULT_255_2_778
10
8.3336914
20
4.114527
40
0.4104218
50
6.5542696
51
13.3345795
0
ARC
8
DEFAULT_255_2_778
10
6.8139759
20
8.7759332
40
5.0009235
50
286.2410245
51
292.6698041
0
LINE
8
DEFAULT_255_2_778
10
8.2126272
20
3.9745783
11
8.2075932
21
3.9730102
0
ARC
8
DEFAULT_255_2_778
10
12.4350458
20
-9.7099376
40
14.3211178
50
107.1689386
51
107.9686474
0
ARC
8
DEFAULT_255_2_778
10
12.3296554
20
4.3468198
40
3.2669965
50
179.2606845
51
183.5790733
0
ARC
8
DEFAULT_255_2_778
10
10.7066766
20
4.5367909
40
1.6440461
50
180.0030676
51
181.0949498
0
ARC
8
DEFAULT_255_2_778
10
10.596205
20
4.537907
40
1.5335748
50
174.7634044
51
180.0449871
0
ARC
8
DEFAULT_255_2_778
10
11.2309943
20
3.4782965
40
0.3006908
50
14.1961303
51
59.273208
0
ARC
8
DEFAULT_255_2_778
10
11.0655919
20
3.4067153
40
0.4794644
50
14.3256852
51
17.6435818
0
ARC
8
DEFAULT_255_2_778
10
11.1016129
20
3.4137188
40
0.4428357
50
0.5117895
51
14.6008878
0
ARC
8
DEFAULT_255_2_778
10
11.1304228
20
3.4116123
40
0.4140524
50
331.739962
51
0.8388894
0
ARC
8
DEFAULT_255_2_778
10
11.0417243
20
3.4887645
40
0.5293451
50
291.8867662
51
328.9289645
0
ARC
8
DEFAULT_255_2_778
10
10.7610917
20
4.0935839
40
1.1956937
50
279.6737523
51
293.5614965
0
ARC
8
DEFAULT_255_2_778
10
10.6326281
20
4.7488664
40
1.8633185
50
273.8545364
51
280.1818825
0
ARC
8
DEFAULT_255_2_778
10
10.613456
20
4.9764738
40
2.0917035
50
270.4813216
51
273.9593968
0
ARC
8
DEFAULT_255_2_778
10
10.6142311
20
4.9115354
40
2.026761
50
269.9999917
51
270.474833
0
ARC
8
DEFAULT_255_2_778
10
10.7408242
20
2.5755414
40
0.3238992
50
112.4124477
51
135.7205637
0
ARC
8
DEFAULT_255_2_778
10
10.9556142
20
-0.4589195
40
3.2698958
50
88.5085575
51
90.062789
0
ARC
8
DEFAULT_255_2_778
10
11.0487972
20
1.6392282
40
1.1706682
50
71.4457207
51
90.3952342
0
ARC
8
DEFAULT_255_2_778
10
11.2959804
20
2.3695856
40
0.399623
50
14.2408713
51
71.7229236
0
ARC
8
DEFAULT_255_2_778
10
11.0959159
20
2.3199601
40
0.6057484
50
359.3959796
51
14.1353926
0
ARC
8
DEFAULT_255_2_778
10
11.0853355
20
2.3061509
40
0.61634
50
341.1190862
51
0.6901102
0
ARC
8
DEFAULT_255_2_778
10
11.1234265
20
2.3232321
40
0.5865184
50
286.1505531
51
338.3350123
0
ARC
8
DEFAULT_255_2_778
10
10.826599
20
3.0870525
40
1.40464
50
276.0334537
51
289.115171
0
ARC
8
DEFAULT_255_2_778
10
10.7148989
20
3.961738
40
2.2863013
50
271.2307241
51
276.5132151
0
ARC
8
DEFAULT_255_2_778
10
10.6972601
20
4.4956716
40
2.8204973
50
269.989248
51
271.3559933
0
ARC
8
DEFAULT_255_2_778
10
10.7033234
20
3.5480601
40
1.8728974
50
267.4542545
51
269.7983182
0
ARC
8
DEFAULT_255_2_778
10
10.9423888
20
9.4042434
40
7.733949
50
267.3451964
51
267.6119397
0
ARC
8
DEFAULT_255_2_778
10
10.4527739
20
-0.7917419
40
2.4738286
50
86.9554725
51
89.5663368
0
ARC
8
DEFAULT_255_2_778
10
10.4703751
20
0.6371166
40
1.0448998
50
89.9384407
51
92.3005841
0
ARC
8
DEFAULT_255_2_778
10
13.8865982
20
1.9249706
40
3.4667505
50
180.1305702
51
184.0326057
0
ARC
8
DEFAULT_255_2_778
10
32.8073674
20
2.1325391
40
22.3885474
50
180.4186541
51
180.5514268
0
ARC
8
DEFAULT_255_2_778
10
4.422769
20
1.9554986
40
5.9966638
50
0.1285214
51
2.0133382
0
ARC
8
DEFAULT_255_2_778
10
10.7686364
20
5.9435549
40
3.7932829
50
269.9364757
51
270.5448825
0
ARC
8
DEFAULT_255_2_778
10
10.7782592
20
4.8559052
40
2.7055909
50
270.5601523
51
271.9604879
0
ARC
8
DEFAULT_255_2_778
10
10.8079393
20
4.1129758
40
1.9620856
50
271.8364706
51
275.8485459
0
ARC
8
DEFAULT_255_2_778
10
10.935151
20
2.9842023
40
0.8263054
50
275.0491442
51
286.6211402
0
ARC
8
DEFAULT_255_2_778
10
11.1160166
20
2.3886504
40
0.2039237
50
285.7906761
51
309.5733754
0
ARC
8
DEFAULT_255_2_778
10
11.2058211
20
2.2793008
40
0.0624261
50
309.9778866
51
358.6906078
0
ARC
8
DEFAULT_255_2_778
10
11.164171
20
2.2689378
40
0.1044428
50
4.9084466
51
80.9210212
0
ARC
8
DEFAULT_255_2_778
10
11.0595667
20
1.9870172
40
0.4036446
50
72.5436489
51
83.11151
0
ARC
8
DEFAULT_255_2_778
10
11.0040224
20
1.5415814
40
0.8525285
50
82.9959887
51
89.4830682
0
ARC
8
DEFAULT_255_2_778
10
10.9825614
20
0.3104099
40
2.0838692
50
89.1984283
51
90.1245702
0
ARC
8
DEFAULT_255_2_778
10
10.9990008
20
-0.0369344
40
2.4312992
50
90.4941843
51
95.9547671
0
ARC
8
DEFAULT_255_2_778
10
11.7390071
20
-7.8007801
40
10.2302583
50
95.5658925
51
96.1566371
0
ARC
8
DEFAULT_255_2_778
10
10.2486431
20
5.5330101
40
3.1868854
50
271.0641733
51
277.087253
0
ARC
8
DEFAULT_255_2_778
10
10.3102534
20
1.9572471
40
0.3894347
50
90.3564327
51
92.0247291
0
ARC
8
DEFAULT_255_2_778
10
10.2825406
20
2.7525065
40
0.4063074
50
270.2567353
51
271.9680943
0
ARC
8
DEFAULT_255_2_778
10
10.2843267
20
2.5410857
40
0.1948825
50
269.3535806
51
270.0101333
0
ARC
8
DEFAULT_255_2_778
10
10.2741175
20
2.3880824
40
0.0426263
50
201.7681557
51
280.8317638
0
ARC
8
DEFAULT_255_2_778
10
10.2765486
20
2.6248999
40
0.2560961
50
246.8622617
51
260.5567569
0
ARC
8
DEFAULT_255_2_778
10
10.3073969
20
2.7161624
40
0.3522189
50
193.3483511
51
248.0814103
0
ARC
8
DEFAULT_255_2_778
10
10.1384217
20
2.6566457
40
0.1750909
50
180.0560913
51
187.152432
0
ARC
8
DEFAULT_255_2_778
10
10.3706761
20
2.6169261
40
0.4092607
50
105.6708055
51
174.4546604
0
ARC
8
DEFAULT_255_2_778
10
10.5113088
20
3.3345809
40
0.4096481
50
181.0878952
51
232.1819771
0
ARC
8
DEFAULT_255_2_778
10
10.7058912
20
3.3680128
40
0.6055605
50
179.984717
51
183.9021081
0
ARC
8
DEFAULT_255_2_778
10
10.7372269
20
3.3470048
40
0.6372478
50
97.1776671
51
178.0962719
0
ARC
8
DEFAULT_255_2_778
10
10.770692
20
3.2823463
40
0.7060281
50
90.013086
51
99.2169719
0
ARC
8
DEFAULT_255_2_778
10
10.7843331
20
3.0262939
40
0.9621794
50
90.0009555
51
90.8219252
0
ARC
8
DEFAULT_255_2_778
10
10.7840501
20
3.0225057
40
0.9659676
50
68.5349032
51
89.9841654
0
ARC
8
DEFAULT_255_2_778
10
10.9120451
20
4.45617
40
0.5802959
50
292.8655633
51
339.8550974
0
ARC
8
DEFAULT_255_2_778
10
10.9117508
20
4.4696649
40
0.5853546
50
338.6248286
51
341.2774475
0
ARC
8
DEFAULT_255_2_778
10
11.5315857
20
4.0582759
40
0.2664441
50
6.2616735
51
9.0255513
0
ARC
8
DEFAULT_255_2_778
10
11.5247
20
4.0576694
40
0.2733548
50
359.955732
51
6.2306378
0
ARC
8
DEFAULT_255_2_778
10
11.5060236
20
4.0574906
40
0.2920313
50
358.3289021
51
359.993647
0
ARC
8
DEFAULT_255_2_778
10
11.6459413
20
4.0607776
40
0.1524471
50
313.5360987
51
355.5593973
0
ARC
8
DEFAULT_255_2_778
10
11.3236073
20
4.3687465
40
0.5981218
50
299.1626606
51
315.5999729
0
ARC
8
DEFAULT_255_2_778
10
11.0328457
20
4.8350021
40
1.1472708
50
297.94122
51
300.4963317
0
ARC
8
DEFAULT_255_2_778
10
10.8917662
20
5.1042953
40
1.4512781
50
293.3112946
51
297.8801146
0
ARC
8
DEFAULT_255_2_778
10
10.920736
20
5.0304142
40
1.3719664
50
290.4822708
51
293.4212003
0
ARC
8
DEFAULT_255_2_778
10
11.0720853
20
4.6286999
40
0.9426893
50
289.2789473
51
290.4084733
0
ARC
8
DEFAULT_255_2_778
10
10.8305253
20
3.4911857
40
0.2325413
50
94.6110989
51
165.1584794
0
ARC
8
DEFAULT_255_2_778
10
11.052148
20
3.3770336
40
0.4790154
50
158.7367446
51
166.1617004
0
ARC
8
DEFAULT_255_2_778
10
11.058805
20
3.3737394
40
0.4862697
50
165.9724254
51
178.2781213
0
ARC
8
DEFAULT_255_2_778
10
10.9693287
20
3.3784248
40
0.396698
50
178.5662242
51
179.9928419
0
ARC
8
DEFAULT_255_2_778
10
10.8135693
20
3.3578044
40
0.2418235
50
175.0966438
51
236.4526215
0
ARC
8
DEFAULT_255_2_778
10
10.7759386
20
3.3377461
40
0.2053145
50
242.1206428
51
271.1699634
0
ARC
8
DEFAULT_255_2_778
10
10.7904178
20
3.3532839
40
0.2210491
50
267.332649
51
310.9914212
0
ARC
8
DEFAULT_255_2_778
10
10.7296259
20
3.3815373
40
0.2835735
50
316.5267796
51
2.7983904
0
ARC
8
DEFAULT_255_2_778
10
10.5177911
20
3.4036717
40
0.4951397
50
359.0406872
51
0.0003062
0
ARC
8
DEFAULT_255_2_778
10
10.563386
20
3.4000012
40
0.4495598
50
0.4681463
51
10.7397508
0
ARC
8
DEFAULT_255_2_778
10
10.4970008
20
3.3899973
40
0.5166527
50
10.4578321
51
14.9569704
0
ARC
8
DEFAULT_255_2_778
10
10.698953
20
3.4626157
40
0.3033369
50
11.5483149
51
51.4658637
0
ARC
8
DEFAULT_255_2_778
10
10.8120909
20
3.5856461
40
0.1371285
50
56.4253915
51
90.108662
0
LINE
8
DEFAULT_255_2_778
10
6.4565308
20
2.9173743
11
7.1267308
21
2.9781743
0
LINE
8
DEFAULT_255_2_778
10
9.0629308
20
4.3889743
11
9.0629308
21
4.5053743
0
LINE
8
DEFAULT_255_2_778
10
9.0690308
20
4.6778743
11
9.7516308
21
4.7254743
0
LINE
8
DEFAULT_255_2_778
10
9.7516308
20
4.7254743
11
9.7802308
21
4.1920743
0
LINE
8
DEFAULT_255_2_778
10
9.7802308
20
4.1920743
11
9.0690308
21
4.1428743
0
LINE
8
DEFAULT_255_2_778
10
9.0880308
20
2.1103743
11
9.0722308
21
3.8333743
0
LINE
8
DEFAULT_255_2_778
10
9.0722308
20
3.8333743
11
9.7389308
21
3.8393743
0
LINE
8
DEFAULT_255_2_778
10
9.7389308
20
3.8393743
11
9.7516308
21
2.1579743
0
LINE
8
DEFAULT_255_2_778
10
9.7516308
20
2.1579743
11
9.0880308
21
2.1103743
0
LINE
8
DEFAULT_255_2_778
10
10.6142308
20
2.8847743
11
10.6173308
21
2.8749743
0
LINE
8
DEFAULT_255_2_778
10
10.5089308
20
2.8016743
11
10.5149308
21
2.7919743
0
LINE
8
DEFAULT_255_2_778
10
10.5149308
20
2.7919743
11
10.9520308
21
2.8109743
0
LINE
8
DEFAULT_255_2_778
10
10.4157308
20
2.1661743
11
10.7644308
21
2.1502743
0
LINE
8
DEFAULT_255_2_778
10
11.4661308
20
4.2817743
11
11.7947308
21
4.1000743
0
ARC
8
DEFAULT_255_2_778
10
20.4383332
20
2.4399448
40
7.4680674
50
179.8472815
51
179.9893582
0
ARC
8
DEFAULT_255_2_778
10
46.1435194
20
2.373349
40
33.1733398
50
179.8161514
51
179.8505976
0
ARC
8
DEFAULT_255_2_778
10
-10.2267177
20
2.5536649
40
23.1971858
50
359.8175432
51
359.8700986
0
ARC
8
DEFAULT_255_2_778
10
2.7058911
20
2.5243652
40
10.264544
50
359.8699804
51
359.995691
0
ARC
8
DEFAULT_255_2_778
10
7.6185775
20
2.5290743
40
5.3518604
50
359.9413206
51
1.0069031
0
ARC
8
DEFAULT_255_2_778
10
9.6957034
20
2.5678524
40
3.2743745
50
0.9671636
51
3.6272242
0
ARC
8
DEFAULT_255_2_778
10
10.6433311
20
2.6260895
40
2.3249614
50
3.6723467
51
6.2152667
0
ARC
8
DEFAULT_255_2_778
10
11.7228789
20
2.7644836
40
1.2369494
50
5.2561975
51
19.0679485
0
ARC
8
DEFAULT_255_2_778
10
12.4622293
20
3.021494
40
0.4542053
50
18.8950142
51
41.9359163
0
ARC
8
DEFAULT_255_2_778
10
12.6248834
20
3.1635915
40
0.2382634
50
42.6564519
51
90.7977772
0
ARC
8
DEFAULT_255_2_778
10
12.6137751
20
3.098393
40
0.303539
50
88.529241
51
89.9994203
0
ARC
8
DEFAULT_255_2_778
10
12.6136442
20
3.0998436
40
0.3020884
50
89.9745966
51
121.530598
0
ARC
8
DEFAULT_255_2_778
10
13.3272034
20
3.7704208
40
0.8670827
50
173.3433826
51
177.9446012
0
ARC
8
DEFAULT_255_2_778
10
13.8295543
20
3.7478579
40
1.3699273
50
177.7550899
51
178.7253522
0
ARC
8
DEFAULT_255_2_778
10
12.8605675
20
3.779969
40
0.4006049
50
180.2341426
51
192.6363249
0
ARC
8
DEFAULT_255_2_778
10
12.7528076
20
3.4023517
40
0.4052872
50
94.3720942
51
134.3163699
0
ARC
8
DEFAULT_255_2_778
10
12.8410441
20
2.8746896
40
0.9393551
50
89.6997925
51
97.2861138
0
ARC
8
DEFAULT_255_2_778
10
12.854903
20
3.0637839
40
0.7503013
50
64.4100289
51
90.6824828
0
ARC
8
DEFAULT_255_2_778
10
12.8563568
20
3.1080834
40
0.709943
50
9.0723044
51
62.9714695
0
ARC
8
DEFAULT_255_2_778
10
12.63736
20
3.0468199
40
0.9362206
50
0.3189755
51
10.6615786
0
LINE
8
DEFAULT_255_2_778
10
12.964266
20
2.0968319
11
12.970266
21
2.4413319
0
LINE
8
DEFAULT_255_2_778
10
12.455666
20
3.3573319
11
12.408066
21
2.1736319
0
LINE
8
DEFAULT_255_2_778
10
12.408066
20
2.1736319
11
11.865666
21
2.1545319
0
LINE
8
DEFAULT_255_2_778
10
11.865666
20
2.1545319
11
11.884666
21
3.9095319
0
LINE
8
DEFAULT_255_2_778
10
11.884666
20
3.9095319
11
12.465966
21
3.8709319
0
LINE
8
DEFAULT_255_2_778
10
13.573566
20
3.0520319
11
13.583366
21
2.1458319
0
LINE
8
DEFAULT_255_2_778
10
13.583366
20
2.1458319
11
12.964266
21
2.0968319
0
ARC
8
DEFAULT_255_2_778
10
11.5923101
20
3.625193
40
4.3762817
50
349.9040646
51
353.9736689
0
ARC
8
DEFAULT_255_2_778
10
14.3136806
20
3.1315912
40
1.6105479
50
340.0648124
51
350.2210721
0
ARC
8
DEFAULT_255_2_778
10
15.2265517
20
2.7758613
40
0.6315134
50
291.0976365
51
342.1669446
0
ARC
8
DEFAULT_255_2_778
10
15.0850122
20
3.1514963
40
1.0329222
50
277.5663207
51
290.9222949
0
ARC
8
DEFAULT_255_2_778
10
14.9618079
20
4.0047726
40
1.8950171
50
270.4993037
51
277.8619446
0
ARC
8
DEFAULT_255_2_778
10
14.9397596
20
4.7593293
40
2.6497825
50
269.9945458
51
270.8338528
0
ARC
8
DEFAULT_255_2_778
10
14.927388
20
3.3867345
40
1.2772451
50
251.7183178
51
270.5436689
0
ARC
8
DEFAULT_255_2_778
10
14.8599097
20
3.1547585
40
1.0358473
50
204.8817676
51
251.237315
0
ARC
8
DEFAULT_255_2_778
10
15.1720377
20
3.3287237
40
1.3924503
50
197.6190751
51
205.9718484
0
ARC
8
DEFAULT_255_2_778
10
14.9989661
20
3.3196679
40
1.2255377
50
182.7182707
51
199.6651517
0
ARC
8
DEFAULT_255_2_778
10
18.5562854
20
3.5939204
40
3.9900789
50
179.9622847
51
181.1335535
0
ARC
8
DEFAULT_255_2_778
10
17.6364254
20
3.5754486
40
3.0700334
50
181.1285033
51
183.1832934
0
ARC
8
DEFAULT_255_2_778
10
16.7829042
20
3.5225211
40
2.2148967
50
183.0423233
51
188.4249305
0
ARC
8
DEFAULT_255_2_778
10
15.6572634
20
3.3371181
40
1.074398
50
187.4393369
51
203.9516469
0
ARC
8
DEFAULT_255_2_778
10
15.0287424
20
3.0540529
40
0.3851014
50
203.4261337
51
235.0804336
0
ARC
8
DEFAULT_255_2_778
10
14.950199
20
2.9609925
40
0.2640704
50
237.4964609
51
270.782931
0
ARC
8
DEFAULT_255_2_778
10
14.9480108
20
2.8845245
40
0.1876672
50
271.7699929
51
327.0097687
0
ARC
8
DEFAULT_255_2_778
10
14.702467
20
3.0745135
40
0.4977304
50
324.0548409
51
339.0644652
0
ARC
8
DEFAULT_255_2_778
10
14.1560482
20
3.2909987
40
1.0854524
50
338.6976809
51
347.3947539
0
ARC
8
DEFAULT_255_2_778
10
13.0787147
20
3.5357003
40
2.1902235
50
347.2981137
51
353.3511182
0
ARC
8
DEFAULT_255_2_778
10
11.0513894
20
3.7752979
40
4.2316568
50
353.3070715
51
357.7275221
0
ARC
8
DEFAULT_255_2_778
10
8.446562
20
3.8967974
40
6.8392773
50
357.5757412
51
359.4807263
0
ARC
8
DEFAULT_255_2_778
10
6.6309373
20
3.9200826
40
8.6550414
50
359.435516
51
0.0057405
0
ARC
8
DEFAULT_255_2_778
10
5.3764834
20
3.9198172
40
9.9094952
50
0.0065484
51
0.5381291
0
ARC
8
DEFAULT_255_2_778
10
3.5699667
20
3.9025579
40
11.7160943
50
0.5395558
51
1.0193358
0
ARC
8
DEFAULT_255_2_778
10
0.8153133
20
3.8540033
40
14.4711755
50
1.0175228
51
1.3200887
0
ARC
8
DEFAULT_255_2_778
10
-4.5156535
20
3.7306739
40
19.8035687
50
1.3214851
51
1.5258754
0
ARC
8
DEFAULT_255_2_778
10
-14.6590957
20
3.4695565
40
29.9503687
50
1.5085074
51
1.5106568
0
ARC
8
DEFAULT_255_2_778
10
-4.3500615
20
3.7394826
40
19.6378013
50
1.5163274
51
1.5195874
0
ARC
8
DEFAULT_255_2_778
10
-13.6783064
20
3.4891196
40
28.969405
50
1.525327
51
1.5275246
0
ARC
8
DEFAULT_255_2_778
10
-3.7046584
20
3.7531608
40
18.9922628
50
1.5333228
51
1.5366563
0
ARC
8
DEFAULT_255_2_778
10
-13.1060311
20
3.5083781
40
28.3968199
50
1.5216907
51
1.5239079
0
ARC
8
DEFAULT_255_2_778
10
-12.6413126
20
3.5177514
40
27.9320166
50
1.5300385
51
1.5322801
0
ARC
8
DEFAULT_255_2_778
10
-12.1825546
20
3.5270499
40
27.4731741
50
1.5384784
51
1.5407448
0
ARC
8
DEFAULT_255_2_778
10
-12.1045685
20
3.5362814
40
27.394969
50
1.52583
51
1.5280903
0
ARC
8
DEFAULT_255_2_778
10
-11.651343
20
3.5454318
40
26.9416607
50
1.5343406
51
1.5366262
0
ARC
8
DEFAULT_255_2_778
10
-11.2039774
20
3.5545089
40
26.4942127
50
1.5429467
51
1.545258
0
ARC
8
DEFAULT_255_2_778
10
-8.349498
20
3.6348813
40
23.6386043
50
1.5370954
51
1.540958
0
ARC
8
DEFAULT_255_2_778
10
-7.7666841
20
3.6469537
40
23.0556767
50
1.5499161
51
1.5538435
0
ARC
8
DEFAULT_255_2_778
10
-7.407009
20
3.6588863
40
22.6958106
50
1.5483525
51
1.552309
0
LINE
8
DEFAULT_255_2_778
10
15.2804724
20
4.2737064
11
15.2803602
21
4.277841
0
ARC
8
DEFAULT_255_2_778
10
294.2350091
20
11.8829514
40
279.0582982
50
181.5608313
51
181.5616618
0
ARC
8
DEFAULT_255_2_778
10
172.5799154
20
8.58832
40
157.3586036
50
181.5667702
51
181.5682104
0
ARC
8
DEFAULT_255_2_778
10
169.6854371
20
8.5284481
40
154.4635716
50
181.5724911
51
181.5739259
0
ARC
8
DEFAULT_255_2_778
10
137.9917409
20
7.6730324
40
122.7583378
50
181.5775564
51
181.5793219
0
ARC
8
DEFAULT_255_2_778
10
337.9836925
20
13.2233459
40
322.827291
50
181.5841013
51
181.5850845
0
ARC
8
DEFAULT_255_2_778
10
2758.4628478
20
80.8621138
40
2744.2513114
50
181.5975933
51
181.5987279
0
ARC
8
DEFAULT_255_2_778
10
34.6675793
20
4.8932185
40
19.3968312
50
181.4872152
51
181.5949206
0
ARC
8
DEFAULT_255_2_778
10
21.8910501
20
4.5639641
40
6.6160609
50
181.1234113
51
181.5084944
0
ARC
8
DEFAULT_255_2_778
10
17.8043973
20
4.4842349
40
2.5286307
50
180.4296463
51
181.1326771
0
ARC
8
DEFAULT_255_2_778
10
16.6461531
20
4.474374
40
1.3703456
50
180.009498
51
180.3805039
0
ARC
8
DEFAULT_255_2_778
10
17.2702477
20
4.5198917
40
1.9949649
50
180.1862106
51
181.3139151
0
ARC
8
DEFAULT_255_2_778
10
17.221408
20
4.5198315
40
1.9461252
50
179.9982328
51
180.1891122
0
ARC
8
DEFAULT_255_2_778
10
17.2537192
20
4.5201777
40
1.9784364
50
173.3716238
51
180.0082884
0
ARC
8
DEFAULT_255_2_778
10
14.6309063
20
3.6140696
40
1.3614284
50
353.3068451
51
359.6371096
0
ARC
8
DEFAULT_255_2_778
10
11.6591427
20
3.9598453
40
4.35324
50
351.463801
51
353.3456202
0
ARC
8
DEFAULT_255_2_778
10
19.8807971
20
2.7249156
40
3.9606431
50
171.4511492
51
173.6168482
0
ARC
8
DEFAULT_255_2_778
10
17.2220339
20
3.0748192
40
0.8054218
50
91.423443
51
115.7195848
0
ARC
8
DEFAULT_255_2_778
10
17.2392183
20
2.9014153
40
0.9792836
50
91.2996273
51
92.1765521
0
ARC
8
DEFAULT_255_2_778
10
17.2180948
20
3.1422379
40
0.7382097
50
44.8584701
51
90.084398
0
ARC
8
DEFAULT_255_2_778
10
17.0935838
20
3.0217953
40
0.9114279
50
359.8209321
51
44.704521
0
ARC
8
DEFAULT_255_2_778
10
17.1057347
20
3.010875
40
0.8993089
50
339.870777
51
0.5142705
0
ARC
8
DEFAULT_255_2_778
10
17.1855005
20
3.0033517
40
0.8220789
50
277.9531775
51
338.4497563
0
ARC
8
DEFAULT_255_2_778
10
17.1076182
20
3.2747806
40
1.1023839
50
269.9149555
51
280.0106237
0
ARC
8
DEFAULT_255_2_778
10
17.1068064
20
3.3712474
40
1.1988497
50
262.9055569
51
269.9606006
0
ARC
8
DEFAULT_255_2_778
10
17.1124282
20
3.4226948
40
1.2505977
50
262.4822078
51
262.9410752
0
ARC
8
DEFAULT_255_2_778
10
17.1160398
20
3.4515774
40
0.206184
50
162.7711455
51
176.6137014
0
ARC
8
DEFAULT_255_2_778
10
17.9554584
20
3.3752972
40
1.0489792
50
175.1625811
51
179.2117587
0
ARC
8
DEFAULT_255_2_778
10
19.437495
20
3.3427434
40
2.5313524
50
178.9364685
51
180.0575887
0
ARC
8
DEFAULT_255_2_778
10
22.6399808
20
3.3437893
40
5.7338381
50
180.0358748
51
180.3901381
0
ARC
8
DEFAULT_255_2_778
10
10.5245096
20
3.2594497
40
6.3819268
50
0.1813134
51
0.4066721
0
ARC
8
DEFAULT_255_2_778
10
15.2531217
20
3.276492
40
1.6532857
50
0.0053652
51
0.1092817
0
ARC
8
DEFAULT_255_2_778
10
17.3933544
20
1.5064958
40
1.1289885
50
109.1880954
51
114.838604
0
ARC
8
DEFAULT_255_2_778
10
17.5976812
20
0.9160121
40
1.7538242
50
106.4827604
51
109.1521853
0
ARC
8
DEFAULT_255_2_778
10
8.6787011
20
31.2096374
40
29.8254736
50
286.4008118
51
286.5410998
0
ARC
8
DEFAULT_255_2_778
10
17.0680438
20
3.0380247
40
0.4317914
50
283.6721674
51
304.7463474
0
ARC
8
DEFAULT_255_2_778
10
17.1716955
20
2.8611219
40
0.227896
50
308.6855291
51
342.1315165
0
ARC
8
DEFAULT_255_2_778
10
16.9051597
20
2.9550077
40
0.5104383
50
341.281196
51
354.1081581
0
ARC
8
DEFAULT_255_2_778
10
16.2590964
20
3.0306113
40
1.1608835
50
353.6696233
51
0.055002
0
ARC
8
DEFAULT_255_2_778
10
15.6775117
20
3.0416039
40
1.7424956
50
359.675187
51
0.0014116
0
ARC
8
DEFAULT_255_2_778
10
16.7355634
20
3.053322
40
0.6845436
50
359.0227522
51
14.2493162
0
ARC
8
DEFAULT_255_2_778
10
17.0724383
20
3.1400506
40
0.3366873
50
14.055082
51
80.0936513
0
ARC
8
DEFAULT_255_2_778
10
16.8751817
20
2.4108952
40
1.0910829
50
76.474536
51
87.5087596
0
ARC
8
DEFAULT_255_2_778
10
19.1695723
20
3.2690761
40
1.1703706
50
252.3916057
51
270.4814854
0
ARC
8
DEFAULT_255_2_778
10
19.1168342
20
3.0693232
40
0.9640768
50
194.2263256
51
251.7877743
0
ARC
8
DEFAULT_255_2_778
10
19.5403042
20
3.2137994
40
1.4105244
50
179.640614
51
195.6878593
0
ARC
8
DEFAULT_255_2_778
10
19.8162551
20
3.2205792
40
1.686449
50
172.0530864
51
179.9297536
0
ARC
8
DEFAULT_255_2_778
10
19.8274928
20
3.241539
40
1.6948278
50
131.2506071
51
172.8073997
0
ARC
8
DEFAULT_255_2_778
10
19.4338732
20
3.656041
40
1.1238848
50
93.4293032
51
130.0967114
0
ARC
8
DEFAULT_255_2_778
10
19.4314582
20
3.633377
40
1.1463699
50
89.9925455
51
93.2410593
0
ARC
8
DEFAULT_255_2_778
10
19.4493845
20
3.2882141
40
1.4916387
50
75.3008387
51
90.6828596
0
ARC
8
DEFAULT_255_2_778
10
19.632123
20
3.9189579
40
0.8353366
50
23.9916206
51
76.4470851
0
ARC
8
DEFAULT_255_2_778
10
19.3666604
20
3.7980661
40
1.1270223
50
12.0602794
51
24.1191973
0
ARC
8
DEFAULT_255_2_778
10
21.331346
20
-3.2955169
40
7.3796442
50
96.7121179
51
98.8937721
0
ARC
8
DEFAULT_255_2_778
10
28.9971608
20
-54.6238015
40
59.2770549
50
98.5440044
51
98.5506234
0
ARC
8
DEFAULT_255_2_778
10
19.5226936
20
7.7528633
40
3.8161575
50
271.4011521
51
279.9740313
0
ARC
8
DEFAULT_255_2_778
10
19.0565505
20
3.8931191
40
0.5612419
50
4.5709918
51
11.6951078
0
ARC
8
DEFAULT_255_2_778
10
19.2641596
20
3.9645903
40
0.344587
50
7.0502648
51
64.2597327
0
ARC
8
DEFAULT_255_2_778
10
19.3334021
20
4.0505069
40
0.2384446
50
70.2922513
51
90.3591731
0
ARC
8
DEFAULT_255_2_778
10
19.3398604
20
3.9889125
40
0.3001397
50
91.5183831
51
153.8063552
0
ARC
8
DEFAULT_255_2_778
10
19.8381339
20
3.6894456
40
0.8807822
50
150.6320144
51
167.6269051
0
ARC
8
DEFAULT_255_2_778
10
20.4720067
20
3.5207954
40
1.5363418
50
166.5487273
51
169.9677762
0
ARC
8
DEFAULT_255_2_778
10
21.0123744
20
3.4298955
40
2.0842872
50
170.0948621
51
175.7284694
0
ARC
8
DEFAULT_255_2_778
10
21.440698
20
3.3925275
40
2.5142099
50
175.6062927
51
178.3593967
0
ARC
8
DEFAULT_255_2_778
10
21.3407599
20
3.3946294
40
2.4142527
50
178.3413565
51
179.980601
0
ARC
8
DEFAULT_255_2_778
10
20.4298152
20
3.3965754
40
1.5033083
50
180.0430117
51
184.4102244
0
ARC
8
DEFAULT_255_2_778
10
20.3555447
20
3.3883028
40
1.4286238
50
184.3084824
51
190.8552113
0
ARC
8
DEFAULT_255_2_778
10
19.7368395
20
3.2445893
40
0.7943061
50
189.0788255
51
215.1542484
0
ARC
8
DEFAULT_255_2_778
10
19.3656144
20
2.9892347
40
0.3437986
50
215.9816514
51
268.7991366
0
ARC
8
DEFAULT_255_2_778
10
19.3699669
20
3.0511951
40
0.4058482
50
268.3681229
51
270.0057127
0
ARC
8
DEFAULT_255_2_778
10
19.3668233
20
2.8300744
40
0.184755
50
270.987482
51
292.8468795
0
ARC
8
DEFAULT_255_2_778
10
19.3429993
20
2.8975258
40
0.2561997
50
291.8998791
51
294.3138438
0
ARC
8
DEFAULT_255_2_778
10
19.2606188
20
3.0477017
40
0.4271799
50
296.0900823
51
317.5546125
0
ARC
8
DEFAULT_255_2_778
10
19.0981955
20
3.2134856
40
0.6590436
50
316.4488743
51
331.894881
0
ARC
8
DEFAULT_255_2_778
10
19.272767
20
3.1232274
40
0.4625444
50
331.56989
51
344.2623981
0
ARC
8
DEFAULT_255_2_778
10
19.484497
20
3.0638321
40
0.2426415
50
344.2011867
51
359.0825231
0
ARC
8
DEFAULT_255_2_778
10
19.6682251
20
3.0638978
40
0.0590147
50
356.1613009
51
359.9999043
0
ARC
8
DEFAULT_255_2_778
10
19.6678475
20
3.0638662
40
0.0593922
50
0.0303349
51
42.9673086
0
ARC
8
DEFAULT_255_2_778
10
18.969697
20
8.5289583
40
5.4750703
50
271.8516629
51
277.7847702
0
ARC
8
DEFAULT_255_2_778
10
19.1673451
20
3.4004011
40
1.4629263
50
359.9973787
51
10.7689306
0
ARC
8
DEFAULT_255_2_778
10
19.166529
20
3.4003347
40
1.4637423
50
359.4642046
51
359.9999794
0
ARC
8
DEFAULT_255_2_778
10
19.0271575
20
3.3762016
40
1.6030839
50
347.5549856
51
0.3733275
0
ARC
8
DEFAULT_255_2_778
10
19.4576563
20
3.2785688
40
1.1616631
50
327.101615
51
347.6815019
0
ARC
8
DEFAULT_255_2_778
10
19.4807618
20
3.2936869
40
1.1507511
50
287.5064095
51
325.8446439
0
ARC
8
DEFAULT_255_2_778
10
19.2366031
20
3.9618157
40
1.861653
50
273.7222644
51
288.4872722
0
ARC
8
DEFAULT_255_2_778
10
19.180078
20
4.5422867
40
2.4446407
50
269.9538132
51
274.1610522
0
ARC
8
DEFAULT_255_2_778
10
21.4219667
20
2.2443267
40
0.6638444
50
88.8916614
51
89.997244
0
ARC
8
DEFAULT_255_2_778
10
21.4214426
20
2.2858929
40
0.6222783
50
89.9488049
51
95.9249604
0
ARC
8
DEFAULT_255_2_778
10
29.9916891
20
3.8575859
40
8.6868859
50
186.2966132
51
186.3639333
0
ARC
8
DEFAULT_255_2_778
10
22.4848699
20
2.9908741
40
1.1306346
50
184.879473
51
193.8644871
0
ARC
8
DEFAULT_255_2_778
10
21.5952137
20
2.7600519
40
0.2118685
50
190.9121857
51
262.9507097
0
ARC
8
DEFAULT_255_2_778
10
21.6696219
20
3.1068014
40
0.5659941
50
259.7814386
51
270.6767915
0
ARC
8
DEFAULT_255_2_778
10
21.6867816
20
2.9254507
40
0.3847464
50
268.4399973
51
269.9999432
0
ARC
8
DEFAULT_255_2_778
10
21.6863114
20
2.9280048
40
0.3873008
50
270.0695097
51
319.8635671
0
ARC
8
DEFAULT_255_2_778
10
20.85869
20
3.5598846
40
1.7348962
50
320.2819214
51
323.5171701
0
ARC
8
DEFAULT_255_2_778
10
21.2403238
20
3.2424171
40
1.2384794
50
316.0433772
51
320.2970668
0
ARC
8
DEFAULT_255_2_778
10
21.5871603
20
2.8923445
40
0.7458986
50
297.300219
51
316.9084407
0
ARC
8
DEFAULT_255_2_778
10
21.5909659
20
2.9315882
40
0.7793191
50
275.200878
51
295.7280801
0
ARC
8
DEFAULT_255_2_778
10
21.4703524
20
3.981715
40
1.8362249
50
269.5492657
51
275.9786441
0
ARC
8
DEFAULT_255_2_778
10
21.4909211
20
2.8685816
40
0.7238821
50
199.251502
51
267.2275554
0
ARC
8
DEFAULT_255_2_778
10
21.5786691
20
2.9411345
40
0.8315867
50
183.6421967
51
201.9784547
0
ARC
8
DEFAULT_255_2_778
10
21.5043222
20
2.9335713
40
0.7569148
50
180.0094197
51
183.4283547
0
ARC
8
DEFAULT_255_2_778
10
21.573428
20
2.9306635
40
0.8260253
50
168.7246239
51
179.806939
0
ARC
8
DEFAULT_255_2_778
10
21.6605578
20
2.9162329
40
0.9142994
50
168.2241999
51
168.9053499
0
ARC
8
DEFAULT_255_2_778
10
21.8424668
20
2.8671258
40
1.1024561
50
113.6114881
51
167.6551548
0
ARC
8
DEFAULT_255_2_778
10
21.6573586
20
3.2215761
40
0.7040806
50
90.3052643
51
111.3614597
0
ARC
8
DEFAULT_255_2_778
10
21.6637011
20
3.0308746
40
0.8948292
50
72.4135663
51
90.646314
0
ARC
8
DEFAULT_255_2_778
10
21.7045265
20
3.2111735
40
0.7107922
50
12.3756364
51
71.159282
0
ARC
8
DEFAULT_255_2_778
10
21.1490531
20
3.0338291
40
1.2925028
50
359.5042909
51
14.7778573
0
ARC
8
DEFAULT_255_2_778
10
21.3549762
20
2.9971038
40
1.0868314
50
0.0035258
51
1.3467071
0
ARC
8
DEFAULT_255_2_778
10
21.4292024
20
2.9961214
40
1.0126056
50
353.5544234
51
0.0593735
0
ARC
8
DEFAULT_255_2_778
10
21.6604001
20
3.4535049
40
0.1850421
50
90.0596719
51
97.5119498
0
ARC
8
DEFAULT_255_2_778
10
21.6971453
20
3.3238433
40
0.31899
50
101.0128289
51
139.2246583
0
ARC
8
DEFAULT_255_2_778
10
21.790914
20
3.2150596
40
0.4615293
50
136.5994164
51
158.6732538
0
ARC
8
DEFAULT_255_2_778
10
21.6360071
20
3.2754122
40
0.2952808
50
158.6504168
51
176.0169421
0
ARC
8
DEFAULT_255_2_778
10
21.5564518
20
3.2839658
40
0.2153444
50
176.8169992
51
179.9784313
0
ARC
8
DEFAULT_255_2_778
10
21.4341302
20
3.2822269
40
0.0930406
50
178.8791912
51
180.0060849
0
ARC
8
DEFAULT_255_2_778
10
21.4403343
20
3.2825872
40
0.0992454
50
180.2137126
51
205.7010964
0
ARC
8
DEFAULT_255_2_778
10
21.395038
20
2.8657046
40
0.3772018
50
90.0354727
51
97.652614
0
ARC
8
DEFAULT_255_2_778
10
21.39481
20
2.8771344
40
0.3657718
50
88.3084139
51
90.0008592
0
ARC
8
DEFAULT_255_2_778
10
21.5775086
20
3.3789862
40
0.3732514
50
338.5919818
51
0.1310283
0
ARC
8
DEFAULT_255_2_778
10
21.56157
20
3.3798398
40
0.389189
50
0.0000014
51
0.3285764
0
ARC
8
DEFAULT_255_2_778
10
21.5662622
20
3.379845
40
0.3844967
50
0.331817
51
0.9391166
0
ARC
8
DEFAULT_255_2_778
10
21.7128486
20
3.3963975
40
0.2380796
50
357.5323432
51
42.7576344
0
ARC
8
DEFAULT_255_2_778
10
21.6818847
20
3.3346195
40
0.303732
50
47.3536767
51
92.6453611
0
ARC
8
DEFAULT_255_2_778
10
21.6635886
20
3.1564839
40
0.481563
50
89.4910345
51
89.9977642
0
LINE
8
DEFAULT_255_2_778
10
13.7748074
20
3.2615468
11
13.7748074
21
4.7643468
0
LINE
8
DEFAULT_255_2_778
10
13.7748074
20
4.7643468
11
14.6395074
21
4.7802468
0
LINE
8
DEFAULT_255_2_778
10
14.6395074
20
4.7802468
11
14.5662074
21
3.5965468
0
LINE
8
DEFAULT_255_2_778
10
15.2885074
20
4.7485468
11
15.9923074
21
4.7485468
0
LINE
8
DEFAULT_255_2_778
10
15.9923074
20
4.7485468
11
15.9923074
21
3.6054468
0
LINE
8
DEFAULT_255_2_778
10
16.9490074
20
2.1815468
11
16.9522074
21
1.9071468
0
LINE
8
DEFAULT_255_2_778
10
16.9522074
20
1.9071468
11
16.9424074
21
1.5499468
0
LINE
8
DEFAULT_255_2_778
10
16.9424074
20
1.5499468
11
16.2537074
21
1.5499468
0
LINE
8
DEFAULT_255_2_778
10
16.2537074
20
1.5499468
11
16.2439074
21
3.9920468
0
LINE
8
DEFAULT_255_2_778
10
16.2439074
20
3.9920468
11
16.8694074
21
4.0206468
0
LINE
8
DEFAULT_255_2_778
10
16.8694074
20
4.0206468
11
16.8725074
21
3.8004468
0
LINE
8
DEFAULT_255_2_778
10
16.9223074
20
3.4999468
11
16.9191074
21
3.5126468
0
LINE
8
DEFAULT_255_2_778
10
16.9064074
20
3.2766468
11
16.9191074
21
2.5310468
0
LINE
8
DEFAULT_255_2_778
10
19.1466074
20
3.0567468
11
19.1943074
21
3.5896468
0
LINE
8
DEFAULT_255_2_778
10
19.1943074
20
3.5896468
11
20.6045074
21
3.6737468
0
LINE
8
DEFAULT_255_2_778
10
22.4367074
20
2.8824468
11
21.4348074
21
2.9080468
0
LINE
8
DEFAULT_255_2_778
10
21.9824074
20
2.6783468
11
22.2536074
21
2.5283468
0
LINE
8
DEFAULT_255_2_778
10
21.3509074
20
3.2395468
11
21.3448074
21
3.2395468
0
LINE
8
DEFAULT_255_2_778
10
21.4056074
20
3.2427468
11
21.9250074
21
3.2427468
0
ARC
8
DEFAULT_255_2_778
10
31.1076292
20
2.4399448
40
7.4680674
50
179.8472815
51
179.9893582
0
ARC
8
DEFAULT_255_2_778
10
56.8128153
20
2.373349
40
33.1733398
50
179.8161514
51
179.8505976
0
ARC
8
DEFAULT_255_2_778
10
0.4425783
20
2.5536649
40
23.1971858
50
359.8175432
51
359.8700986
0
ARC
8
DEFAULT_255_2_778
10
13.375187
20
2.5243652
40
10.264544
50
359.8699804
51
359.995691
0
ARC
8
DEFAULT_255_2_778
10
18.2878734
20
2.5290743
40
5.3518604
50
359.9413206
51
1.0069031
0
ARC
8
DEFAULT_255_2_778
10
20.3649993
20
2.5678524
40
3.2743745
50
0.9671636
51
3.6272242
0
ARC
8
DEFAULT_255_2_778
10
21.3126271
20
2.6260895
40
2.3249614
50
3.6723467
51
6.2152667
0
ARC
8
DEFAULT_255_2_778
10
22.3921749
20
2.7644836
40
1.2369494
50
5.2561975
51
19.0679485
0
ARC
8
DEFAULT_255_2_778
10
23.1315253
20
3.021494
40
0.4542053
50
18.8950142
51
41.9359163
0
ARC
8
DEFAULT_255_2_778
10
23.2941794
20
3.1635915
40
0.2382634
50
42.6564519
51
90.7977772
0
ARC
8
DEFAULT_255_2_778
10
23.2830714
20
3.0984228
40
0.3035091
50
88.5291619
51
89.9993788
0
ARC
8
DEFAULT_255_2_778
10
23.2830165
20
3.0995731
40
0.3023588
50
89.9889765
51
121.5161237
0
ARC
8
DEFAULT_255_2_778
10
24.003076
20
3.7704507
40
0.8736119
50
173.3953248
51
177.9619271
0
ARC
8
DEFAULT_255_2_778
10
24.7498044
20
3.7371858
40
1.6210648
50
177.7255599
51
178.5455523
0
ARC
8
DEFAULT_255_2_778
10
23.5298635
20
3.779969
40
0.4006049
50
180.2341426
51
192.6363249
0
ARC
8
DEFAULT_255_2_778
10
23.4219751
20
3.4025274
40
0.4050717
50
94.4172685
51
134.3207267
0
ARC
8
DEFAULT_255_2_778
10
23.5103266
20
2.875966
40
0.9380789
50
89.6985613
51
97.321759
0
ARC
8
DEFAULT_255_2_778
10
23.524199
20
3.0637839
40
0.7503013
50
64.4100289
51
90.6824828
0
ARC
8
DEFAULT_255_2_778
10
23.5256527
20
3.1080834
40
0.709943
50
9.0723044
51
62.9714695
0
ARC
8
DEFAULT_255_2_778
10
23.306656
20
3.0468199
40
0.9362206
50
0.3189755
51
10.6615786
0
LINE
8
DEFAULT_255_2_778
10
23.6334619
20
2.0968319
11
23.6395619
21
2.4413319
0
LINE
8
DEFAULT_255_2_778
10
23.1249619
20
3.3573319
11
23.0773619
21
2.1736319
0
LINE
8
DEFAULT_255_2_778
10
23.0773619
20
2.1736319
11
22.5349619
21
2.1545319
0
LINE
8
DEFAULT_255_2_778
10
22.5349619
20
2.1545319
11
22.5540619
21
3.9095319
0
LINE
8
DEFAULT_255_2_778
10
22.5540619
20
3.9095319
11
23.1352619
21
3.8709319
0
LINE
8
DEFAULT_255_2_778
10
24.2428619
20
3.0520319
11
24.2526619
21
2.1458319
0
LINE
8
DEFAULT_255_2_778
10
24.2526619
20
2.1458319
11
23.6334619
21
2.0968319
0
ARC
8
DEFAULT_255_2_778
10
27.7714862
20
4.3492094
40
3.2669978
50
179.2606398
51
183.5790268
0
ARC
8
DEFAULT_255_2_778
10
26.1021083
20
4.538321
40
1.5976403
50
180.0010411
51
181.0958357
0
ARC
8
DEFAULT_255_2_778
10
26.0919259
20
4.5383139
40
1.5874578
50
179.0263588
51
180.0007932
0
ARC
8
DEFAULT_255_2_778
10
26.0746948
20
4.5387883
40
1.5702212
50
174.8305947
51
179.032982
0
LINE
8
DEFAULT_255_2_778
10
24.5047602
20
4.3913665
11
24.5047602
21
4.5077665
0
LINE
8
DEFAULT_255_2_778
10
24.5108602
20
4.6802665
11
25.1934602
21
4.7294665
0
LINE
8
DEFAULT_255_2_778
10
25.1934602
20
4.7294665
11
25.2199602
21
4.1944665
0
LINE
8
DEFAULT_255_2_778
10
25.2199602
20
4.1944665
11
24.5108602
21
4.1452665
0
LINE
8
DEFAULT_255_2_778
10
24.5299602
20
2.1127665
11
24.5140602
21
3.8356665
0
LINE
8
DEFAULT_255_2_778
10
24.5140602
20
3.8356665
11
25.1807602
21
3.8417665
0
LINE
8
DEFAULT_255_2_778
10
25.1807602
20
3.8417665
11
25.1934602
21
2.1603665
0
LINE
8
DEFAULT_255_2_778
10
25.1934602
20
2.1603665
11
24.5299602
21
2.1127665
0
ARC
8
DEFAULT_255_2_778
10
26.4719314
20
2.2074959
40
0.0215801
50
162.9283056
51
280.7378686
0
ARC
8
DEFAULT_255_2_778
10
27.2554064
20
2.2136255
40
0.8041042
50
179.8713767
51
179.9853524
0
ARC
8
DEFAULT_255_2_778
10
25.6427824
20
2.2172398
40
0.8085238
50
359.8717959
51
359.9860284
0
ARC
8
DEFAULT_255_2_778
10
26.2841889
20
2.2175461
40
0.1671181
50
359.8274035
51
1.5702711
0
ARC
8
DEFAULT_255_2_778
10
26.4216786
20
2.2252189
40
0.0297273
50
354.0272613
51
70.8055966
0
ARC
8
DEFAULT_255_2_778
10
26.0269952
20
2.7927023
40
0.6742011
50
272.4020698
51
306.8631289
0
ARC
8
DEFAULT_255_2_778
10
26.0570764
20
2.8979421
40
0.7788506
50
247.1914195
51
269.8657992
0
ARC
8
DEFAULT_255_2_778
10
25.9104196
20
2.5216257
40
0.3752605
50
207.4985577
51
245.5587981
0
ARC
8
DEFAULT_255_2_778
10
26.3717049
20
2.7853906
40
0.9064607
50
193.4358069
51
208.8246524
0
ARC
8
DEFAULT_255_2_778
10
27.16401
20
2.9955899
40
1.726042
50
187.7692503
51
194.1113258
0
ARC
8
DEFAULT_255_2_778
10
28.1861029
20
3.1354672
40
2.7576617
50
182.6820844
51
187.7780365
0
ARC
8
DEFAULT_255_2_778
10
29.2829498
20
3.1965631
40
3.8561783
50
181.0894375
51
182.8262532
0
ARC
8
DEFAULT_255_2_778
10
30.5265375
20
3.2199855
40
5.0999866
50
179.9605881
51
181.086895
0
ARC
8
DEFAULT_255_2_778
10
30.2240739
20
3.2364781
40
4.7975393
50
173.3975958
51
180.155071
0
ARC
8
DEFAULT_255_2_778
10
27.725975
20
2.9696477
40
1.7662412
50
179.738995
51
183.5942372
0
ARC
8
DEFAULT_255_2_778
10
27.0805148
20
2.9336244
40
1.1198012
50
183.8250758
51
186.0030921
0
ARC
8
DEFAULT_255_2_778
10
26.4569144
20
2.8424655
40
0.4907469
50
183.0314012
51
213.3214914
0
ARC
8
DEFAULT_255_2_778
10
26.2248828
20
2.7062564
40
0.2224553
50
216.8386022
51
266.0576504
0
ARC
8
DEFAULT_255_2_778
10
26.239742
20
2.8006257
40
0.3177323
50
264.5542913
51
270.0739552
0
ARC
8
DEFAULT_255_2_778
10
26.2364941
20
2.7403197
40
0.2574521
50
270.8141149
51
281.7009451
0
ARC
8
DEFAULT_255_2_778
10
26.2324862
20
2.7688108
40
0.2861699
50
281.329857
51
284.4927697
0
ARC
8
DEFAULT_255_2_778
10
26.2841092
20
2.6166125
40
0.1264559
50
279.0969033
51
324.4700936
0
ARC
8
DEFAULT_255_2_778
10
26.343864
20
2.5647786
40
0.0482841
50
333.3554472
51
0.1224133
0
ARC
8
DEFAULT_255_2_778
10
26.3295804
20
2.5639433
40
0.0625746
50
0.8593369
51
23.2992397
0
ARC
8
DEFAULT_255_2_778
10
26.1395983
20
2.6659116
40
0.2632844
50
340.030229
51
350.5452573
0
ARC
8
DEFAULT_255_2_778
10
25.3610803
20
2.8112706
40
1.0552184
50
349.7037033
51
353.6948172
0
ARC
8
DEFAULT_255_2_778
10
23.7402432
20
2.997407
40
2.6867026
50
353.5454659
51
355.7334387
0
ARC
8
DEFAULT_255_2_778
10
20.5397472
20
3.237048
40
5.8961576
50
355.7249812
51
357.4118047
0
ARC
8
DEFAULT_255_2_778
10
15.3465865
20
3.479257
40
11.0949608
50
357.3733138
51
358.5037243
0
ARC
8
DEFAULT_255_2_778
10
10.7267007
20
3.6072381
40
15.716615
50
358.4771001
51
359.2738006
0
ARC
8
DEFAULT_255_2_778
10
10.2423963
20
3.6162802
40
16.2009953
50
359.2635334
51
359.6226608
0
ARC
8
DEFAULT_255_2_778
10
12.3012306
20
3.6036608
40
14.1421225
50
359.618853
51
359.9927818
0
ARC
8
DEFAULT_255_2_778
10
15.3793088
20
3.6030282
40
11.0640444
50
359.9940492
51
0.2923833
0
ARC
8
DEFAULT_255_2_778
10
18.7494735
20
3.6212817
40
7.6938305
50
0.2845253
51
0.7032065
0
ARC
8
DEFAULT_255_2_778
10
21.8961559
20
3.6602358
40
4.546907
50
0.6990225
51
1.1886211
0
ARC
8
DEFAULT_255_2_778
10
24.202556
20
3.7090396
40
2.239991
50
1.1643314
51
1.9482877
0
LINE
8
DEFAULT_255_2_778
10
26.9521521
20
2.1989936
11
26.4759521
21
2.1862936
0
LINE
8
DEFAULT_255_2_778
10
25.4583521
20
3.7880936
11
25.9657521
21
3.7880936
0
LINE
8
DEFAULT_255_2_778
10
25.9657521
20
3.7880936
11
25.9597521
21
2.9776936
0
LINE
8
DEFAULT_255_2_778
10
26.3870521
20
2.5886936
11
26.3870521
21
2.5759936
0
LINE
8
DEFAULT_255_2_778
10
26.4412521
20
3.7851936
11
26.9836521
21
3.7594936
0
LINE
8
DEFAULT_255_2_778
10
26.9836521
20
3.7594936
11
26.9550521
21
2.1984936
0
ARC
8
DEFAULT_255_2_778
10
26.8493342
20
0.1180629
40
3.748831
50
62.1972263
51
65.1813878
0
ARC
8
DEFAULT_255_2_778
10
27.8901164
20
2.4508992
40
1.1950869
50
63.5250173
51
88.7973627
0
ARC
8
DEFAULT_255_2_778
10
27.9116262
20
1.510253
40
2.1354729
50
89.9041279
51
90.7762653
0
ARC
8
DEFAULT_255_2_778
10
27.859
20
3.3695591
40
0.2769862
50
85.0926076
51
121.9337139
0
ARC
8
DEFAULT_255_2_778
10
27.7982331
20
3.5082048
40
0.1290301
50
131.6446671
51
182.3145166
0
ARC
8
DEFAULT_255_2_778
10
27.9082786
20
3.4957818
40
0.2390791
50
178.2713231
51
180.0141058
0
ARC
8
DEFAULT_255_2_778
10
27.7780113
20
3.4990319
40
0.1088621
50
181.7418523
51
241.1714882
0
ARC
8
DEFAULT_255_2_778
10
27.9204883
20
3.7067425
40
0.3603764
50
237.247198
51
249.697452
0
ARC
8
DEFAULT_255_2_778
10
28.1653166
20
4.3440494
40
1.0430739
50
249.2312661
51
254.2259647
0
ARC
8
DEFAULT_255_2_778
10
28.5906259
20
5.7847073
40
2.5451575
50
253.8284444
51
254.5755043
0
ARC
8
DEFAULT_255_2_778
10
29.0010953
20
7.2645797
40
4.0809002
50
254.5462172
51
254.5688903
0
ARC
8
DEFAULT_255_2_778
10
28.993531
20
7.2369101
40
4.0522153
50
254.5678913
51
254.5906292
0
ARC
8
DEFAULT_255_2_778
10
28.7157576
20
6.2279945
40
3.0057601
50
254.58501
51
254.6154747
0
ARC
8
DEFAULT_255_2_778
10
28.9701244
20
7.1546494
40
3.9666925
50
254.6239314
51
254.6468728
0
ARC
8
DEFAULT_255_2_778
10
28.9587137
20
7.1132266
40
3.923727
50
254.6473994
51
254.6704476
0
ARC
8
DEFAULT_255_2_778
10
28.9471367
20
7.0701857
40
3.879157
50
254.6672926
51
254.6904598
0
ARC
8
DEFAULT_255_2_778
10
-78.7425349
20
-392.2289111
40
409.686868
50
74.8941314
51
74.9086668
0
ARC
8
DEFAULT_255_2_778
10
27.3400583
20
0.7744066
40
2.6179253
50
72.4686552
51
74.8724561
0
ARC
8
DEFAULT_255_2_778
10
27.9381955
20
2.5396293
40
0.7555057
50
45.0748736
51
75.3988925
0
ARC
8
DEFAULT_255_2_778
10
28.1435613
20
2.7817925
40
0.4397673
50
15.8978739
51
41.7368526
0
ARC
8
DEFAULT_255_2_778
10
28.0189735
20
2.7474563
40
0.5689964
50
0.9073302
51
15.7866406
0
ARC
8
DEFAULT_255_2_778
10
27.8793136
20
2.7395877
40
0.7087859
50
359.994763
51
1.3645552
0
ARC
8
DEFAULT_255_2_778
10
27.9199056
20
2.7418241
40
0.6681978
50
348.5015077
51
359.8026797
0
ARC
8
DEFAULT_255_2_778
10
27.7736785
20
2.7646998
40
0.8160779
50
288.6723108
51
348.9742018
0
ARC
8
DEFAULT_255_2_778
10
27.8980477
20
2.5045647
40
0.5309422
50
270.0811207
51
284.9424088
0
ARC
8
DEFAULT_255_2_778
10
27.9097771
20
2.552353
40
0.5788343
50
254.3102434
51
268.9133177
0
ARC
8
DEFAULT_255_2_778
10
28.1164235
20
3.3053395
40
1.3596555
50
245.9298888
51
254.5075473
0
ARC
8
DEFAULT_255_2_778
10
28.8818653
20
5.06032
40
3.2742674
50
242.9019242
51
246.2254756
0
ARC
8
DEFAULT_255_2_778
10
30.5079266
20
8.3039442
40
6.9025934
50
243.132021
51
243.1505624
0
ARC
8
DEFAULT_255_2_778
10
30.1447729
20
7.5883878
40
6.1001589
50
243.1061362
51
243.1373316
0
ARC
8
DEFAULT_255_2_778
10
29.6234543
20
6.5606922
40
4.9477998
50
243.0689686
51
243.1069352
0
ARC
8
DEFAULT_255_2_778
10
31.6994402
20
10.6485232
40
9.532566
50
243.0531258
51
243.0725784
0
ARC
8
DEFAULT_255_2_778
10
29.9298006
20
7.166451
40
5.6266152
50
243.0160569
51
243.0485885
0
ARC
8
DEFAULT_255_2_778
10
31.4682276
20
10.1872687
40
9.0166148
50
242.9942645
51
243.014303
0
ARC
8
DEFAULT_255_2_778
10
29.7948051
20
6.9047574
40
5.332158
50
242.9654666
51
242.9989135
0
ARC
8
DEFAULT_255_2_778
10
31.2500749
20
9.7569968
40
8.5342011
50
242.9459445
51
242.9665716
0
ARC
8
DEFAULT_255_2_778
10
31.1452821
20
9.5521144
40
8.3040744
50
242.9259813
51
242.9469053
0
ARC
8
DEFAULT_255_2_778
10
31.0427916
20
9.3508019
40
8.0781742
50
242.9021544
51
242.9233846
0
ARC
8
DEFAULT_255_2_778
10
30.9430274
20
9.1560125
40
7.8593231
50
242.8812314
51
242.9027693
0
ARC
8
DEFAULT_255_2_778
10
32.5479919
20
12.2877511
40
11.3783708
50
242.8617154
51
242.8763988
0
ARC
8
DEFAULT_255_2_778
10
36.7726022
20
20.5257988
40
20.6364896
50
242.8486848
51
242.8566754
0
ARC
8
DEFAULT_255_2_778
10
33.8812298
20
14.8840859
40
14.2970137
50
242.8282134
51
242.8414927
0
ARC
8
DEFAULT_255_2_778
10
33.6721273
20
14.4739362
40
13.8366389
50
242.8094311
51
242.8229435
0
ARC
8
DEFAULT_255_2_778
10
33.4673148
20
14.0708061
40
13.3844687
50
242.7869767
51
242.800733
0
ARC
8
DEFAULT_255_2_778
10
33.2716367
20
13.6890189
40
12.955457
50
242.7704504
51
242.7844456
0
ARC
8
DEFAULT_255_2_778
10
12.2887161
20
-26.8774166
40
32.7164414
50
62.6020382
51
62.8399102
0
ARC
8
DEFAULT_255_2_778
10
25.8258126
20
-0.5020358
40
3.0699667
50
62.9263963
51
64.2820236
0
ARC
8
DEFAULT_255_2_778
10
28.4820764
20
4.5457148
40
2.2338098
50
237.9958234
51
240.1405023
0
ARC
8
DEFAULT_255_2_778
10
28.4942054
20
4.566211
40
2.2576239
50
240.1325245
51
240.8867093
0
ARC
8
DEFAULT_255_2_778
10
28.294822
20
4.1863558
40
1.828783
50
240.5539581
51
249.7026801
0
ARC
8
DEFAULT_255_2_778
10
27.9823548
20
3.3371549
40
0.923922
50
249.6086512
51
261.2917975
0
ARC
8
DEFAULT_255_2_778
10
27.916524
20
2.9419395
40
0.5233218
50
261.8650111
51
269.7455005
0
ARC
8
DEFAULT_255_2_778
10
27.934344
20
2.604952
40
0.1874149
50
263.829556
51
357.6364199
0
ARC
8
DEFAULT_255_2_778
10
28.0030177
20
2.5951701
40
0.1185996
50
0.9917763
51
66.6391438
0
ARC
8
DEFAULT_255_2_778
10
27.8495193
20
2.3263137
40
0.4276603
50
62.0377424
51
73.6643165
0
ARC
8
DEFAULT_255_2_778
10
27.5371462
20
1.3005141
40
1.4999503
50
73.2348942
51
77.1863261
0
ARC
8
DEFAULT_255_2_778
10
34.7578137
20
32.4696993
40
30.4946891
50
256.7663944
51
256.9456271
0
ARC
8
DEFAULT_255_2_778
10
28.2695093
20
4.8761922
40
2.1486187
50
254.0687784
51
256.7463719
0
ARC
8
DEFAULT_255_2_778
10
27.8174909
20
3.4302625
40
0.635277
50
221.2278457
51
257.4776149
0
ARC
8
DEFAULT_255_2_778
10
27.698386
20
3.287972
40
0.4528206
50
196.4984582
51
217.6168835
0
ARC
8
DEFAULT_255_2_778
10
27.858787
20
3.3358653
40
0.6202189
50
183.3610231
51
196.5325662
0
ARC
8
DEFAULT_255_2_778
10
28.0552116
20
3.3527406
40
0.8173123
50
179.952166
51
183.7347016
0
ARC
8
DEFAULT_255_2_778
10
27.8812198
20
3.3489536
40
0.6433358
50
168.5194162
51
179.6019627
0
ARC
8
DEFAULT_255_2_778
10
28.0975855
20
3.3078797
40
0.8635523
50
160.7908856
51
168.7060144
0
ARC
8
DEFAULT_255_2_778
10
28.1114847
20
3.3211895
40
0.8724668
50
126.1949068
51
161.9166819
0
ARC
8
DEFAULT_255_2_778
10
27.8479491
20
3.6549144
40
0.4477917
50
101.1704054
51
124.1983595
0
ARC
8
DEFAULT_255_2_778
10
27.9428199
20
3.072461
40
1.0377781
50
90.5746138
51
100.0791815
0
ARC
8
DEFAULT_255_2_778
10
27.943123
20
3.0679477
40
1.0422942
50
90.0142618
51
90.5887814
0
ARC
8
DEFAULT_255_2_778
10
27.9431248
20
3.0666918
40
1.0435501
50
89.1338663
51
90.0143472
0
ARC
8
DEFAULT_255_2_778
10
27.9477742
20
2.9442856
40
1.1658904
50
49.8712296
51
89.4532592
0
LINE
8
DEFAULT_255_2_778
10
27.1579994
20
2.2638229
11
27.2981994
21
2.6514229
0
LINE
8
DEFAULT_255_2_778
10
28.6991994
20
3.8357229
11
28.5978994
21
3.4341229
0
ARC
8
DEFAULT_255_2_778
10
6.8592442
20
3.4130982
40
1.2156507
50
30.113342
51
33.851535
0
ARC
8
DEFAULT_255_2_778
10
6.7257599
20
3.3257098
40
1.3751875
50
33.7772978
51
38.137914
0
ARC
8
DEFAULT_255_2_778
10
7.1466362
20
3.685862
40
0.8220745
50
36.5099755
51
58.0337102
0
ARC
8
DEFAULT_255_2_778
10
7.4200966
20
4.0993358
40
0.3267868
50
60.3296494
51
73.9739423
0
ARC
8
DEFAULT_255_2_778
10
7.4501083
20
4.2015271
40
0.2202824
50
74.1385653
51
89.6317399
0
ARC
8
DEFAULT_255_2_778
10
7.4558743
20
4.246052
40
0.1758068
50
91.4178916
51
114.030995
0
ARC
8
DEFAULT_255_2_778
10
7.4830052
20
4.1721816
40
0.2543783
50
112.8364736
51
114.7595077
0
ARC
8
DEFAULT_255_2_778
10
7.5411755
20
4.0675983
40
0.3738191
50
116.1425121
51
154.9844306
0
ARC
8
DEFAULT_255_2_778
10
7.3651055
20
4.1527947
40
0.1782603
50
155.8685399
51
178.2511569
0
ARC
8
DEFAULT_255_2_778
10
7.319628
20
4.1572046
40
0.1327037
50
179.5551535
51
179.9998165
0
ARC
8
DEFAULT_255_2_778
10
7.3100499
20
4.1607604
40
0.1231771
50
181.654019
51
234.6915946
0
ARC
8
DEFAULT_255_2_778
10
7.4492185
20
4.3283215
40
0.3407628
50
231.8787807
51
245.8184236
0
ARC
8
DEFAULT_255_2_778
10
7.6471966
20
4.753947
40
0.8101622
50
245.3759091
51
252.2415615
0
ARC
8
DEFAULT_255_2_778
10
8.0086111
20
5.8718293
40
1.9850142
50
252.1482078
51
255.9041857
0
ARC
8
DEFAULT_255_2_778
10
8.666854
20
8.4114392
40
4.6085102
50
255.6565789
51
256.4604155
0
ARC
8
DEFAULT_255_2_778
10
9.3802158
20
11.3462053
40
7.6287274
50
256.4119164
51
256.4209079
0
ARC
8
DEFAULT_255_2_778
10
9.3700749
20
11.3078345
40
7.5890482
50
256.4273136
51
256.4363234
0
ARC
8
DEFAULT_255_2_778
10
9.3599734
20
11.2696074
40
7.5495181
50
256.4428086
51
256.451837
0
ARC
8
DEFAULT_255_2_778
10
9.3499114
20
11.2315244
40
7.5101379
50
256.4584025
51
256.4674494
0
ARC
8
DEFAULT_255_2_778
10
9.3400273
20
11.1836636
40
7.4612932
50
256.4552424
51
256.4643196
0
ARC
8
DEFAULT_255_2_778
10
5.7841359
20
-3.5978436
40
7.741908
50
76.4697394
51
76.4828223
0
ARC
8
DEFAULT_255_2_778
10
4.2668748
20
-9.9281343
40
14.2514888
50
76.4862896
51
76.4933626
0
ARC
8
DEFAULT_255_2_778
10
8.448937
20
7.4748389
40
3.6469224
50
256.492807
51
256.511142
0
ARC
8
DEFAULT_255_2_778
10
8.4445916
20
7.4561075
40
3.627694
50
256.5088731
51
256.5272462
0
ARC
8
DEFAULT_255_2_778
10
9.2809812
20
10.9393909
40
7.2099853
50
256.512726
51
256.5219407
0
ARC
8
DEFAULT_255_2_778
10
-30.5347315
20
-155.3019664
40
163.7329288
50
76.530654
51
76.5314632
0
ARC
8
DEFAULT_255_2_778
10
9.2519816
20
10.8192837
40
7.0864269
50
256.5423125
51
256.5515974
0
ARC
8
DEFAULT_255_2_778
10
7.0897812
20
1.7743943
40
2.2133116
50
76.5388975
51
76.5685291
0
ARC
8
DEFAULT_255_2_778
10
5.9297284
20
-3.0878519
40
7.212027
50
76.554494
51
76.5680925
0
ARC
8
DEFAULT_255_2_778
10
9.2183815
20
10.6753852
40
6.9386598
50
256.5686795
51
256.578055
0
LINE
8
DEFAULT_255_2_778
10
7.6077765
20
3.9262407
11
7.6088773
21
3.925978
0
ARC
8
DEFAULT_255_2_778
10
9.20013
20
10.5987778
40
6.8599083
50
256.5872638
51
256.5966852
0
ARC
8
DEFAULT_255_2_778
10
-24.5910714
20
-131.2074219
40
138.9167823
50
76.5959462
51
76.596874
0
ARC
8
DEFAULT_255_2_778
10
9.1722706
20
10.4730676
40
6.7311643
50
256.5984712
51
256.6079789
0
ARC
8
DEFAULT_255_2_778
10
6.0311018
20
-2.7281107
40
6.8385835
50
76.609087
51
76.6230807
0
ARC
8
DEFAULT_255_2_778
10
2.5263716
20
-17.4845121
40
22.0054716
50
76.6242571
51
76.6300278
0
ARC
8
DEFAULT_255_2_778
10
9.131355
20
10.2944399
40
6.5479166
50
256.6282543
51
256.6378842
0
LINE
8
DEFAULT_255_2_778
10
7.6181011
20
3.9237827
11
7.6191683
21
3.9235293
0
ARC
8
DEFAULT_255_2_778
10
9.1138346
20
10.220789
40
6.4722103
50
256.6478164
51
256.6574947
0
ARC
8
DEFAULT_255_2_778
10
2.7393162
20
-16.6628035
40
21.1567967
50
76.65569
51
76.6615936
0
ARC
8
DEFAULT_255_2_778
10
9.0876222
20
10.1043784
40
6.3528929
50
256.6648953
51
256.6746575
0
ARC
8
DEFAULT_255_2_778
10
-16.3368837
20
-98.2318982
40
104.9267437
50
76.7221085
51
76.7999008
0
ARC
8
DEFAULT_255_2_778
10
6.4734504
20
-1.5673105
40
5.6072901
50
75.1982535
51
76.7138952
0
ARC
8
DEFAULT_255_2_778
10
7.4569478
20
2.0250763
40
1.8831461
50
63.9407523
51
76.2052328
0
ARC
8
DEFAULT_255_2_778
10
7.963288
20
3.06267
40
0.7285991
50
41.6648479
51
63.8660854
0
ARC
8
DEFAULT_255_2_778
10
8.1430302
20
3.2338671
40
0.4805896
50
9.1954008
51
40.6628137
0
ARC
8
DEFAULT_255_2_778
10
8.0509015
20
3.2176655
40
0.5741247
50
359.8442671
51
9.3222491
0
ARC
8
DEFAULT_255_2_778
10
7.741937
20
3.2114329
40
0.8830995
50
332.8238228
51
0.3031303
0
ARC
8
DEFAULT_255_2_778
10
7.5274287
20
3.3623124
40
1.1434131
50
292.9460334
51
331.0069796
0
ARC
8
DEFAULT_255_2_778
10
7.3254694
20
3.7352861
40
1.5661365
50
278.4430186
51
294.4304095
0
ARC
8
DEFAULT_255_2_778
10
7.33371
20
3.665226
40
1.4956273
50
270.2145717
51
278.5248208
0
ARC
8
DEFAULT_255_2_778
10
7.3359235
20
3.6040895
40
1.4344845
50
270.0000231
51
270.135306
0
ARC
8
DEFAULT_255_2_778
10
7.3263807
20
3.1624114
40
0.9928523
50
250.5888531
51
270.5507423
0
ARC
8
DEFAULT_255_2_778
10
7.3560931
20
3.146536
40
0.9883151
50
203.3389677
51
248.6580057
0
ARC
8
DEFAULT_255_2_778
10
7.9808609
20
3.4867329
40
1.6979771
50
195.7860537
51
205.527661
0
ARC
8
DEFAULT_255_2_778
10
7.6636752
20
3.553484
40
0.7980846
50
215.8915135
51
220.8992049
0
ARC
8
DEFAULT_255_2_778
10
7.7372763
20
3.6153343
40
0.8942134
50
220.8070304
51
221.477926
0
ARC
8
DEFAULT_255_2_778
10
7.6885389
20
3.549759
40
0.8144403
50
220.2924908
51
251.4637022
0
ARC
8
DEFAULT_255_2_778
10
7.5308001
20
3.1367583
40
0.3731661
50
254.2685333
51
269.5277074
0
ARC
8
DEFAULT_255_2_778
10
7.5276173
20
3.0828059
40
0.3192009
50
270.0191669
51
274.8058556
0
ARC
8
DEFAULT_255_2_778
10
7.5496083
20
3.0405443
40
0.2758581
50
270.9869614
51
355.5217197
0
ARC
8
DEFAULT_255_2_778
10
7.6803979
20
3.0181405
40
0.1442288
50
0.3434165
51
66.2253872
0
ARC
8
DEFAULT_255_2_778
10
7.5345412
20
2.7635031
40
0.437146
50
62.1819115
51
74.9502842
0
ARC
8
DEFAULT_255_2_778
10
7.3447367
20
2.082026
40
1.1445506
50
74.632704
51
80.8916573
0
ARC
8
DEFAULT_255_2_778
10
6.8892017
20
-0.694285
40
3.9579799
50
80.7426142
51
82.949579
0
ARC
8
DEFAULT_255_2_778
10
10.2129789
20
25.6001208
40
22.5456833
50
262.4758119
51
262.7686449
0
ARC
8
DEFAULT_255_2_778
10
7.8121272
20
7.4209757
40
4.208688
50
260.8563587
51
262.4719491
0
ARC
8
DEFAULT_255_2_778
10
7.3375177
20
4.675385
40
1.422931
50
247.2244534
51
262.1561184
0
ARC
8
DEFAULT_255_2_778
10
6.9787499
20
3.8431627
40
0.5167834
50
202.5301907
51
248.1804688
0
ARC
8
DEFAULT_255_2_778
10
7.0368702
20
3.8507975
40
0.5735951
50
185.2404398
51
201.0099164
0
ARC
8
DEFAULT_255_2_778
10
7.2235474
20
3.8728739
40
0.7615243
50
179.9073743
51
185.6116599
0
ARC
8
DEFAULT_255_2_778
10
7.5895527
20
3.8834769
40
1.1275676
50
161.7154527
51
180.4762283
0
ARC
8
DEFAULT_255_2_778
10
7.4610436
20
3.9049605
40
0.9990052
50
104.2243487
51
160.5729599
0
ARC
8
DEFAULT_255_2_778
10
7.62183
20
3.4537801
40
1.476547
50
89.685915
51
105.9705282
0
ARC
8
DEFAULT_255_2_778
10
7.6249214
20
4.0725928
40
0.8577267
50
81.5155647
51
89.6658171
0
ARC
8
DEFAULT_255_2_778
10
7.5689399
20
3.6871557
40
1.2472062
50
74.0483104
51
81.5844199
0
ARC
8
DEFAULT_255_2_778
10
7.5127575
20
3.478049
40
1.4637053
50
70.0733327
51
74.1833239
0
ARC
8
DEFAULT_255_2_778
10
7.6018858
20
3.6633791
40
1.2592636
50
46.6070407
51
71.0119612
0
ARC
8
DEFAULT_255_2_778
10
8.0808262
20
4.1700371
40
0.5620647
50
15.1167549
51
46.6022744
0
ARC
8
DEFAULT_255_2_778
10
8.2240848
20
4.2219577
40
0.4104218
50
6.5542696
51
13.3345795
0
ARC
8
DEFAULT_255_2_778
10
6.7043692
20
8.8833638
40
5.0009235
50
286.2410245
51
292.6698041
0
LINE
8
DEFAULT_255_2_778
10
8.1030206
20
4.0820089
11
8.0979865
21
4.0804408
0
ARC
8
DEFAULT_255_2_778
10
12.3254391
20
-9.6025069
40
14.3211178
50
107.1689386
51
107.9686474
0
ARC
8
DEFAULT_255_2_778
10
12.2762643
20
4.4542498
40
3.3213077
50
179.2727634
51
183.5204614
0
ARC
8
DEFAULT_255_2_778
10
10.509884
20
4.6452059
40
1.5549975
50
180.0001065
51
181.1939376
0
ARC
8
DEFAULT_255_2_778
10
10.5051142
20
4.6452718
40
1.5502276
50
174.8173678
51
180.0025439
0
ARC
8
DEFAULT_255_2_778
10
11.1240254
20
3.5873748
40
0.2995852
50
14.5253222
51
59.3116551
0
ARC
8
DEFAULT_255_2_778
10
10.9582647
20
3.5148936
40
0.4790805
50
14.3725499
51
17.9466336
0
ARC
8
DEFAULT_255_2_778
10
10.994343
20
3.5218933
40
0.4423994
50
0.5195673
51
14.6542343
0
ARC
8
DEFAULT_255_2_778
10
11.0227288
20
3.5198411
40
0.4140397
50
331.7360774
51
0.8391613
0
ARC
8
DEFAULT_255_2_778
10
10.9339821
20
3.5970406
40
0.5293996
50
291.8800589
51
328.9241797
0
ARC
8
DEFAULT_255_2_778
10
10.653296
20
4.2021323
40
1.1960174
50
279.668693
51
293.5555849
0
ARC
8
DEFAULT_255_2_778
10
10.5248308
20
4.8577074
40
1.8639294
50
273.8527141
51
280.1770081
0
ARC
8
DEFAULT_255_2_778
10
10.5056551
20
5.0854871
40
2.0924862
50
270.4809858
51
273.9575157
0
ARC
8
DEFAULT_255_2_778
10
10.5064244
20
5.0197684
40
2.0267634
50
269.9999911
51
270.4748324
0
ARC
8
DEFAULT_255_2_778
10
10.6326138
20
2.6842016
40
0.3233102
50
112.3589336
51
135.7251017
0
ARC
8
DEFAULT_255_2_778
10
10.8478877
20
-0.346371
40
3.2655779
50
88.5062379
51
90.062525
0
ARC
8
DEFAULT_255_2_778
10
10.9410206
20
1.7476031
40
1.1705216
50
71.4397001
51
90.3918597
0
ARC
8
DEFAULT_255_2_778
10
11.1882278
20
2.477738
40
0.3996796
50
14.2460739
51
71.7186632
0
ARC
8
DEFAULT_255_2_778
10
10.9884128
20
2.4281869
40
0.6055448
50
359.396139
51
14.1377716
0
ARC
8
DEFAULT_255_2_778
10
10.9774218
20
2.4143791
40
0.616547
50
341.1222748
51
0.6901042
0
ARC
8
DEFAULT_255_2_778
10
11.0156783
20
2.4313831
40
0.5865413
50
286.1541298
51
338.3403859
0
ARC
8
DEFAULT_255_2_778
10
10.7189004
20
3.1949993
40
1.4044556
50
276.0339196
51
289.1174309
0
ARC
8
DEFAULT_255_2_778
10
10.6071959
20
4.0696865
40
2.286119
50
271.2307297
51
276.5136436
0
ARC
8
DEFAULT_255_2_778
10
10.5895534
20
4.6038023
40
2.8204973
50
269.989248
51
271.3559933
0
ARC
8
DEFAULT_255_2_778
10
10.6052052
20
4.1160307
40
2.3327818
50
266.9664341
51
269.6025705
0
ARC
8
DEFAULT_255_2_778
10
12.2399319
20
39.9767828
40
38.2307145
50
267.3558298
51
267.3641135
0
ARC
8
DEFAULT_255_2_778
10
10.3446562
20
-0.6571194
40
2.447431
50
86.9182797
51
89.5608327
0
ARC
8
DEFAULT_255_2_778
10
10.3623097
20
0.7545131
40
1.0357272
50
89.9388381
51
92.3011094
0
ARC
8
DEFAULT_255_2_778
10
13.7401206
20
2.0313704
40
3.4279468
50
180.1635801
51
184.0476524
0
ARC
8
DEFAULT_255_2_778
10
31.1380561
20
2.2279916
40
20.8268912
50
180.4149731
51
180.5678477
0
ARC
8
DEFAULT_255_2_778
10
4.3139567
20
2.0637106
40
5.9977693
50
0.1283955
51
2.0131456
0
ARC
8
DEFAULT_255_2_778
10
10.6609318
20
6.0434826
40
3.78498
50
269.9363049
51
270.54581
0
ARC
8
DEFAULT_255_2_778
10
10.6705008
20
4.9641679
40
2.7056233
50
270.56091
51
271.9613133
0
ARC
8
DEFAULT_255_2_778
10
10.7001955
20
4.2211035
40
1.9619826
50
271.8373147
51
275.8506167
0
ARC
8
DEFAULT_255_2_778
10
10.8274332
20
3.0924482
40
0.8263167
50
275.0514407
51
286.6223281
0
ARC
8
DEFAULT_255_2_778
10
11.0083153
20
2.4968848
40
0.2039191
50
285.7919336
51
309.5731304
0
ARC
8
DEFAULT_255_2_778
10
11.0981232
20
2.3875321
40
0.0624172
50
309.9765672
51
358.6898761
0
ARC
8
DEFAULT_255_2_778
10
11.056455
20
2.3771501
40
0.1044537
50
4.9180574
51
80.9290706
0
ARC
8
DEFAULT_255_2_778
10
10.9517944
20
2.0950299
40
0.4038603
50
72.5468086
51
83.1116221
0
ARC
8
DEFAULT_255_2_778
10
10.8962224
20
1.6494027
40
0.8529378
50
82.9957885
51
89.483039
0
ARC
8
DEFAULT_255_2_778
10
10.874728
20
0.4167089
40
2.085801
50
89.1981386
51
90.1237195
0
ARC
8
DEFAULT_255_2_778
10
10.8911942
20
0.0712962
40
2.4312992
50
90.4941843
51
95.9547671
0
ARC
8
DEFAULT_255_2_778
10
11.6312004
20
-7.6925495
40
10.2302583
50
95.5658925
51
96.1566371
0
ARC
8
DEFAULT_255_2_778
10
10.1408365
20
5.6412407
40
3.1868854
50
271.0641733
51
277.087253
0
ARC
8
DEFAULT_255_2_778
10
10.2024465
20
2.0675862
40
0.3873264
50
90.3583415
51
92.0304107
0
ARC
8
DEFAULT_255_2_778
10
10.1748032
20
2.8588331
40
0.4044033
50
270.2566542
51
271.9726279
0
ARC
8
DEFAULT_255_2_778
10
10.1765833
20
2.65061
40
0.1961761
50
269.2961463
51
270.0091607
0
ARC
8
DEFAULT_255_2_778
10
10.1663091
20
2.496359
40
0.0426418
50
201.8264155
51
280.6278089
0
ARC
8
DEFAULT_255_2_778
10
10.1687419
20
2.7331306
40
0.2560961
50
246.8622617
51
260.5567569
0
ARC
8
DEFAULT_255_2_778
10
10.1995902
20
2.824393
40
0.3522189
50
193.3483511
51
248.0814103
0
ARC
8
DEFAULT_255_2_778
10
10.0306151
20
2.7648764
40
0.1750909
50
180.0560913
51
187.152432
0
ARC
8
DEFAULT_255_2_778
10
10.2629644
20
2.7250461
40
0.4093658
50
105.6659344
51
174.4405303
0
ARC
8
DEFAULT_255_2_778
10
10.4036022
20
3.4428115
40
0.4096481
50
181.0878952
51
232.1819771
0
ARC
8
DEFAULT_255_2_778
10
10.5981845
20
3.4762435
40
0.6055605
50
179.984717
51
183.9021081
0
ARC
8
DEFAULT_255_2_778
10
10.6295202
20
3.4552355
40
0.6372478
50
97.1776671
51
178.0962719
0
ARC
8
DEFAULT_255_2_778
10
10.6629854
20
3.3905769
40
0.7060281
50
90.013086
51
99.2169719
0
ARC
8
DEFAULT_255_2_778
10
10.6689802
20
3.1199121
40
0.9767123
50
89.9981728
51
90.3611291
0
ARC
8
DEFAULT_255_2_778
10
10.6689878
20
3.1155515
40
0.981073
50
68.2064543
51
89.9986229
0
ARC
8
DEFAULT_255_2_778
10
10.8077384
20
4.5612007
40
0.5802959
50
292.8655633
51
339.8550974
0
ARC
8
DEFAULT_255_2_778
10
10.8074441
20
4.5746955
40
0.5853546
50
338.6248286
51
341.2774475
0
ARC
8
DEFAULT_255_2_778
10
11.4268781
20
4.1631873
40
0.2684703
50
359.9148606
51
9.0258562
0
ARC
8
DEFAULT_255_2_778
10
11.4033184
20
4.1628211
40
0.2920298
50
358.3289055
51
359.9935707
0
ARC
8
DEFAULT_255_2_778
10
11.5432346
20
4.1661083
40
0.1524471
50
313.5360987
51
355.5593973
0
ARC
8
DEFAULT_255_2_778
10
11.2209006
20
4.4740771
40
0.5981218
50
299.1626606
51
315.5999729
0
ARC
8
DEFAULT_255_2_778
10
10.9301391
20
4.9403327
40
1.1472708
50
297.94122
51
300.4963317
0
ARC
8
DEFAULT_255_2_778
10
10.7890595
20
5.209626
40
1.4512781
50
293.3112946
51
297.8801146
0
ARC
8
DEFAULT_255_2_778
10
10.8180294
20
5.1357448
40
1.3719664
50
290.4822708
51
293.4212003
0
ARC
8
DEFAULT_255_2_778
10
10.9693787
20
4.7340305
40
0.9426893
50
289.2789473
51
290.4084733
0
ARC
8
DEFAULT_255_2_778
10
10.7278186
20
3.5965163
40
0.2325413
50
94.6110989
51
165.1584794
0
ARC
8
DEFAULT_255_2_778
10
10.9494413
20
3.4823642
40
0.4790154
50
158.7367446
51
166.1617004
0
ARC
8
DEFAULT_255_2_778
10
10.9560983
20
3.47907
40
0.4862697
50
165.9724254
51
178.2781213
0
ARC
8
DEFAULT_255_2_778
10
10.8666221
20
3.4837554
40
0.396698
50
178.5662242
51
179.9928419
0
ARC
8
DEFAULT_255_2_778
10
10.7109568
20
3.4631496
40
0.2419161
50
175.1019925
51
236.4084335
0
ARC
8
DEFAULT_255_2_778
10
10.6731347
20
3.4428275
40
0.2050654
50
242.0790253
51
271.170618
0
ARC
8
DEFAULT_255_2_778
10
10.6876291
20
3.4587753
40
0.2212105
50
267.3299473
51
310.9760627
0
ARC
8
DEFAULT_255_2_778
10
10.6269878
20
3.4868633
40
0.2835053
50
316.515025
51
2.8000173
0
ARC
8
DEFAULT_255_2_778
10
10.4150844
20
3.5090023
40
0.4951397
50
359.0406872
51
0.0003062
0
ARC
8
DEFAULT_255_2_778
10
10.4608848
20
3.5053394
40
0.4493543
50
0.4673893
51
10.7371057
0
ARC
8
DEFAULT_255_2_778
10
10.3946428
20
3.4953588
40
0.5163023
50
10.4557685
51
14.9545249
0
ARC
8
DEFAULT_255_2_778
10
10.596354
20
3.5678959
40
0.3032409
50
11.5461508
51
51.4742483
0
ARC
8
DEFAULT_255_2_778
10
10.7093868
20
3.6908308
40
0.1371745
50
56.4328284
51
90.1097261
0
ARC
8
DEFAULT_255_2_778
10
20.5113975
20
2.5475187
40
7.6490735
50
179.8501388
51
179.9881181
0
ARC
8
DEFAULT_255_2_778
10
45.4830196
20
2.4833603
40
32.620778
50
179.8173357
51
179.8521706
0
ARC
8
DEFAULT_255_2_778
10
-10.1377508
20
2.6601239
40
23.0002733
50
359.8187338
51
359.8714342
0
ARC
8
DEFAULT_255_2_778
10
2.3735169
20
2.6318888
40
10.4889739
50
359.8723139
51
359.9946105
0
ARC
8
DEFAULT_255_2_778
10
7.5067356
20
2.6363988
40
5.3557579
50
359.9411972
51
1.006911
0
ARC
8
DEFAULT_255_2_778
10
9.5878184
20
2.6752442
40
3.2743146
50
0.967216
51
3.6309736
0
ARC
8
DEFAULT_255_2_778
10
10.5359966
20
2.7335784
40
2.3243462
50
3.6761101
51
6.2237161
0
ARC
8
DEFAULT_255_2_778
10
11.6152
20
2.8720807
40
1.2366614
50
5.2651427
51
19.0782467
0
ARC
8
DEFAULT_255_2_778
10
12.3542216
20
3.1291231
40
0.4542174
50
18.9057006
51
41.9442666
0
ARC
8
DEFAULT_255_2_778
10
12.5168375
20
3.271231
40
0.2382971
50
42.6642685
51
90.7966834
0
ARC
8
DEFAULT_255_2_778
10
12.5062644
20
3.2087245
40
0.300868
50
88.6173563
51
90.0026571
0
ARC
8
DEFAULT_255_2_778
10
12.5061796
20
3.2082212
40
0.3013714
50
89.9865364
51
121.5645464
0
ARC
8
DEFAULT_255_2_778
10
13.2400108
20
3.8760328
40
0.8871365
50
173.360516
51
177.8578782
0
ARC
8
DEFAULT_255_2_778
10
13.8474449
20
3.8479624
40
1.4952047
50
177.6530255
51
178.5420623
0
ARC
8
DEFAULT_255_2_778
10
12.7478921
20
3.8874773
40
0.3951707
50
180.2134765
51
192.7885318
0
ARC
8
DEFAULT_255_2_778
10
12.6453669
20
3.5107018
40
0.4045941
50
94.3853764
51
134.3530726
0
ARC
8
DEFAULT_255_2_778
10
12.7337458
20
2.9821507
40
0.9395676
50
89.6964176
51
97.2957102
0
ARC
8
DEFAULT_255_2_778
10
12.7476612
20
3.1714569
40
0.7503013
50
64.4100289
51
90.6824828
0
ARC
8
DEFAULT_255_2_778
10
12.7491149
20
3.2157565
40
0.709943
50
9.0723044
51
62.9714695
0
ARC
8
DEFAULT_255_2_778
10
12.5301181
20
3.1544929
40
0.9362206
50
0.3189755
51
10.6615786
0
ARC
8
DEFAULT_255_2_778
10
11.4851539
20
3.7331975
40
4.3786674
50
349.9063476
51
353.9737224
0
ARC
8
DEFAULT_255_2_778
10
14.2087036
20
3.2393167
40
1.6107394
50
340.0685184
51
350.2234262
0
ARC
8
DEFAULT_255_2_778
10
15.1218513
20
2.8835493
40
0.6314337
50
291.0965853
51
342.1713043
0
ARC
8
DEFAULT_255_2_778
10
14.9802677
20
3.259303
40
1.0329692
50
277.5654769
51
290.9215676
0
ARC
8
DEFAULT_255_2_778
10
14.8570308
20
4.1128791
40
1.8953654
50
270.4991719
51
277.8612157
0
ARC
8
DEFAULT_255_2_778
10
14.8349764
20
4.8677472
40
2.6504423
50
269.9945468
51
270.8337486
0
ARC
8
DEFAULT_255_2_778
10
14.8225924
20
3.4947131
40
1.2774657
50
251.72227
51
270.5441278
0
ARC
8
DEFAULT_255_2_778
10
14.7548989
20
3.2621447
40
1.035437
50
204.8714117
51
251.2430301
0
ARC
8
DEFAULT_255_2_778
10
15.0670356
20
3.4360319
40
1.3920102
50
197.6053945
51
205.9614204
0
ARC
8
DEFAULT_255_2_778
10
14.8898038
20
3.4296391
40
1.2220699
50
182.8298672
51
199.8335236
0
ARC
8
DEFAULT_255_2_778
10
18.4390154
20
3.7016159
40
3.9783922
50
179.9627121
51
181.1373793
0
ARC
8
DEFAULT_255_2_778
10
17.5281481
20
3.6832534
40
3.0673399
50
181.1321789
51
183.1890459
0
ARC
8
DEFAULT_255_2_778
10
16.6770021
20
3.6303752
40
2.2145769
50
183.0481327
51
188.432791
0
ARC
8
DEFAULT_255_2_778
10
15.5518781
20
3.4448964
40
1.0745757
50
187.4476683
51
203.9558286
0
ARC
8
DEFAULT_255_2_778
10
14.9233186
20
3.1617672
40
0.3852175
50
203.4315706
51
235.0596124
0
ARC
8
DEFAULT_255_2_778
10
14.8446214
20
3.0685259
40
0.2639454
50
237.472106
51
270.7820784
0
ARC
8
DEFAULT_255_2_778
10
14.8424267
20
2.9921761
40
0.1876606
50
271.7703365
51
327.0102614
0
ARC
8
DEFAULT_255_2_778
10
14.5968779
20
3.1821691
40
0.4977304
50
324.0549443
51
339.0642703
0
ARC
8
DEFAULT_255_2_778
10
14.0504339
20
3.3986654
40
1.0854799
50
338.6975272
51
347.3942168
0
ARC
8
DEFAULT_255_2_778
10
12.9730807
20
3.6433752
40
2.1902722
50
347.2977539
51
353.3505089
0
ARC
8
DEFAULT_255_2_778
10
10.9459902
20
3.882969
40
4.2314717
50
353.3064381
51
357.7269952
0
ARC
8
DEFAULT_255_2_778
10
8.3416584
20
4.0044849
40
6.8385978
50
357.5750975
51
359.4806631
0
ARC
8
DEFAULT_255_2_778
10
6.5300813
20
4.0277661
40
8.6503141
50
359.4352252
51
0.0058697
0
ARC
8
DEFAULT_255_2_778
10
5.2711681
20
4.0275201
40
9.9092272
50
0.0065462
51
0.5381364
0
ARC
8
DEFAULT_255_2_778
10
3.4652848
20
4.0102668
40
11.7151929
50
0.5395621
51
1.0193678
0
ARC
8
DEFAULT_255_2_778
10
0.7122595
20
3.9617404
40
14.4686458
50
1.0175515
51
1.320158
0
ARC
8
DEFAULT_255_2_778
10
-4.6149178
20
3.8384944
40
19.7972486
50
1.3215474
51
1.5259906
0
ARC
8
DEFAULT_255_2_778
10
-14.7624926
20
3.5773061
40
29.9481816
50
1.5085074
51
1.5106568
0
ARC
8
DEFAULT_255_2_778
10
-14.2584018
20
3.5872661
40
29.4440034
50
1.5171419
51
1.519316
0
ARC
8
DEFAULT_255_2_778
10
-13.7817499
20
3.5968684
40
28.9672645
50
1.525327
51
1.5275246
0
ARC
8
DEFAULT_255_2_778
10
-13.2905459
20
3.6066704
40
28.475974
50
1.5341557
51
1.5363788
0
ARC
8
DEFAULT_255_2_778
10
-13.2094917
20
3.6161261
40
28.3946965
50
1.5216907
51
1.5239079
0
ARC
8
DEFAULT_255_2_778
10
-12.7447957
20
3.6254991
40
27.9299157
50
1.5300385
51
1.5322801
0
ARC
8
DEFAULT_255_2_778
10
-12.2860601
20
3.6347973
40
27.4710956
50
1.5384784
51
1.5407448
0
ARC
8
DEFAULT_255_2_778
10
-3.0735901
20
3.8874341
40
18.2551641
50
1.5255471
51
1.5289387
0
ARC
8
DEFAULT_255_2_778
10
-11.7548653
20
3.6531783
40
26.939599
50
1.5343406
51
1.5366262
0
ARC
8
DEFAULT_255_2_778
10
-11.307522
20
3.6622551
40
26.4921733
50
1.5429467
51
1.545258
0
ARC
8
DEFAULT_255_2_778
10
-8.4532495
20
3.7426216
40
23.6367718
50
1.5370954
51
1.540958
0
ARC
8
DEFAULT_255_2_778
10
-7.8704654
20
3.7546935
40
23.053874
50
1.5499161
51
1.5538435
0
ARC
8
DEFAULT_255_2_778
10
-7.5108034
20
3.7666256
40
22.694021
50
1.5483525
51
1.552309
0
ARC
8
DEFAULT_255_2_778
10
291.7695587
20
11.8897357
40
276.6965601
50
181.5540922
51
181.5549486
0
ARC
8
DEFAULT_255_2_778
10
218.5882183
20
9.9319921
40
203.4890447
50
181.5607544
51
181.5618931
0
ARC
8
DEFAULT_255_2_778
10
172.5574223
20
8.6987194
40
157.4417368
50
181.5669291
51
181.5683685
0
ARC
8
DEFAULT_255_2_778
10
169.6666644
20
8.6389609
40
154.5504269
50
181.5726542
51
181.5740881
0
ARC
8
DEFAULT_255_2_778
10
137.9385926
20
7.7825245
40
122.8108026
50
181.5777237
51
181.5794884
0
ARC
8
DEFAULT_255_2_778
10
338.1951249
20
13.3404501
40
323.1444458
50
181.5842162
51
181.5851984
0
ARC
8
DEFAULT_255_2_778
10
2866.4569484
20
83.9943189
40
2852.3932981
50
181.5977855
51
181.5988769
0
ARC
8
DEFAULT_255_2_778
10
34.5667221
20
5.0010975
40
19.4015609
50
181.4874472
51
181.5951112
0
ARC
8
DEFAULT_255_2_778
10
21.7845714
20
4.6716458
40
6.6151659
50
181.12367
51
181.5087327
0
ARC
8
DEFAULT_255_2_778
10
17.6976954
20
4.5918941
40
2.527512
50
180.4297913
51
181.1329459
0
ARC
8
DEFAULT_255_2_778
10
16.5396345
20
4.5820321
40
1.3694103
50
180.0095046
51
180.3806385
0
ARC
8
DEFAULT_255_2_778
10
17.1655526
20
4.6275627
40
1.9958531
50
180.000177
51
181.3137019
0
ARC
8
DEFAULT_255_2_778
10
17.1765492
20
4.627513
40
2.0068496
50
179.7353982
51
179.998757
0
ARC
8
DEFAULT_255_2_778
10
17.1458977
20
4.6279795
40
1.9761964
50
173.3682715
51
179.7448191
0
ARC
8
DEFAULT_255_2_778
10
14.5297989
20
3.7223355
40
1.3582508
50
353.3859573
51
359.6485853
0
ARC
8
DEFAULT_255_2_778
10
11.6109684
20
4.0596525
40
4.2965077
50
351.4554067
51
353.4009024
0
ARC
8
DEFAULT_255_2_778
10
19.821743
20
2.8263927
40
4.0063684
50
171.4608176
51
173.5895424
0
ARC
8
DEFAULT_255_2_778
10
17.1145227
20
3.1823415
40
0.8031562
50
91.3752268
51
115.739799
0
ARC
8
DEFAULT_255_2_778
10
17.1313407
20
3.0135107
40
0.9724259
50
91.2501904
51
92.127145
0
ARC
8
DEFAULT_255_2_778
10
17.1113332
20
3.2478766
40
0.7378294
50
45.2302527
51
90.0938882
0
ARC
8
DEFAULT_255_2_778
10
16.9872931
20
3.1272401
40
0.9108361
50
359.809074
51
45.0351231
0
ARC
8
DEFAULT_255_2_778
10
16.9990971
20
3.116138
40
0.8990632
50
339.8680078
51
0.5141006
0
ARC
8
DEFAULT_255_2_778
10
17.0787919
20
3.1085814
40
0.8218884
50
278.0173223
51
338.4502799
0
ARC
8
DEFAULT_255_2_778
10
17.0007534
20
3.3798842
40
1.1021294
50
269.9140779
51
280.067918
0
ARC
8
DEFAULT_255_2_778
10
16.9999236
20
3.4765858
40
1.19883
50
262.9054237
51
269.9606703
0
ARC
8
DEFAULT_255_2_778
10
17.0040181
20
3.5159709
40
1.2384196
50
262.4791045
51
262.94249
0
ARC
8
DEFAULT_255_2_778
10
17.0064912
20
3.5575239
40
0.2056179
50
162.7480111
51
176.6241353
0
ARC
8
DEFAULT_255_2_778
10
17.8468414
20
3.4811804
40
1.0493458
50
175.1646866
51
179.2148269
0
ARC
8
DEFAULT_255_2_778
10
19.3300765
20
3.4486152
40
2.5329174
50
178.9380235
51
180.0574626
0
ARC
8
DEFAULT_255_2_778
10
22.5347154
20
3.4496653
40
5.7375559
50
180.0358538
51
180.3900107
0
ARC
8
DEFAULT_255_2_778
10
10.411257
20
3.3652954
40
6.3861962
50
0.181305
51
0.4065597
0
ARC
8
DEFAULT_255_2_778
10
15.1440862
20
3.3823501
40
1.653338
50
0.0053656
51
0.1092821
0
ARC
8
DEFAULT_255_2_778
10
17.2868797
20
1.5920126
40
1.1480641
50
108.9996272
51
114.5362637
0
ARC
8
DEFAULT_255_2_778
10
17.4940284
20
0.9869525
40
1.7876011
50
106.3570292
51
108.9636915
0
ARC
8
DEFAULT_255_2_778
10
10.0322207
20
26.5363539
40
24.8291337
50
286.2751629
51
286.4426845
0
ARC
8
DEFAULT_255_2_778
10
16.9579812
20
3.1440399
40
0.4336259
50
283.6424714
51
304.3017961
0
ARC
8
DEFAULT_255_2_778
10
17.0627844
20
2.9634354
40
0.2258821
50
308.1612979
51
342.1068101
0
ARC
8
DEFAULT_255_2_778
10
16.794557
20
3.0582296
40
0.51032
50
341.2312604
51
354.0731741
0
ARC
8
DEFAULT_255_2_778
10
16.1319461
20
3.1359704
40
1.1774502
50
353.6398338
51
0.0670324
0
ARC
8
DEFAULT_255_2_778
10
15.5342477
20
3.1474599
40
1.7751765
50
359.6736226
51
0.0014534
0
ARC
8
DEFAULT_255_2_778
10
16.6249709
20
3.1591797
40
0.6845527
50
359.0227965
51
14.2492215
0
ARC
8
DEFAULT_255_2_778
10
16.96177
20
3.2458746
40
0.3367783
50
14.0573339
51
80.0816687
0
ARC
8
DEFAULT_255_2_778
10
16.7642298
20
2.5162882
40
1.0916634
50
76.4619642
51
87.4907189
0
ARC
8
DEFAULT_255_2_778
10
19.0616906
20
3.3778414
40
1.1701778
50
252.3885229
51
270.4814871
0
ARC
8
DEFAULT_255_2_778
10
19.0090637
20
3.1783697
40
0.9641861
50
194.2246945
51
251.7828594
0
ARC
8
DEFAULT_255_2_778
10
19.4325465
20
3.3228627
40
1.4106499
50
179.6408556
51
195.6871495
0
ARC
8
DEFAULT_255_2_778
10
19.7084829
20
3.3296292
40
1.6865601
50
172.0402836
51
179.9294805
0
ARC
8
DEFAULT_255_2_778
10
19.7195435
20
3.3506501
40
1.6947504
50
131.2464683
51
172.7959126
0
ARC
8
DEFAULT_255_2_778
10
19.3259636
20
3.7651299
40
1.1238527
50
93.4277787
51
130.091209
0
ARC
8
DEFAULT_255_2_778
10
19.3235715
20
3.7423702
40
1.1464347
50
89.9923711
51
93.2404328
0
ARC
8
DEFAULT_255_2_778
10
19.3415078
20
3.3974676
40
1.4914434
50
75.2998553
51
90.6832005
0
ARC
8
DEFAULT_255_2_778
10
19.5242127
20
4.0281273
40
0.8352304
50
23.9865007
51
76.4447021
0
ARC
8
DEFAULT_255_2_778
10
19.2584263
20
3.9070725
40
1.1272782
50
12.0601863
51
24.1162551
0
ARC
8
DEFAULT_255_2_778
10
21.2312092
20
-3.2460016
40
7.4396961
50
96.7185352
51
98.9022271
0
LINE
8
DEFAULT_255_2_778
10
20.0799252
20
4.1040748
11
20.0757019
21
4.10344
0
ARC
8
DEFAULT_255_2_778
10
19.4148613
20
7.8605479
40
3.8147831
50
271.4008925
51
279.9757601
0
ARC
8
DEFAULT_255_2_778
10
18.9493019
20
4.002225
40
0.5606056
50
4.5712956
51
11.7035877
0
ARC
8
DEFAULT_255_2_778
10
19.1562231
20
4.0735586
40
0.3446454
50
7.0641097
51
64.2807018
0
ARC
8
DEFAULT_255_2_778
10
19.2254145
20
4.1594984
40
0.2385113
50
70.3074737
51
90.3580364
0
ARC
8
DEFAULT_255_2_778
10
19.231868
20
4.0980251
40
0.300085
50
91.5169141
51
153.8128205
0
ARC
8
DEFAULT_255_2_778
10
19.7301567
20
3.7986276
40
0.8807049
50
150.6384363
51
167.6340579
0
ARC
8
DEFAULT_255_2_778
10
20.3642719
20
3.6299994
40
1.5364933
50
166.5556692
51
169.9742979
0
ARC
8
DEFAULT_255_2_778
10
20.9050625
20
3.5390955
40
2.0848564
50
170.1015516
51
175.733548
0
ARC
8
DEFAULT_255_2_778
10
21.3346129
20
3.5016696
40
2.5160066
50
175.6113543
51
178.3624818
0
ARC
8
DEFAULT_255_2_778
10
21.2363351
20
3.5037069
40
2.417711
50
178.3441882
51
179.9810871
0
ARC
8
DEFAULT_255_2_778
10
20.3227504
20
3.5056334
40
1.5041267
50
180.0429838
51
184.4062486
0
ARC
8
DEFAULT_255_2_778
10
20.2481428
20
3.4973468
40
1.4291052
50
184.3048104
51
190.8458108
0
ARC
8
DEFAULT_255_2_778
10
19.6325181
20
3.3547409
40
0.7980111
50
189.1066973
51
214.8795778
0
ARC
8
DEFAULT_255_2_778
10
19.2577986
20
3.0987174
40
0.3442261
50
215.5877156
51
268.7575172
0
ARC
8
DEFAULT_255_2_778
10
19.2619968
20
3.1607269
40
0.406322
50
268.3552633
51
270.0038559
0
ARC
8
DEFAULT_255_2_778
10
19.2588237
20
2.9392661
40
0.1848888
50
270.9918377
51
292.8790694
0
ARC
8
DEFAULT_255_2_778
10
19.2348972
20
3.0069154
40
0.2565537
50
291.9283095
51
294.3442384
0
ARC
8
DEFAULT_255_2_778
10
19.1516935
20
3.1582506
40
0.4289411
50
296.1374444
51
317.6908647
0
ARC
8
DEFAULT_255_2_778
10
18.9900909
20
3.3228031
40
0.6593418
50
316.5688608
51
331.8831614
0
ARC
8
DEFAULT_255_2_778
10
19.164979
20
3.2323197
40
0.4624576
50
331.5592524
51
344.2549681
0
ARC
8
DEFAULT_255_2_778
10
19.3767252
20
3.1728911
40
0.2425302
50
344.1935254
51
359.0818901
0
ARC
8
DEFAULT_255_2_778
10
19.5595067
20
3.1726444
40
0.0598282
50
356.5125017
51
0.0014778
0
ARC
8
DEFAULT_255_2_778
10
19.5594989
20
3.1726652
40
0.0598361
50
359.9814862
51
42.9103836
0
ARC
8
DEFAULT_255_2_778
10
18.8620398
20
8.633786
40
5.4708347
50
271.8507279
51
277.7873878
0
ARC
8
DEFAULT_255_2_778
10
19.0676628
20
3.5124916
40
1.4546395
50
0.0065626
51
10.7815999
0
ARC
8
DEFAULT_255_2_778
10
19.0695197
20
3.5126785
40
1.4527826
50
359.40551
51
359.9991996
0
ARC
8
DEFAULT_255_2_778
10
18.9188402
20
3.4871579
40
1.603418
50
347.5563196
51
0.3733149
0
ARC
8
DEFAULT_255_2_778
10
19.3495006
20
3.3894972
40
1.1618334
50
327.1046247
51
347.6829484
0
ARC
8
DEFAULT_255_2_778
10
19.3727805
20
3.4044871
40
1.150704
50
287.5089605
51
325.8482783
0
ARC
8
DEFAULT_255_2_778
10
19.1287028
20
4.0723403
40
1.8613199
50
273.7228283
51
288.4891991
0
ARC
8
DEFAULT_255_2_778
10
19.072194
20
4.6526057
40
2.4441015
50
269.953822
51
274.1615109
0
ARC
8
DEFAULT_255_2_778
10
21.3149234
20
2.3853593
40
0.6329633
50
88.8955218
51
89.9999076
0
ARC
8
DEFAULT_255_2_778
10
21.315159
20
2.369356
40
0.6489666
50
90.0207119
51
95.7958055
0
ARC
8
DEFAULT_255_2_778
10
29.9961509
20
3.9761753
40
8.7991806
50
186.2711652
51
186.3358906
0
ARC
8
DEFAULT_255_2_778
10
22.3796122
20
3.1009371
40
1.1329553
50
184.8512049
51
193.8268668
0
ARC
8
DEFAULT_255_2_778
10
21.4875305
20
2.8700803
40
0.2118361
50
190.8585777
51
262.9398241
0
ARC
8
DEFAULT_255_2_778
10
21.5619334
20
3.2167513
40
0.5658858
50
259.7763114
51
270.6774542
0
ARC
8
DEFAULT_255_2_778
10
21.5790981
20
3.0354986
40
0.3847362
50
268.4399974
51
269.9999433
0
ARC
8
DEFAULT_255_2_778
10
21.5785838
20
3.0381918
40
0.3874298
50
270.0760056
51
319.8740621
0
ARC
8
DEFAULT_255_2_778
10
20.7503468
20
3.6710314
40
1.7360951
50
320.2662995
51
323.5058478
0
ARC
8
DEFAULT_255_2_778
10
21.132636
20
3.3528393
40
1.2387108
50
316.0206718
51
320.2815779
0
ARC
8
DEFAULT_255_2_778
10
21.4793457
20
3.0026506
40
0.7461359
50
297.2892933
51
316.8836425
0
ARC
8
DEFAULT_255_2_778
10
21.4831271
20
3.0418842
40
0.7795616
50
275.2049115
51
295.7200339
0
ARC
8
DEFAULT_255_2_778
10
21.36265
20
4.09043
40
1.8348817
50
269.5495352
51
275.9811615
0
ARC
8
DEFAULT_255_2_778
10
21.3841651
20
2.9754256
40
0.7207174
50
199.3694591
51
267.14157
0
ARC
8
DEFAULT_255_2_778
10
21.4788091
20
3.0514133
40
0.836178
50
183.38996
51
202.1317396
0
ARC
8
DEFAULT_255_2_778
10
21.406101
20
3.0442119
40
0.7631767
50
180.008026
51
183.1730298
0
ARC
8
DEFAULT_255_2_778
10
21.4689447
20
3.0413216
40
0.8260253
50
168.7246239
51
179.806939
0
ARC
8
DEFAULT_255_2_778
10
21.5560746
20
3.026891
40
0.9142994
50
168.2241999
51
168.9053499
0
ARC
8
DEFAULT_255_2_778
10
21.7379835
20
2.9777839
40
1.1024561
50
113.6114881
51
167.6551548
0
ARC
8
DEFAULT_255_2_778
10
21.5528754
20
3.3322342
40
0.7040806
50
90.3052643
51
111.3614597
0
ARC
8
DEFAULT_255_2_778
10
21.5592135
20
3.1416875
40
0.8946744
50
72.4101347
51
90.6461484
0
ARC
8
DEFAULT_255_2_778
10
21.5999554
20
3.3217538
40
0.7108858
50
12.3769731
51
71.1543795
0
ARC
8
DEFAULT_255_2_778
10
21.0447862
20
3.144474
40
1.2922863
50
359.5047937
51
14.7790876
0
ARC
8
DEFAULT_255_2_778
10
21.2750378
20
3.108391
40
1.0622785
50
0.0017309
51
1.3439027
0
ARC
8
DEFAULT_255_2_778
10
21.2972066
20
3.1081413
40
1.0401098
50
353.644541
51
0.0155185
0
ARC
8
DEFAULT_255_2_778
10
21.5559168
20
3.5642558
40
0.1849492
50
90.0596926
51
97.5157314
0
ARC
8
DEFAULT_255_2_778
10
21.5926672
20
3.4345805
40
0.3189126
50
101.0164855
51
139.2113309
0
ARC
8
DEFAULT_255_2_778
10
21.6867401
20
3.3254843
40
0.4618911
50
136.5875396
51
158.6306168
0
ARC
8
DEFAULT_255_2_778
10
21.5316443
20
3.386006
40
0.2954053
50
158.600994
51
176.0016461
0
ARC
8
DEFAULT_255_2_778
10
21.4517835
20
3.3946234
40
0.2151593
50
176.8079721
51
179.9782715
0
ARC
8
DEFAULT_255_2_778
10
21.329647
20
3.3928851
40
0.0930406
50
178.8791912
51
180.0060849
0
ARC
8
DEFAULT_255_2_778
10
21.335851
20
3.3932454
40
0.0992454
50
180.2137126
51
205.7010964
0
ARC
8
DEFAULT_255_2_778
10
21.2906826
20
2.9704349
40
0.3830944
50
89.9311156
51
97.553496
0
ARC
8
DEFAULT_255_2_778
10
21.2911139
20
2.9419663
40
0.4115627
50
88.5923618
51
89.9959266
0
ARC
8
DEFAULT_255_2_778
10
21.4709947
20
3.4895749
40
0.3728821
50
338.5812041
51
0.1400185
0
ARC
8
DEFAULT_255_2_778
10
21.4538634
20
3.4904609
40
0.3900123
50
0.003712
51
0.9320397
0
ARC
8
DEFAULT_255_2_778
10
21.6059653
20
3.5070556
40
0.2380796
50
357.5323432
51
42.7576344
0
ARC
8
DEFAULT_255_2_778
10
21.5750015
20
3.4452776
40
0.303732
50
47.3536767
51
92.6453611
0
ARC
8
DEFAULT_255_2_778
10
21.5567053
20
3.2671421
40
0.481563
50
89.4910345
51
89.9977642
0
ARC
8
DEFAULT_255_2_778
10
30.9995661
20
2.5479181
40
7.4677421
50
179.8472779
51
179.9893595
0
ARC
8
DEFAULT_255_2_778
10
56.6971892
20
2.4813417
40
33.1654514
50
179.8161427
51
179.8505963
0
ARC
8
DEFAULT_255_2_778
10
0.3338643
20
2.6616413
40
23.198162
50
359.8175409
51
359.8700922
0
ARC
8
DEFAULT_255_2_778
10
13.2682065
20
2.6323359
40
10.2637867
50
359.8699759
51
359.9956899
0
ARC
8
DEFAULT_255_2_778
10
18.1816626
20
2.6370449
40
5.3503334
50
359.9413034
51
1.0070473
0
ARC
8
DEFAULT_255_2_778
10
20.257672
20
2.6758098
40
3.2739642
50
0.9672818
51
3.6272468
0
ARC
8
DEFAULT_255_2_778
10
21.2053155
20
2.7340568
40
2.3245349
50
3.6721687
51
6.2151189
0
ARC
8
DEFAULT_255_2_778
10
22.2846511
20
2.87242
40
1.2367369
50
5.2561136
51
19.0691655
0
ARC
8
DEFAULT_255_2_778
10
23.023844
20
3.129391
40
0.4541545
50
18.8965141
51
41.9386632
0
ARC
8
DEFAULT_255_2_778
10
23.1864444
20
3.2714483
40
0.2382797
50
42.6602007
51
90.7983994
0
ARC
8
DEFAULT_255_2_778
10
23.1748684
20
3.2081824
40
0.3016356
50
88.4316183
51
90.0006692
0
ARC
8
DEFAULT_255_2_778
10
23.1748866
20
3.2083473
40
0.3014708
50
90.004141
51
121.5321896
0
ARC
8
DEFAULT_255_2_778
10
23.9780011
20
3.8697455
40
0.9574202
50
173.4532342
51
179.0089684
0
ARC
8
DEFAULT_255_2_778
10
23.4151909
20
3.8876974
40
0.3944693
50
180.20225
51
192.7997583
0
ARC
8
DEFAULT_255_2_778
10
23.3187613
20
3.502488
40
0.4144582
50
94.289635
51
134.0635091
0
ARC
8
DEFAULT_255_2_778
10
23.4035794
20
2.9917632
40
0.9312523
50
89.7265348
51
97.1443185
0
ARC
8
DEFAULT_255_2_778
10
23.4169724
20
3.1725402
40
0.7505181
50
64.413771
51
90.6831404
0
ARC
8
DEFAULT_255_2_778
10
23.418628
20
3.2172018
40
0.7097443
50
9.0629862
51
62.9770983
0
ARC
8
DEFAULT_255_2_778
10
23.1997104
20
3.1560126
40
0.9359271
50
0.3056247
51
10.6512741
0
ARC
8
DEFAULT_255_2_778
10
27.663617
20
4.4571536
40
3.2670649
50
179.2607543
51
183.5790527
0
ARC
8
DEFAULT_255_2_778
10
26.04057
20
4.6471216
40
1.6440461
50
180.0030676
51
181.0949498
0
ARC
8
DEFAULT_255_2_778
10
25.9300984
20
4.6482377
40
1.5335748
50
174.7634044
51
180.0449871
0
LINE
8
DEFAULT_255_2_778
10
6.3469241
20
3.024805
11
7.0171241
21
3.085605
0
LINE
8
DEFAULT_255_2_778
10
8.9552241
20
4.496405
11
8.9552241
21
4.612805
0
LINE
8
DEFAULT_255_2_778
10
8.9612241
20
4.785305
11
9.6439241
21
4.832905
0
LINE
8
DEFAULT_255_2_778
10
9.6439241
20
4.832905
11
9.6714241
21
4.298505
0
LINE
8
DEFAULT_255_2_778
10
9.6714241
20
4.298505
11
8.9612241
21
4.250305
0
LINE
8
DEFAULT_255_2_778
10
8.9803241
20
2.217805
11
8.9644241
21
3.940805
0
LINE
8
DEFAULT_255_2_778
10
8.9644241
20
3.940805
11
9.6330241
21
3.947405
0
LINE
8
DEFAULT_255_2_778
10
9.6330241
20
3.947405
11
9.6457241
21
2.265905
0
LINE
8
DEFAULT_255_2_778
10
9.6457241
20
2.265905
11
8.9803241
21
2.217805
0
LINE
8
DEFAULT_255_2_778
10
10.5064241
20
2.993005
11
10.5096241
21
2.983205
0
LINE
8
DEFAULT_255_2_778
10
10.4011241
20
2.909905
11
10.4072241
21
2.900205
0
LINE
8
DEFAULT_255_2_778
10
10.4072241
20
2.900205
11
10.8443241
21
2.919205
0
LINE
8
DEFAULT_255_2_778
10
10.3080241
20
2.274405
11
10.6567241
21
2.258505
0
LINE
8
DEFAULT_255_2_778
10
11.3618241
20
4.386805
11
11.6920241
21
4.205305
0
LINE
8
DEFAULT_255_2_778
10
12.8562241
20
2.204605
11
12.8623241
21
2.549105
0
LINE
8
DEFAULT_255_2_778
10
12.3484241
20
3.465005
11
12.3008241
21
2.281305
0
LINE
8
DEFAULT_255_2_778
10
12.3008241
20
2.281305
11
11.7584241
21
2.262205
0
LINE
8
DEFAULT_255_2_778
10
11.7584241
20
2.262205
11
11.7775241
21
4.017205
0
LINE
8
DEFAULT_255_2_778
10
11.7775241
20
4.017205
11
12.3588241
21
3.978605
0
LINE
8
DEFAULT_255_2_778
10
13.4663241
20
3.159705
11
13.4761241
21
2.253505
0
LINE
8
DEFAULT_255_2_778
10
13.4761241
20
2.253505
11
12.8562241
21
2.204605
0
LINE
8
DEFAULT_255_2_778
10
13.6692241
20
3.369305
11
13.6692241
21
4.872105
0
LINE
8
DEFAULT_255_2_778
10
13.6692241
20
4.872105
11
14.5339241
21
4.888005
0
LINE
8
DEFAULT_255_2_778
10
14.5339241
20
4.888005
11
14.4606241
21
3.704205
0
LINE
8
DEFAULT_255_2_778
10
15.1829241
20
4.856205
11
15.8880241
21
4.856205
0
LINE
8
DEFAULT_255_2_778
10
15.8880241
20
4.856205
11
15.8880241
21
3.714005
0
LINE
8
DEFAULT_255_2_778
10
16.8413241
20
2.286805
11
16.8445241
21
2.012505
0
LINE
8
DEFAULT_255_2_778
10
16.8445241
20
2.012505
11
16.8347241
21
1.655305
0
LINE
8
DEFAULT_255_2_778
10
16.8347241
20
1.655305
11
16.1468241
21
1.655305
0
LINE
8
DEFAULT_255_2_778
10
16.1468241
20
1.655305
11
16.1370241
21
4.097405
0
LINE
8
DEFAULT_255_2_778
10
16.1370241
20
4.097405
11
16.7625241
21
4.126005
0
LINE
8
DEFAULT_255_2_778
10
16.7625241
20
4.126005
11
16.7657241
21
3.905805
0
LINE
8
DEFAULT_255_2_778
10
16.8133241
20
3.605805
11
16.8101241
21
3.618505
0
LINE
8
DEFAULT_255_2_778
10
16.7974241
20
3.382505
11
16.8101241
21
2.636405
0
LINE
8
DEFAULT_255_2_778
10
19.0387241
20
3.165805
11
19.0863241
21
3.698705
0
LINE
8
DEFAULT_255_2_778
10
19.0863241
20
3.698705
11
20.4966241
21
3.784605
0
LINE
8
DEFAULT_255_2_778
10
22.3290241
20
2.992505
11
21.3271241
21
3.018205
0
LINE
8
DEFAULT_255_2_778
10
21.8748241
20
2.788505
11
22.1460241
21
2.638505
0
LINE
8
DEFAULT_255_2_778
10
21.2464241
20
3.350205
11
21.2403241
21
3.350205
0
LINE
8
DEFAULT_255_2_778
10
21.3012241
20
3.353405
11
21.8181241
21
3.353405
0
LINE
8
DEFAULT_255_2_778
10
23.5258241
20
2.204805
11
23.5318241
21
2.549305
0
LINE
8
DEFAULT_255_2_778
10
23.0172241
20
3.465305
11
22.9688241
21
2.281605
0
LINE
8
DEFAULT_255_2_778
10
22.9688241
20
2.281605
11
22.4264241
21
2.262505
0
LINE
8
DEFAULT_255_2_778
10
22.4264241
20
2.262505
11
22.4455241
21
4.017505
0
LINE
8
DEFAULT_255_2_778
10
22.4455241
20
4.017505
11
23.0268241
21
3.978905
0
LINE
8
DEFAULT_255_2_778
10
24.1356241
20
3.161005
11
24.1454241
21
2.254805
0
LINE
8
DEFAULT_255_2_778
10
24.1454241
20
2.254805
11
23.5258241
21
2.204805
0
LINE
8
DEFAULT_255_2_778
10
24.3968241
20
4.499305
11
24.3968241
21
4.615705
0
LINE
8
DEFAULT_255_2_778
10
24.4029241
20
4.788205
11
25.0855241
21
4.835805
0
LINE
8
DEFAULT_255_2_778
10
25.0855241
20
4.835805
11
25.1141241
21
4.299805
0
LINE
8
DEFAULT_255_2_778
10
25.1141241
20
4.299805
11
24.4029241
21
4.253205
0
LINE
8
DEFAULT_255_2_778
10
24.4219241
20
2.220705
11
24.4060241
21
3.943705
0
LINE
8
DEFAULT_255_2_778
10
24.4060241
20
3.943705
11
25.0728241
21
3.949805
0
LINE
8
DEFAULT_255_2_778
10
25.0728241
20
3.949805
11
25.0855241
21
2.268305
0
LINE
8
DEFAULT_255_2_778
10
25.0855241
20
2.268305
11
24.4219241
21
2.220705
0
ARC
8
DEFAULT_255_2_778
10
26.366632
20
2.3150999
40
0.0215801
50
162.9283056
51
280.7378686
0
ARC
8
DEFAULT_255_2_778
10
27.1501069
20
2.3212296
40
0.8041042
50
179.8713767
51
179.9853524
0
ARC
8
DEFAULT_255_2_778
10
25.537483
20
2.3248439
40
0.8085238
50
359.8717959
51
359.9860284
0
ARC
8
DEFAULT_255_2_778
10
26.1788895
20
2.3251501
40
0.1671181
50
359.8274035
51
1.5702711
0
ARC
8
DEFAULT_255_2_778
10
26.3163791
20
2.3328229
40
0.0297273
50
354.0272613
51
70.8055966
0
ARC
8
DEFAULT_255_2_778
10
25.9216012
20
2.9005715
40
0.67447
50
272.4091511
51
306.85604
0
ARC
8
DEFAULT_255_2_778
10
25.951777
20
3.0055461
40
0.7788506
50
247.1914195
51
269.8657992
0
ARC
8
DEFAULT_255_2_778
10
25.8051202
20
2.6292297
40
0.3752605
50
207.4985577
51
245.5587981
0
ARC
8
DEFAULT_255_2_778
10
26.2664054
20
2.8929946
40
0.9064607
50
193.4358069
51
208.8246524
0
ARC
8
DEFAULT_255_2_778
10
27.0587106
20
3.1031939
40
1.726042
50
187.7692503
51
194.1113258
0
ARC
8
DEFAULT_255_2_778
10
28.0808034
20
3.2430712
40
2.7576617
50
182.6820844
51
187.7780365
0
ARC
8
DEFAULT_255_2_778
10
29.1776504
20
3.3041671
40
3.8561783
50
181.0894375
51
182.8262532
0
ARC
8
DEFAULT_255_2_778
10
30.4212381
20
3.3275895
40
5.0999866
50
179.9605881
51
181.086895
0
ARC
8
DEFAULT_255_2_778
10
30.1199843
20
3.3440139
40
4.798749
50
173.3984474
51
180.1542172
0
ARC
8
DEFAULT_255_2_778
10
27.6206756
20
3.0772518
40
1.7662412
50
179.738995
51
183.5942372
0
ARC
8
DEFAULT_255_2_778
10
26.9752153
20
3.0412284
40
1.1198012
50
183.8250758
51
186.0030921
0
ARC
8
DEFAULT_255_2_778
10
26.351615
20
2.9500695
40
0.4907469
50
183.0314012
51
213.3214914
0
ARC
8
DEFAULT_255_2_778
10
26.1195834
20
2.8138605
40
0.2224553
50
216.8386022
51
266.0576504
0
ARC
8
DEFAULT_255_2_778
10
26.1344426
20
2.9082298
40
0.3177323
50
264.5542913
51
270.0739552
0
ARC
8
DEFAULT_255_2_778
10
26.1312213
20
2.8480616
40
0.2575896
50
270.8077519
51
281.6791568
0
ARC
8
DEFAULT_255_2_778
10
26.1272307
20
2.8764554
40
0.2862093
50
281.3108478
51
284.4684904
0
ARC
8
DEFAULT_255_2_778
10
26.1787973
20
2.724229
40
0.1264877
50
279.0711104
51
324.4591381
0
ARC
8
DEFAULT_255_2_778
10
26.2385526
20
2.6723681
40
0.0482992
50
333.349659
51
0.1228946
0
ARC
8
DEFAULT_255_2_778
10
26.2242499
20
2.6715323
40
0.0626089
50
0.8596792
51
23.3005756
0
ARC
8
DEFAULT_255_2_778
10
26.0342989
20
2.7735157
40
0.2632844
50
340.030229
51
350.5452573
0
ARC
8
DEFAULT_255_2_778
10
25.2557808
20
2.9188746
40
1.0552184
50
349.7037033
51
353.6948172
0
ARC
8
DEFAULT_255_2_778
10
23.6349437
20
3.1050111
40
2.6867026
50
353.5454659
51
355.7334387
0
ARC
8
DEFAULT_255_2_778
10
20.4344478
20
3.344652
40
5.8961576
50
355.7249812
51
357.4118047
0
ARC
8
DEFAULT_255_2_778
10
15.2412871
20
3.586861
40
11.0949608
50
357.3733138
51
358.5037243
0
ARC
8
DEFAULT_255_2_778
10
10.6214013
20
3.7148422
40
15.716615
50
358.4771001
51
359.2738006
0
ARC
8
DEFAULT_255_2_778
10
10.1370969
20
3.7238842
40
16.2009953
50
359.2635334
51
359.6226608
0
ARC
8
DEFAULT_255_2_778
10
12.1959312
20
3.7112648
40
14.1421225
50
359.618853
51
359.9927818
0
ARC
8
DEFAULT_255_2_778
10
15.2740093
20
3.7106323
40
11.0640444
50
359.9940492
51
0.2923833
0
ARC
8
DEFAULT_255_2_778
10
18.644174
20
3.7288858
40
7.6938305
50
0.2845253
51
0.7032065
0
ARC
8
DEFAULT_255_2_778
10
21.7908565
20
3.7678398
40
4.546907
50
0.6990225
51
1.1886211
0
ARC
8
DEFAULT_255_2_778
10
24.0972566
20
3.8166436
40
2.239991
50
1.1643314
51
1.9482877
0
LINE
8
DEFAULT_255_2_778
10
26.8468527
20
2.3065977
11
26.3706527
21
2.2938977
0
LINE
8
DEFAULT_255_2_778
10
25.3530527
20
3.8956977
11
25.8604527
21
3.8956977
0
LINE
8
DEFAULT_255_2_778
10
25.8604527
20
3.8956977
11
25.8544527
21
3.0852977
0
LINE
8
DEFAULT_255_2_778
10
26.2817527
20
2.6962977
11
26.2817527
21
2.6835977
0
LINE
8
DEFAULT_255_2_778
10
26.3359527
20
3.8927977
11
26.8783527
21
3.8670977
0
LINE
8
DEFAULT_255_2_778
10
26.8783527
20
3.8670977
11
26.8497527
21
2.3060977
0
ARC
8
DEFAULT_255_2_778
10
26.7392144
20
0.2220765
40
3.7528624
50
62.1913679
51
65.1496213
0
ARC
8
DEFAULT_255_2_778
10
27.7819858
20
2.5567112
40
1.1966801
50
63.4778806
51
88.7879193
0
ARC
8
DEFAULT_255_2_778
10
27.8037262
20
1.6176536
40
2.1354729
50
89.9041279
51
90.7762653
0
ARC
8
DEFAULT_255_2_778
10
27.7511
20
3.4769597
40
0.2769862
50
85.0926076
51
121.9337139
0
ARC
8
DEFAULT_255_2_778
10
27.6903331
20
3.6156054
40
0.1290301
50
131.6446671
51
182.3145166
0
ARC
8
DEFAULT_255_2_778
10
27.8003786
20
3.6031824
40
0.2390791
50
178.2713231
51
180.0141058
0
ARC
8
DEFAULT_255_2_778
10
27.6701113
20
3.6064325
40
0.1088621
50
181.7418523
51
241.1714882
0
ARC
8
DEFAULT_255_2_778
10
27.8125883
20
3.8141431
40
0.3603764
50
237.247198
51
249.697452
0
ARC
8
DEFAULT_255_2_778
10
28.0574166
20
4.45145
40
1.0430739
50
249.2312661
51
254.2259647
0
ARC
8
DEFAULT_255_2_778
10
28.4827259
20
5.8921079
40
2.5451575
50
253.8284444
51
254.5755043
0
ARC
8
DEFAULT_255_2_778
10
28.8931953
20
7.3719804
40
4.0809002
50
254.5462172
51
254.5688903
0
ARC
8
DEFAULT_255_2_778
10
28.885631
20
7.3443107
40
4.0522153
50
254.5678913
51
254.5906292
0
ARC
8
DEFAULT_255_2_778
10
28.6078576
20
6.3353952
40
3.0057601
50
254.58501
51
254.6154747
0
ARC
8
DEFAULT_255_2_778
10
28.8622244
20
7.26205
40
3.9666925
50
254.6239314
51
254.6468728
0
ARC
8
DEFAULT_255_2_778
10
28.8508137
20
7.2206272
40
3.923727
50
254.6473994
51
254.6704476
0
ARC
8
DEFAULT_255_2_778
10
28.8392367
20
7.1775863
40
3.879157
50
254.6672926
51
254.6904598
0
ARC
8
DEFAULT_255_2_778
10
-78.8504349
20
-392.1215104
40
409.686868
50
74.8941314
51
74.9086668
0
ARC
8
DEFAULT_255_2_778
10
27.2321583
20
0.8818072
40
2.6179253
50
72.4686552
51
74.8724561
0
ARC
8
DEFAULT_255_2_778
10
27.8302955
20
2.6470299
40
0.7555057
50
45.0748736
51
75.3988925
0
ARC
8
DEFAULT_255_2_778
10
28.0356613
20
2.8891931
40
0.4397673
50
15.8978739
51
41.7368526
0
ARC
8
DEFAULT_255_2_778
10
27.9110735
20
2.8548569
40
0.5689964
50
0.9073302
51
15.7866406
0
ARC
8
DEFAULT_255_2_778
10
27.7714136
20
2.8469883
40
0.7087859
50
359.994763
51
1.3645552
0
ARC
8
DEFAULT_255_2_778
10
27.8120056
20
2.8492247
40
0.6681978
50
348.5015077
51
359.8026797
0
ARC
8
DEFAULT_255_2_778
10
27.6657785
20
2.8721004
40
0.8160779
50
288.6723108
51
348.9742018
0
ARC
8
DEFAULT_255_2_778
10
27.7901477
20
2.6119653
40
0.5309422
50
270.0811207
51
284.9424088
0
ARC
8
DEFAULT_255_2_778
10
27.8018771
20
2.6597537
40
0.5788343
50
254.3102434
51
268.9133177
0
ARC
8
DEFAULT_255_2_778
10
28.0085235
20
3.4127401
40
1.3596555
50
245.9298888
51
254.5075473
0
ARC
8
DEFAULT_255_2_778
10
28.7739653
20
5.1677206
40
3.2742674
50
242.9019242
51
246.2254756
0
ARC
8
DEFAULT_255_2_778
10
30.4000266
20
8.4113449
40
6.9025934
50
243.132021
51
243.1505624
0
ARC
8
DEFAULT_255_2_778
10
30.0368729
20
7.6957884
40
6.1001589
50
243.1061362
51
243.1373316
0
ARC
8
DEFAULT_255_2_778
10
29.5155543
20
6.6680929
40
4.9477998
50
243.0689686
51
243.1069352
0
ARC
8
DEFAULT_255_2_778
10
31.5915402
20
10.7559238
40
9.532566
50
243.0531258
51
243.0725784
0
ARC
8
DEFAULT_255_2_778
10
29.8219006
20
7.2738516
40
5.6266152
50
243.0160569
51
243.0485885
0
ARC
8
DEFAULT_255_2_778
10
31.3603276
20
10.2946693
40
9.0166148
50
242.9942645
51
243.014303
0
ARC
8
DEFAULT_255_2_778
10
29.6869051
20
7.0121581
40
5.332158
50
242.9654666
51
242.9989135
0
ARC
8
DEFAULT_255_2_778
10
31.1421749
20
9.8643974
40
8.5342011
50
242.9459445
51
242.9665716
0
ARC
8
DEFAULT_255_2_778
10
31.0373821
20
9.659515
40
8.3040744
50
242.9259813
51
242.9469053
0
ARC
8
DEFAULT_255_2_778
10
30.9348916
20
9.4582025
40
8.0781742
50
242.9021544
51
242.9233846
0
ARC
8
DEFAULT_255_2_778
10
30.8351274
20
9.2634131
40
7.8593231
50
242.8812314
51
242.9027693
0
ARC
8
DEFAULT_255_2_778
10
32.4400919
20
12.3951517
40
11.3783708
50
242.8617154
51
242.8763988
0
ARC
8
DEFAULT_255_2_778
10
36.6647022
20
20.6331994
40
20.6364896
50
242.8486848
51
242.8566754
0
ARC
8
DEFAULT_255_2_778
10
33.7733298
20
14.9914865
40
14.2970137
50
242.8282134
51
242.8414927
0
ARC
8
DEFAULT_255_2_778
10
33.5642273
20
14.5813369
40
13.8366389
50
242.8094311
51
242.8229435
0
ARC
8
DEFAULT_255_2_778
10
33.3594148
20
14.1782067
40
13.3844687
50
242.7869767
51
242.800733
0
ARC
8
DEFAULT_255_2_778
10
33.1637367
20
13.7964195
40
12.955457
50
242.7704504
51
242.7844456
0
ARC
8
DEFAULT_255_2_778
10
12.1808161
20
-26.770016
40
32.7164414
50
62.6020382
51
62.8399102
0
ARC
8
DEFAULT_255_2_778
10
25.7179126
20
-0.3946352
40
3.0699667
50
62.9263963
51
64.2820236
0
ARC
8
DEFAULT_255_2_778
10
28.3741764
20
4.6531154
40
2.2338098
50
237.9958234
51
240.1405023
0
ARC
8
DEFAULT_255_2_778
10
28.3863054
20
4.6736116
40
2.2576239
50
240.1325245
51
240.8867093
0
ARC
8
DEFAULT_255_2_778
10
28.186922
20
4.2937564
40
1.828783
50
240.5539581
51
249.7026801
0
ARC
8
DEFAULT_255_2_778
10
27.8744548
20
3.4445555
40
0.923922
50
249.6086512
51
261.2917975
0
ARC
8
DEFAULT_255_2_778
10
27.808624
20
3.0493401
40
0.5233218
50
261.8650111
51
269.7455005
0
ARC
8
DEFAULT_255_2_778
10
27.826444
20
2.7123526
40
0.1874149
50
263.829556
51
357.6364199
0
ARC
8
DEFAULT_255_2_778
10
27.8951177
20
2.7025707
40
0.1185996
50
0.9917763
51
66.6391438
0
ARC
8
DEFAULT_255_2_778
10
27.7416193
20
2.4337143
40
0.4276603
50
62.0377424
51
73.6643165
0
ARC
8
DEFAULT_255_2_778
10
27.4292462
20
1.4079147
40
1.4999503
50
73.2348942
51
77.1863261
0
ARC
8
DEFAULT_255_2_778
10
34.6499137
20
32.5770999
40
30.4946891
50
256.7663944
51
256.9456271
0
ARC
8
DEFAULT_255_2_778
10
28.1616093
20
4.9835928
40
2.1486187
50
254.0687784
51
256.7463719
0
ARC
8
DEFAULT_255_2_778
10
27.7095909
20
3.5376632
40
0.635277
50
221.2278457
51
257.4776149
0
ARC
8
DEFAULT_255_2_778
10
27.590486
20
3.3953726
40
0.4528206
50
196.4984582
51
217.6168835
0
ARC
8
DEFAULT_255_2_778
10
27.750887
20
3.4432659
40
0.6202189
50
183.3610231
51
196.5325662
0
ARC
8
DEFAULT_255_2_778
10
27.9473116
20
3.4601412
40
0.8173123
50
179.952166
51
183.7347016
0
ARC
8
DEFAULT_255_2_778
10
27.7732994
20
3.4563554
40
0.6433155
50
168.5191468
51
179.6020481
0
ARC
8
DEFAULT_255_2_778
10
27.989616
20
3.415288
40
0.8634824
50
160.7898092
51
168.7056066
0
ARC
8
DEFAULT_255_2_778
10
28.0034865
20
3.4286029
40
0.8723678
50
126.187444
51
161.9154424
0
ARC
8
DEFAULT_255_2_778
10
27.7401466
20
3.7621457
40
0.4479573
50
101.1658997
51
124.191003
0
ARC
8
DEFAULT_255_2_778
10
27.8350822
20
3.1793524
40
1.0382904
50
89.9873212
51
100.0776431
0
ARC
8
DEFAULT_255_2_778
10
27.8352447
20
3.1746884
40
1.0429542
50
89.1344633
51
89.9963075
0
ARC
8
DEFAULT_255_2_778
10
27.8416947
20
3.0507392
40
1.1668214
50
50.0265208
51
89.5430952
0
LINE
8
DEFAULT_255_2_778
10
27.0500994
20
2.3712235
11
27.1902994
21
2.7588235
0
LINE
8
DEFAULT_255_2_778
10
28.5912994
20
3.9449235
11
28.4899994
21
3.5415235
0
ENDSEC
0
EOF