0
SECTION
2
HEADER
9
$MEASUREMENT
70
1
0
ENDSEC
0
SECTION
2
TABLES
0
TABLE
2
LTYPE
0
LTYPE
72
65
70
64
2
CONTINUOUS
3
______
73
0
40
0
0
ENDTAB
0
TABLE
2
LAYER
0
LAYER
2
DEFAULT_255_2_778
70
0
62
255
6
CONTINUOUS
0
ENDTAB
0
ENDSEC
0
SECTION
2
ENTITIES
0
ARC
8
DEFAULT_255_2_778
10
30.3279057
20
16.2482593
40
2.40579
50
159.7584467
51
180.0920136
0
ARC
8
DEFAULT_255_2_778
10
30.2500605
20
16.2853853
40
2.319921
50
100.0893642
51
159.9535646
0
ARC
8
DEFAULT_255_2_778
10
30.2348882
20
16.2992007
40
2.3036952
50
89.9743685
51
99.77804
0
ARC
8
DEFAULT_255_2_778
10
30.239137
20
16.322989
40
2.2799091
50
67.6630835
51
90.0808754
0
ARC
8
DEFAULT_255_2_778
10
30.2069905
20
16.2730018
40
2.3383873
50
16.4429356
51
67.4000098
0
ARC
8
DEFAULT_255_2_778
10
30.1349272
20
16.2472609
40
2.4147933
50
359.9320196
51
16.5447236
0
ARC
8
DEFAULT_255_2_778
10
30.143932
20
16.2405322
40
2.40579
50
339.7584467
51
0.0920136
0
ARC
8
DEFAULT_255_2_778
10
30.2217771
20
16.2034063
40
2.319921
50
280.0893642
51
339.9535646
0
ARC
8
DEFAULT_255_2_778
10
30.2369494
20
16.1895908
40
2.3036952
50
269.9743685
51
279.77804
0
ARC
8
DEFAULT_255_2_778
10
30.2327006
20
16.1658026
40
2.2799091
50
247.6630835
51
270.0808754
0
ARC
8
DEFAULT_255_2_778
10
30.2648471
20
16.2157897
40
2.3383873
50
196.4429356
51
247.4000098
0
ARC
8
DEFAULT_255_2_778
10
30.3369104
20
16.2415307
40
2.4147933
50
179.9320196
51
196.5447236
0
LINE
8
DEFAULT_255_2_778
10
27.9221188
20
16.2443958
11
27.9221188
21
16.2443958
0
ARC
8
DEFAULT_255_2_778
10
50.7591381
20
23.6602283
40
1.0208018
50
144.5289726
51
180.186345
0
ARC
8
DEFAULT_255_2_778
10
50.7303304
20
23.6841558
40
0.9834595
50
90.9177492
51
144.6903439
0
ARC
8
DEFAULT_255_2_778
10
50.7300277
20
23.6663469
40
1.0012614
50
89.9991968
51
90.8841061
0
ARC
8
DEFAULT_255_2_778
10
50.7253582
20
23.6736791
40
0.9939402
50
11.5930041
51
89.7300188
0
ARC
8
DEFAULT_255_2_778
10
50.6811114
20
23.6576363
40
1.0405306
50
359.959912
51
11.96875
0
ARC
8
DEFAULT_255_2_778
10
50.7008049
20
23.6535922
40
1.0208422
50
324.5303151
51
0.1861191
0
ARC
8
DEFAULT_255_2_778
10
50.7297101
20
23.6295614
40
0.9833605
50
270.9201778
51
324.6933611
0
ARC
8
DEFAULT_255_2_778
10
50.7300557
20
23.6471073
40
1.000899
50
269.9991967
51
270.8842665
0
ARC
8
DEFAULT_255_2_778
10
50.7346568
20
23.6401765
40
0.9939789
50
191.5948408
51
269.733969
0
ARC
8
DEFAULT_255_2_778
10
50.778854
20
23.6561793
40
1.0405126
50
179.9598595
51
191.9689073
0
LINE
8
DEFAULT_255_2_778
10
49.7383417
20
23.6569083
11
49.7383417
21
23.6569083
0
ARC
8
DEFAULT_255_2_778
10
83.1824339
20
132.9898854
40
1.7115899
50
155.0008967
51
180.1233011
0
ARC
8
DEFAULT_255_2_778
10
83.1288242
20
133.0216785
40
1.6495784
50
94.7034315
51
155.2148158
0
ARC
8
DEFAULT_255_2_778
10
83.1235587
20
133.0115376
40
1.6592645
50
89.9934657
51
94.4935075
0
ARC
8
DEFAULT_255_2_778
10
83.1264667
20
133.044484
40
1.6263203
50
61.7925236
51
90.0957827
0
ARC
8
DEFAULT_255_2_778
10
83.0980271
20
133.0029142
40
1.6764045
50
13.6423562
51
61.6075002
0
ARC
8
DEFAULT_255_2_778
10
83.0460525
20
132.9877287
40
1.7304961
50
359.9494535
51
13.725074
0
ARC
8
DEFAULT_255_2_778
10
83.0649276
20
132.9825216
40
1.7116244
50
335.0013264
51
0.1232014
0
ARC
8
DEFAULT_255_2_778
10
83.1186051
20
132.9506689
40
1.6495262
50
274.7054237
51
335.2161493
0
ARC
8
DEFAULT_255_2_778
10
83.1239368
20
132.9605281
40
1.6589261
50
269.9934765
51
274.4939639
0
ARC
8
DEFAULT_255_2_778
10
83.1210174
20
132.9281376
40
1.6265379
50
241.7944507
51
270.096186
0
ARC
8
DEFAULT_255_2_778
10
83.1493432
20
132.9694956
40
1.6763813
50
193.6272601
51
241.6093724
0
ARC
8
DEFAULT_255_2_778
10
83.2013736
20
132.9846794
40
1.7305264
50
179.9495866
51
193.7099589
0
LINE
8
DEFAULT_255_2_778
10
81.470848
20
132.986202
11
81.470848
21
132.986202
0
ARC
8
DEFAULT_255_2_778
10
84.1590455
20
45.5605283
40
1.366073
50
151.0471373
51
180.1485108
0
ARC
8
DEFAULT_255_2_778
10
84.1176901
20
45.5887167
40
1.3162487
50
93.3751515
51
151.249359
0
ARC
8
DEFAULT_255_2_778
10
84.1149971
20
45.5749034
40
1.329884
50
89.996554
51
93.2242948
0
ARC
8
DEFAULT_255_2_778
10
84.1173091
20
45.6038895
40
1.3008998
50
56.1436499
51
90.0983048
0
ARC
8
DEFAULT_255_2_778
10
84.0905934
20
45.5682043
40
1.3454198
50
10.6075477
51
56.0454892
0
ARC
8
DEFAULT_255_2_778
10
84.046485
20
45.5577944
40
1.3906923
50
359.9667539
51
10.6945789
0
ARC
8
DEFAULT_255_2_778
10
84.0710039
20
45.553435
40
1.3661778
50
331.0501219
51
0.1489852
0
ARC
8
DEFAULT_255_2_778
10
84.1125406
20
45.5251724
40
1.316159
50
273.3724652
51
331.2514802
0
ARC
8
DEFAULT_255_2_778
10
84.1151575
20
45.5393991
40
1.3302116
50
269.9965391
51
273.2238983
0
ARC
8
DEFAULT_255_2_778
10
84.1128742
20
45.5100365
40
1.3008509
50
236.1429984
51
270.0970267
0
ARC
8
DEFAULT_255_2_778
10
84.1396299
20
45.5458486
40
1.3454985
50
190.6102993
51
236.0464612
0
ARC
8
DEFAULT_255_2_778
10
84.1834651
20
45.5561815
40
1.3904882
50
179.9667906
51
190.6962094
0
LINE
8
DEFAULT_255_2_778
10
82.7929771
20
45.5569875
11
82.7929771
21
45.5569875
0
LINE
8
DEFAULT_255_2_778
10
0.1562054
20
120.5410391
11
17.0824054
21
120.5410391
0
LINE
8
DEFAULT_255_2_778
10
17.0824054
20
120.5410391
11
17.0824054
21
11.2805391
0
LINE
8
DEFAULT_255_2_778
10
17.0824054
20
11.2805391
11
0.1562054
21
11.2805391
0
LINE
8
DEFAULT_255_2_778
10
0.1562054
20
11.2805391
11
0.1562054
21
120.5410391
0
LINE
8
DEFAULT_255_2_778
10
1.1661981
20
11.2804939
11
1.1661981
21
-0.1593061
0
LINE
8
DEFAULT_255_2_778
10
1.1661981
20
-0.1593061
11
81.1221981
21
-0.1593061
0
LINE
8
DEFAULT_255_2_778
10
81.1221981
20
-0.1593061
11
87.1189981
21
5.8639939
0
LINE
8
DEFAULT_255_2_778
10
87.1186981
20
5.8562939
11
87.1186981
21
136.8408939
0
LINE
8
DEFAULT_255_2_778
10
87.1186981
20
136.8408939
11
1.1661981
21
136.8408939
0
LINE
8
DEFAULT_255_2_778
10
1.1661981
20
136.8408939
11
1.1661981
21
120.5409939
0
LINE
8
DEFAULT_255_2_778
10
33.2109239
20
11.8641441
11
17.0803239
21
11.8641441
0
LINE
8
DEFAULT_255_2_778
10
17.0803239
20
11.8641441
11
17.0803239
21
135.5674441
0
LINE
8
DEFAULT_255_2_778
10
17.0803239
20
135.5674441
11
87.1563239
21
135.5674441
0
LINE
8
DEFAULT_255_2_778
10
43.7884239
20
11.8641441
11
87.1563239
21
11.8641441
0
LINE
8
DEFAULT_255_2_778
10
43.7883497
20
11.1902469
11
85.4372497
21
11.1902469
0
LINE
8
DEFAULT_255_2_778
10
85.4372497
20
11.1902469
11
87.1559497
21
11.8641469
0
LINE
8
DEFAULT_255_2_778
10
43.7883497
20
11.8641469
11
33.2108497
21
11.8641469
0
LINE
8
DEFAULT_255_2_778
10
33.2108497
20
11.1902469
11
33.2108497
21
11.8641469
0
LINE
8
DEFAULT_255_2_778
10
43.7884504
20
11.1902937
11
43.7884504
21
11.8641937
0
LINE
8
DEFAULT_255_2_778
10
43.7884504
20
10.5163937
11
43.7884504
21
11.1902937
0
LINE
8
DEFAULT_255_2_778
10
17.0803504
20
11.7898937
11
17.0803504
21
11.1902937
0
LINE
8
DEFAULT_255_2_778
10
17.0803504
20
11.1902937
11
33.2109504
21
11.1902937
0
LINE
8
DEFAULT_255_2_778
10
33.2109439
20
10.5164469
11
33.2109439
21
11.1903469
0
LINE
8
DEFAULT_255_2_778
10
43.7884439
20
10.5164469
11
33.2109439
21
10.5164469
0
LINE
8
DEFAULT_255_2_778
10
43.7883762
20
10.5163937
11
42.4662762
21
9.1685937
0
LINE
8
DEFAULT_255_2_778
10
42.4662762
20
9.1685937
11
34.5332762
21
9.1685937
0
LINE
8
DEFAULT_255_2_778
10
34.5332762
20
9.1685937
11
33.2111762
21
10.5163937
0
ENDSEC
0
EOF