0
SECTION
2
HEADER
9
$MEASUREMENT
70
1
0
ENDSEC
0
SECTION
2
TABLES
0
TABLE
2
LTYPE
0
LTYPE
72
65
70
64
2
CONTINUOUS
3
______
73
0
40
0
0
ENDTAB
0
TABLE
2
LAYER
0
LAYER
2
DEFAULT_255_2_778
70
0
62
255
6
CONTINUOUS
0
LAYER
2
DEFAULT_255_1_388
70
0
62
255
6
CONTINUOUS
0
ENDTAB
0
ENDSEC
0
SECTION
2
ENTITIES
0
ARC
8
DEFAULT_255_2_778
10
3.5700693
20
171.0552017
40
0.7914215
50
129.1312896
51
180.1450914
0
ARC
8
DEFAULT_255_2_778
10
3.5703345
20
171.0556888
40
0.7912112
50
89.854026
51
129.1684493
0
ARC
8
DEFAULT_255_2_778
10
25.7993937
20
171.0553754
40
0.7915249
50
39.4792447
51
90.147911
0
ARC
8
DEFAULT_255_2_778
10
25.7999935
20
171.055222
40
0.7911595
50
359.8533901
51
39.5154338
0
ARC
8
DEFAULT_255_2_778
10
25.7996693
20
-1.9863506
40
0.7914836
50
309.4761667
51
0.1482649
0
ARC
8
DEFAULT_255_2_778
10
25.799398
20
-1.9867816
40
0.7913235
50
269.8517415
51
309.511178
0
ARC
8
DEFAULT_255_2_778
10
3.570342
20
-1.9867235
40
0.7913815
50
219.1282118
51
270.1454017
0
ARC
8
DEFAULT_255_2_778
10
3.5700247
20
-1.986341
40
0.7913769
50
179.8524075
51
219.1641908
0
LINE
8
DEFAULT_255_2_778
10
3.5723503
20
171.8468976
11
25.7973503
21
171.8468976
0
LINE
8
DEFAULT_255_2_778
10
26.5911503
20
171.0531976
11
26.5911503
21
-1.9843024
0
LINE
8
DEFAULT_255_2_778
10
25.7973503
20
-2.7781024
11
3.5723503
21
-2.7781024
0
LINE
8
DEFAULT_255_2_778
10
2.7786503
20
-1.9843024
11
2.7786503
21
171.0531976
0
LINE
8
DEFAULT_255_1_388
10
9.5202215
20
0.1499153
11
9.5202215
21
0.1011229
0
LINE
8
DEFAULT_255_1_388
10
8.9103155
20
-0.6407036
11
8.8777872
21
-0.6407036
0
LINE
8
DEFAULT_255_1_388
10
8.8777872
20
-0.6407036
11
8.8777872
21
-0.4997475
0
LINE
8
DEFAULT_255_1_388
10
8.8777872
20
-0.4997475
11
8.9130262
21
-0.4997475
0
LINE
8
DEFAULT_255_1_388
10
9.3530621
20
0.117387
11
9.3530621
21
0.1842508
0
ARC
8
DEFAULT_255_1_388
10
9.0387713
20
0.2012877
40
0.4089973
50
297.4036461
51
320.0168133
0
ARC
8
DEFAULT_255_1_388
10
9.0713893
20
0.1386072
40
0.3383378
50
270.2631886
51
297.3852322
0
ARC
8
DEFAULT_255_1_388
10
9.0675569
20
0.1923343
40
0.3920983
50
269.9969069
51
270.7871389
0
ARC
8
DEFAULT_255_1_388
10
9.0646892
20
0.1905737
40
0.3903482
50
254.5997295
51
270.4178147
0
ARC
8
DEFAULT_255_1_388
10
9.0486424
20
0.1270693
40
0.3248657
50
236.4717231
51
254.3539376
0
ARC
8
DEFAULT_255_1_388
10
9.0662155
20
0.1506999
40
0.3542746
50
208.4727261
51
236.2134628
0
ARC
8
DEFAULT_255_1_388
10
9.1380919
20
0.1946676
40
0.4384402
50
204.3450776
51
209.0455365
0
ARC
8
DEFAULT_255_1_388
10
9.2145295
20
0.22708
40
0.5214459
50
183.9375459
51
204.1275509
0
ARC
8
DEFAULT_255_1_388
10
9.3167601
20
0.2380863
40
0.6242037
50
179.9652726
51
184.3010611
0
ARC
8
DEFAULT_255_1_388
10
9.2897146
20
0.2418004
40
0.5971675
50
166.7585952
51
180.3200491
0
ARC
8
DEFAULT_255_1_388
10
9.1944954
20
0.2624979
40
0.4997418
50
154.6954866
51
166.5679151
0
ARC
8
DEFAULT_255_1_388
10
9.0985194
20
0.3108411
40
0.3923208
50
136.3325251
51
155.0871367
0
ARC
8
DEFAULT_255_1_388
10
9.0669114
20
0.3379271
40
0.3507618
50
121.2365985
51
135.9680081
0
ARC
8
DEFAULT_255_1_388
10
9.0827178
20
0.3086541
40
0.3839917
50
96.8454764
51
120.9881329
0
ARC
8
DEFAULT_255_1_388
10
9.0990984
20
0.2033942
40
0.4904679
50
89.887204
51
97.2797758
0
ARC
8
DEFAULT_255_1_388
10
9.1049957
20
0.2751652
40
0.418725
50
70.6505767
51
90.6748382
0
ARC
8
DEFAULT_255_1_388
10
9.1197654
20
0.3329091
40
0.3593866
50
36.7493297
51
69.8220487
0
ARC
8
DEFAULT_255_1_388
10
9.0074001
20
0.2453446
40
0.5018201
50
15.3958155
51
37.0841102
0
ARC
8
DEFAULT_255_1_388
10
8.7678286
20
0.1755111
40
0.7513436
50
3.9487796
51
15.6798517
0
ARC
8
DEFAULT_255_1_388
10
8.4976928
20
0.151181
40
1.0225293
50
359.9290791
51
4.266464
0
ARC
8
DEFAULT_255_1_388
10
7.9795845
20
0.0936372
40
1.5406551
50
352.8365702
51
0.2783851
0
ARC
8
DEFAULT_255_1_388
10
8.5744076
20
0.0163664
40
0.9408425
50
341.8359339
51
352.9884057
0
ARC
8
DEFAULT_255_1_388
10
8.9365063
20
-0.1056856
40
0.5587481
50
322.8579243
51
342.1527461
0
ARC
8
DEFAULT_255_1_388
10
9.0336755
20
-0.171965
40
0.4413099
50
319.3348471
51
322.100194
0
ARC
8
DEFAULT_255_1_388
10
8.9988687
20
-0.1370186
40
0.4904992
50
285.954114
51
318.8878716
0
ARC
8
DEFAULT_255_1_388
10
8.9171124
20
0.1228865
40
0.7628991
50
272.9280841
51
286.4924389
0
ARC
8
DEFAULT_255_1_388
10
8.8957428
20
0.376324
40
1.017132
50
270.8209173
51
273.4010121
0
ARC
8
DEFAULT_255_1_388
10
8.9057451
20
0.1715073
40
0.6712943
50
270.6214576
51
281.4062333
0
ARC
8
DEFAULT_255_1_388
10
8.9541176
20
-0.059775
40
0.4350167
50
281.1852583
51
299.0622058
0
ARC
8
DEFAULT_255_1_388
10
8.9961421
20
-0.1408862
40
0.3437146
50
299.5068171
51
313.1200142
0
ARC
8
DEFAULT_255_1_388
10
8.9986158
20
-0.1498041
40
0.3355418
50
313.8525725
51
338.5989631
0
ARC
8
DEFAULT_255_1_388
10
8.8159286
20
-0.0747424
40
0.5330317
50
338.2523315
51
351.2431701
0
ARC
8
DEFAULT_255_1_388
10
8.5447037
20
-0.0286506
40
0.8081235
50
350.940933
51
357.6690137
0
ARC
8
DEFAULT_255_1_388
10
9.0948917
20
0.1966048
40
0.2581236
50
269.9447107
51
306.8249644
0
ARC
8
DEFAULT_255_1_388
10
9.0682219
20
0.244206
40
0.3122948
50
305.5071046
51
327.0773808
0
ARC
8
DEFAULT_255_1_388
10
9.0815271
20
0.2335445
40
0.2953369
50
327.4106457
51
336.8396801
0
ARC
8
DEFAULT_255_1_388
10
8.7334984
20
0.1878932
40
0.6195743
50
359.663158
51
10.1176387
0
ARC
8
DEFAULT_255_1_388
10
8.9307747
20
0.2243922
40
0.4189561
50
9.9431549
51
26.7699242
0
ARC
8
DEFAULT_255_1_388
10
8.9979733
20
0.2553796
40
0.3450125
50
27.2018067
51
34.6833639
0
ARC
8
DEFAULT_255_1_388
10
9.0530346
20
0.296756
40
0.2762035
50
34.124913
51
50.30709
0
ARC
8
DEFAULT_255_1_388
10
9.1032829
20
0.3568741
40
0.1978518
50
50.3850304
51
90.6705051
0
ARC
8
DEFAULT_255_1_388
10
9.0980223
20
0.3226074
40
0.2321235
50
89.2729817
51
111.9140267
0
ARC
8
DEFAULT_255_1_388
10
9.095831
20
0.3384308
40
0.2166604
50
112.9381864
51
142.5320936
0
ARC
8
DEFAULT_255_1_388
10
9.1572799
20
0.2885392
40
0.2957902
50
142.1024021
51
166.3835244
0
ARC
8
DEFAULT_255_1_388
10
9.2901769
20
0.2542213
40
0.4330361
50
166.1100968
51
178.6653563
0
ARC
8
DEFAULT_255_1_388
10
9.4083695
20
0.2476061
40
0.5513642
50
178.2641888
51
180.010994
0
ARC
8
DEFAULT_255_1_388
10
9.3178196
20
0.2444136
40
0.4608248
50
179.6162225
51
191.8786013
0
ARC
8
DEFAULT_255_1_388
10
9.1805506
20
0.214059
40
0.3202502
50
191.6192934
51
215.2970746
0
ARC
8
DEFAULT_255_1_388
10
9.1566161
20
0.1997963
40
0.2924827
50
215.7258926
51
216.5355437
0
ARC
8
DEFAULT_255_1_388
10
9.0977782
20
0.1524919
40
0.2170661
50
215.7486606
51
239.9728403
0
ARC
8
DEFAULT_255_1_388
10
9.0898947
20
0.1467838
40
0.208217
50
241.065081
51
269.280972
0
ARC
8
DEFAULT_255_1_388
10
9.0946106
20
0.2023327
40
0.2638514
50
268.4083352
51
270.0069622
0
LINE
8
DEFAULT_255_1_388
10
10.5755848
20
0.138169
11
10.5755848
21
-0.0786865
0
LINE
8
DEFAULT_255_1_388
10
9.745209
20
-0.1012756
11
9.745209
21
0.1219048
0
LINE
8
DEFAULT_255_1_388
10
10.4084253
20
-0.1238647
11
10.4084253
21
0.1499153
0
LINE
8
DEFAULT_255_1_388
10
9.9123685
20
0.1625652
11
9.9123685
21
-0.1048898
0
ARC
8
DEFAULT_255_1_388
10
9.1978182
20
-0.0841882
40
1.3777776
50
353.8440855
51
0.2287917
0
ARC
8
DEFAULT_255_1_388
10
9.7197199
20
-0.1424586
40
0.852639
50
344.4934746
51
353.9763743
0
ARC
8
DEFAULT_255_1_388
10
10.0564006
20
-0.2381809
40
0.5026273
50
329.2803599
51
344.7473406
0
ARC
8
DEFAULT_255_1_388
10
10.1679502
20
-0.2993962
40
0.3754848
50
324.9361395
51
328.6153007
0
ARC
8
DEFAULT_255_1_388
10
10.2105152
20
-0.3291414
40
0.3235566
50
280.5801797
51
324.9173226
0
ARC
8
DEFAULT_255_1_388
10
10.165378
20
-0.1411764
40
0.5167077
50
269.5979457
51
281.6732777
0
ARC
8
DEFAULT_255_1_388
10
10.1572684
20
-0.1546887
40
0.5032026
50
256.6228565
51
270.5105488
0
ARC
8
DEFAULT_255_1_388
10
10.1120427
20
-0.3288655
40
0.3233092
50
215.8618351
51
257.2787793
0
ARC
8
DEFAULT_255_1_388
10
10.2269134
20
-0.2517894
40
0.4615831
50
197.9695203
51
215.2622745
0
ARC
8
DEFAULT_255_1_388
10
10.5064809
20
-0.1574359
40
0.7566307
50
187.8816486
51
198.2346584
0
ARC
8
DEFAULT_255_1_388
10
10.9518048
20
-0.0931547
40
1.2065653
50
180.8977266
51
188.0054894
0
ARC
8
DEFAULT_255_1_388
10
11.2568261
20
-0.08166
40
1.5117443
50
180.7434591
51
181.152202
0
ARC
8
DEFAULT_255_1_388
10
11.0893257
20
0.1273371
40
1.3441277
50
173.7674302
51
180.2315596
0
ARC
8
DEFAULT_255_1_388
10
10.5811126
20
0.1847779
40
0.8326847
50
164.3058537
51
173.9000553
0
ARC
8
DEFAULT_255_1_388
10
10.2535126
20
0.2791652
40
0.4917711
50
148.7922028
51
164.5682288
0
ARC
8
DEFAULT_255_1_388
10
10.1465864
20
0.3388457
40
0.3694204
50
144.5883979
51
148.1161588
0
ARC
8
DEFAULT_255_1_388
10
10.1078609
20
0.3658667
40
0.322202
50
101.6440149
51
144.5142619
0
ARC
8
DEFAULT_255_1_388
10
10.1556801
20
0.1758337
40
0.5180451
50
89.528284
51
102.5820197
0
ARC
8
DEFAULT_255_1_388
10
10.1645793
20
0.1714376
40
0.5224441
50
77.0437914
51
90.508231
0
ARC
8
DEFAULT_255_1_388
10
10.2098047
20
0.3562272
40
0.3322297
50
48.2777708
51
77.4996087
0
ARC
8
DEFAULT_255_1_388
10
10.2179787
20
0.3707557
40
0.315966
50
36.3141586
51
47.6307332
0
ARC
8
DEFAULT_255_1_388
10
10.1202509
20
0.3049159
40
0.4337313
50
18.2931065
51
35.6770203
0
ARC
8
DEFAULT_255_1_388
10
9.834135
20
0.2067107
40
0.7362203
50
8.0246996
51
18.5605636
0
ARC
8
DEFAULT_255_1_388
10
9.3657705
20
0.1375432
40
1.2096583
50
1.127539
51
8.1718423
0
ARC
8
DEFAULT_255_1_388
10
9.0008839
20
0.1232374
40
1.5747719
50
0.5432713
51
1.38669
0
ARC
8
DEFAULT_255_1_388
10
9.2066217
20
0.1539163
40
1.2018103
50
359.8092569
51
4.9408001
0
ARC
8
DEFAULT_255_1_388
10
9.6802799
20
0.19619
40
0.7262727
50
4.8364937
51
12.2906017
0
ARC
8
DEFAULT_255_1_388
10
9.9902263
20
0.2652485
40
0.4087324
50
12.0806994
51
23.8171225
0
ARC
8
DEFAULT_255_1_388
10
10.1222659
20
0.3211508
40
0.2653719
50
24.2874621
51
31.3934353
0
ARC
8
DEFAULT_255_1_388
10
10.1813095
20
0.3597822
40
0.1948607
50
30.7407708
51
82.4658033
0
ARC
8
DEFAULT_255_1_388
10
10.1610756
20
0.2604017
40
0.2961198
50
81.1057101
51
90.2187368
0
ARC
8
DEFAULT_255_1_388
10
10.1570568
20
0.2894421
40
0.2670929
50
89.380395
51
105.6763916
0
ARC
8
DEFAULT_255_1_388
10
10.136429
20
0.364432
40
0.1893189
50
105.7980655
51
149.7387869
0
ARC
8
DEFAULT_255_1_388
10
10.256143
20
0.2924719
40
0.3289892
50
149.4208441
51
163.628295
0
ARC
8
DEFAULT_255_1_388
10
10.491366
20
0.2207345
40
0.5749004
50
163.3764549
51
172.141138
0
ARC
8
DEFAULT_255_1_388
10
10.8626381
20
0.1675582
40
0.9499585
50
172.0258462
51
178.0705453
0
ARC
8
DEFAULT_255_1_388
10
11.2047934
20
0.1513682
40
1.2924734
50
177.8639301
51
179.5036263
0
ARC
8
DEFAULT_255_1_388
10
11.0828953
20
-0.1089849
40
1.170534
50
179.7995545
51
185.246089
0
ARC
8
DEFAULT_255_1_388
10
10.6280546
20
-0.1520596
40
0.7136613
50
185.1411911
51
193.0082205
0
ARC
8
DEFAULT_255_1_388
10
10.3306806
20
-0.2223559
40
0.4080987
50
192.7897338
51
205.2507384
0
ARC
8
DEFAULT_255_1_388
10
10.2129016
20
-0.2749462
40
0.2791522
50
205.8001921
51
211.2545876
0
ARC
8
DEFAULT_255_1_388
10
10.1540555
20
-0.3143868
40
0.2084074
50
210.3789935
51
238.4007996
0
ARC
8
DEFAULT_255_1_388
10
10.1518641
20
-0.3091214
40
0.2117943
50
239.6521916
51
265.9793852
0
ARC
8
DEFAULT_255_1_388
10
10.161449
20
-0.2334642
40
0.2879689
50
265.1324455
51
270.0603288
0
ARC
8
DEFAULT_255_1_388
10
10.1646867
20
-0.2699582
40
0.2514919
50
269.3314378
51
287.2180039
0
ARC
8
DEFAULT_255_1_388
10
10.180195
20
-0.3265709
40
0.1928357
50
287.7957942
51
329.0808983
0
ARC
8
DEFAULT_255_1_388
10
10.0724707
20
-0.2593349
40
0.319808
50
328.6635261
51
343.3325043
0
ARC
8
DEFAULT_255_1_388
10
9.8280165
20
-0.1831805
40
0.5758408
50
343.0498092
51
351.9392499
0
ARC
8
DEFAULT_255_1_388
10
9.4379487
20
-0.1256795
40
0.9701202
50
351.8071632
51
357.7957897
0
ARC
8
DEFAULT_255_1_388
10
9.0744964
20
-0.1068276
40
1.3340376
50
357.5870923
51
359.2682493
0
LINE
8
DEFAULT_255_1_388
10
11.6146839
20
0.138169
11
11.6146839
21
-0.0786865
0
LINE
8
DEFAULT_255_1_388
10
10.7843082
20
-0.1012756
11
10.7843082
21
0.1219048
0
LINE
8
DEFAULT_255_1_388
10
11.4475245
20
-0.1238647
11
11.4475245
21
0.1499153
0
LINE
8
DEFAULT_255_1_388
10
10.9514676
20
0.1625652
11
10.9514676
21
-0.1048898
0
ARC
8
DEFAULT_255_1_388
10
10.2369173
20
-0.0841882
40
1.3777776
50
353.8440855
51
0.2287917
0
ARC
8
DEFAULT_255_1_388
10
10.758819
20
-0.1424586
40
0.852639
50
344.4934746
51
353.9763743
0
ARC
8
DEFAULT_255_1_388
10
11.0954997
20
-0.2381809
40
0.5026273
50
329.2803599
51
344.7473406
0
ARC
8
DEFAULT_255_1_388
10
11.2070493
20
-0.2993962
40
0.3754848
50
324.9361395
51
328.6153007
0
ARC
8
DEFAULT_255_1_388
10
11.2496143
20
-0.3291414
40
0.3235566
50
280.5801797
51
324.9173226
0
ARC
8
DEFAULT_255_1_388
10
11.2044772
20
-0.1411764
40
0.5167077
50
269.5979457
51
281.6732777
0
ARC
8
DEFAULT_255_1_388
10
11.1963675
20
-0.1546887
40
0.5032026
50
256.6228565
51
270.5105488
0
ARC
8
DEFAULT_255_1_388
10
11.1511418
20
-0.3288655
40
0.3233092
50
215.8618351
51
257.2787793
0
ARC
8
DEFAULT_255_1_388
10
11.2660125
20
-0.2517894
40
0.4615831
50
197.9695203
51
215.2622745
0
ARC
8
DEFAULT_255_1_388
10
11.5455801
20
-0.1574359
40
0.7566307
50
187.8816486
51
198.2346584
0
ARC
8
DEFAULT_255_1_388
10
11.9909039
20
-0.0931547
40
1.2065653
50
180.8977266
51
188.0054894
0
ARC
8
DEFAULT_255_1_388
10
12.2959252
20
-0.08166
40
1.5117443
50
180.7434591
51
181.152202
0
ARC
8
DEFAULT_255_1_388
10
12.1284248
20
0.1273371
40
1.3441277
50
173.7674302
51
180.2315596
0
ARC
8
DEFAULT_255_1_388
10
11.6202117
20
0.1847779
40
0.8326847
50
164.3058537
51
173.9000553
0
ARC
8
DEFAULT_255_1_388
10
11.2926117
20
0.2791652
40
0.4917711
50
148.7922028
51
164.5682288
0
ARC
8
DEFAULT_255_1_388
10
11.1856855
20
0.3388457
40
0.3694204
50
144.5883979
51
148.1161588
0
ARC
8
DEFAULT_255_1_388
10
11.14696
20
0.3658667
40
0.322202
50
101.6440149
51
144.5142619
0
ARC
8
DEFAULT_255_1_388
10
11.1947792
20
0.1758337
40
0.5180451
50
89.528284
51
102.5820197
0
ARC
8
DEFAULT_255_1_388
10
11.2036784
20
0.1714376
40
0.5224441
50
77.0437914
51
90.508231
0
ARC
8
DEFAULT_255_1_388
10
11.2489038
20
0.3562272
40
0.3322297
50
48.2777708
51
77.4996087
0
ARC
8
DEFAULT_255_1_388
10
11.2570778
20
0.3707557
40
0.315966
50
36.3141586
51
47.6307332
0
ARC
8
DEFAULT_255_1_388
10
11.15935
20
0.3049159
40
0.4337313
50
18.2931065
51
35.6770203
0
ARC
8
DEFAULT_255_1_388
10
10.8732341
20
0.2067107
40
0.7362203
50
8.0246996
51
18.5605636
0
ARC
8
DEFAULT_255_1_388
10
10.4048696
20
0.1375432
40
1.2096583
50
1.127539
51
8.1718423
0
ARC
8
DEFAULT_255_1_388
10
10.039983
20
0.1232374
40
1.5747719
50
0.5432713
51
1.38669
0
ARC
8
DEFAULT_255_1_388
10
10.2457208
20
0.1539163
40
1.2018103
50
359.8092569
51
4.9408001
0
ARC
8
DEFAULT_255_1_388
10
10.719379
20
0.19619
40
0.7262727
50
4.8364937
51
12.2906017
0
ARC
8
DEFAULT_255_1_388
10
11.0293255
20
0.2652485
40
0.4087324
50
12.0806994
51
23.8171225
0
ARC
8
DEFAULT_255_1_388
10
11.1613651
20
0.3211508
40
0.2653719
50
24.2874621
51
31.3934353
0
ARC
8
DEFAULT_255_1_388
10
11.2204086
20
0.3597822
40
0.1948607
50
30.7407708
51
82.4658033
0
ARC
8
DEFAULT_255_1_388
10
11.2001747
20
0.2604017
40
0.2961198
50
81.1057101
51
90.2187368
0
ARC
8
DEFAULT_255_1_388
10
11.1961559
20
0.2894421
40
0.2670929
50
89.380395
51
105.6763916
0
ARC
8
DEFAULT_255_1_388
10
11.1755281
20
0.364432
40
0.1893189
50
105.7980655
51
149.7387869
0
ARC
8
DEFAULT_255_1_388
10
11.2952421
20
0.2924719
40
0.3289892
50
149.4208441
51
163.628295
0
ARC
8
DEFAULT_255_1_388
10
11.5304651
20
0.2207345
40
0.5749004
50
163.3764549
51
172.141138
0
ARC
8
DEFAULT_255_1_388
10
11.9017372
20
0.1675582
40
0.9499585
50
172.0258462
51
178.0705453
0
ARC
8
DEFAULT_255_1_388
10
12.2438925
20
0.1513682
40
1.2924734
50
177.8639301
51
179.5036263
0
ARC
8
DEFAULT_255_1_388
10
12.1219944
20
-0.1089849
40
1.170534
50
179.7995545
51
185.246089
0
ARC
8
DEFAULT_255_1_388
10
11.6671537
20
-0.1520596
40
0.7136613
50
185.1411911
51
193.0082205
0
ARC
8
DEFAULT_255_1_388
10
11.3697798
20
-0.2223559
40
0.4080987
50
192.7897338
51
205.2507384
0
ARC
8
DEFAULT_255_1_388
10
11.2520007
20
-0.2749462
40
0.2791522
50
205.8001921
51
211.2545876
0
ARC
8
DEFAULT_255_1_388
10
11.1931547
20
-0.3143868
40
0.2084074
50
210.3789935
51
238.4007996
0
ARC
8
DEFAULT_255_1_388
10
11.1909633
20
-0.3091214
40
0.2117943
50
239.6521916
51
265.9793852
0
ARC
8
DEFAULT_255_1_388
10
11.2005482
20
-0.2334642
40
0.2879689
50
265.1324455
51
270.0603288
0
ARC
8
DEFAULT_255_1_388
10
11.2037859
20
-0.2699582
40
0.2514919
50
269.3314378
51
287.2180039
0
ARC
8
DEFAULT_255_1_388
10
11.2192941
20
-0.3265709
40
0.1928357
50
287.7957942
51
329.0808983
0
ARC
8
DEFAULT_255_1_388
10
11.1115698
20
-0.2593349
40
0.319808
50
328.6635261
51
343.3325043
0
ARC
8
DEFAULT_255_1_388
10
10.8671157
20
-0.1831805
40
0.5758408
50
343.0498092
51
351.9392499
0
ARC
8
DEFAULT_255_1_388
10
10.4770478
20
-0.1256795
40
0.9701202
50
351.8071632
51
357.7957897
0
ARC
8
DEFAULT_255_1_388
10
10.1135955
20
-0.1068276
40
1.3340376
50
357.5870923
51
359.2682493
0
LINE
8
DEFAULT_255_1_388
10
12.8435315
20
0.0152842
11
12.8435315
21
-0.4672192
0
LINE
8
DEFAULT_255_1_388
10
11.8297322
20
-0.0452546
11
11.8297322
21
0.0694981
0
LINE
8
DEFAULT_255_1_388
10
12.8435315
20
0.2899678
11
12.6700472
21
0.2899678
0
LINE
8
DEFAULT_255_1_388
10
12.0041202
20
0.0740159
11
12.0041202
21
-0.0335083
0
LINE
8
DEFAULT_255_1_388
10
12.6709507
20
-0.4211374
11
12.6709507
21
-0.1256718
0
LINE
8
DEFAULT_255_1_388
10
12.6709507
20
-0.1256718
11
12.3664495
21
-0.1256718
0
LINE
8
DEFAULT_255_1_388
10
12.3664495
20
-0.1256718
11
12.3664495
21
0.0152842
0
LINE
8
DEFAULT_255_1_388
10
12.3664495
20
0.0152842
11
12.8435315
21
0.0152842
0
ARC
8
DEFAULT_255_1_388
10
12.5249916
20
-0.2429716
40
0.3895571
50
295.8437277
51
324.8549962
0
ARC
8
DEFAULT_255_1_388
10
12.4782298
20
-0.1583381
40
0.4861381
50
291.5691164
51
296.4556269
0
ARC
8
DEFAULT_255_1_388
10
12.4207301
20
-0.0047199
40
0.6501442
50
278.6622213
51
291.3047061
0
ARC
8
DEFAULT_255_1_388
10
12.3825333
20
0.2369557
40
0.8948168
50
270.0200506
51
278.7494673
0
ARC
8
DEFAULT_255_1_388
10
12.3781537
20
0.4215453
40
1.0794166
50
270.0022372
51
270.2490917
0
ARC
8
DEFAULT_255_1_388
10
12.3739429
20
-0.0743173
40
0.5835695
50
253.5785313
51
270.4175629
0
ARC
8
DEFAULT_255_1_388
10
12.3544425
20
-0.1498375
40
0.5056241
50
238.8203954
51
253.2788387
0
ARC
8
DEFAULT_255_1_388
10
12.3522341
20
-0.1555776
40
0.4995712
50
206.7883476
51
238.696262
0
ARC
8
DEFAULT_255_1_388
10
12.4397737
20
-0.1031153
40
0.6014056
50
206.1137778
51
207.4912776
0
ARC
8
DEFAULT_255_1_388
10
12.5064573
20
-0.0747716
40
0.6737692
50
188.6922336
51
205.782076
0
ARC
8
DEFAULT_255_1_388
10
12.7152932
20
-0.0392545
40
0.8855812
50
180.3881972
51
188.9218085
0
ARC
8
DEFAULT_255_1_388
10
12.8534089
20
0.0758622
40
1.0236965
50
170.2024645
51
180.3561986
0
ARC
8
DEFAULT_255_1_388
10
12.497524
20
0.1395101
40
0.6621746
50
154.2856519
51
170.3893388
0
ARC
8
DEFAULT_255_1_388
10
12.3533203
20
0.2055192
40
0.5036209
50
139.8400879
51
153.9334639
0
ARC
8
DEFAULT_255_1_388
10
12.3129107
20
0.2378716
40
0.4518751
50
98.4190017
51
139.6707015
0
ARC
8
DEFAULT_255_1_388
10
12.3556074
20
0.0302755
40
0.6635912
50
89.7660128
51
99.4415389
0
ARC
8
DEFAULT_255_1_388
10
12.3629471
20
0.0376517
40
0.6562258
50
78.0552044
51
90.4042252
0
ARC
8
DEFAULT_255_1_388
10
12.4084534
20
0.2422661
40
0.4466287
50
54.6380186
51
78.3338577
0
ARC
8
DEFAULT_255_1_388
10
12.4298833
20
0.2783444
40
0.4048184
50
50.0313964
51
54.1562739
0
ARC
8
DEFAULT_255_1_388
10
12.4177726
20
0.2674798
40
0.4209308
50
18.1092229
51
49.7179911
0
ARC
8
DEFAULT_255_1_388
10
12.2538807
20
0.2074399
40
0.5953982
50
7.967396
51
18.698492
0
ARC
8
DEFAULT_255_1_388
10
12.2708068
20
0.2213236
40
0.4050986
50
9.7558763
51
27.3214087
0
ARC
8
DEFAULT_255_1_388
10
12.3976532
20
0.2847087
40
0.2633168
50
27.736147
51
84.5257861
0
ARC
8
DEFAULT_255_1_388
10
12.3607942
20
0.0997988
40
0.4513019
50
82.1064239
51
90.1997295
0
ARC
8
DEFAULT_255_1_388
10
12.3551958
20
0.1569501
40
0.3941684
50
89.4148952
51
105.5824837
0
ARC
8
DEFAULT_255_1_388
10
12.3262839
20
0.2622043
40
0.2850167
50
105.6678541
51
144.2649156
0
ARC
8
DEFAULT_255_1_388
10
12.4267731
20
0.1907024
40
0.4083468
50
144.3560675
51
162.8564185
0
ARC
8
DEFAULT_255_1_388
10
12.6612174
20
0.1154083
40
0.6545749
50
162.6076338
51
173.6779811
0
ARC
8
DEFAULT_255_1_388
10
13.0056289
20
0.0735422
40
1.0015089
50
173.4670996
51
179.9729015
0
ARC
8
DEFAULT_255_1_388
10
12.790916
20
-0.0382364
40
0.78681
50
179.6556955
51
190.007958
0
ARC
8
DEFAULT_255_1_388
10
12.5303441
20
-0.086034
40
0.5218997
50
189.8117884
51
206.6795375
0
ARC
8
DEFAULT_255_1_388
10
12.4352887
20
-0.1303486
40
0.4170788
50
207.1031171
51
217.7074698
0
ARC
8
DEFAULT_255_1_388
10
12.3639318
20
-0.1924404
40
0.3226945
50
216.7345117
51
265.6812141
0
ARC
8
DEFAULT_255_1_388
10
12.378646
20
-0.090697
40
0.4253149
50
264.7367524
51
270.0610826
0
ARC
8
DEFAULT_255_1_388
10
12.3812645
20
0.2288173
40
0.7448321
50
269.8334494
51
276.0538364
0
ARC
8
DEFAULT_255_1_388
10
12.4045508
20
0.0148924
40
0.5296446
50
275.9894423
51
284.4615914
0
ARC
8
DEFAULT_255_1_388
10
12.4267021
20
-0.078343
40
0.4338353
50
284.7038488
51
286.4938196
0
ARC
8
DEFAULT_255_1_388
10
12.472617
20
-0.2262629
40
0.2789738
50
286.0770429
51
304.2629628
0
ARC
8
DEFAULT_255_1_388
10
12.4876328
20
-0.250832
40
0.2502188
50
304.5886247
51
317.1074126
0
LINE
8
DEFAULT_255_1_388
10
13.9142554
20
0.138169
11
13.9142554
21
-0.0786865
0
LINE
8
DEFAULT_255_1_388
10
13.0838797
20
-0.1012756
11
13.0838797
21
0.1219048
0
LINE
8
DEFAULT_255_1_388
10
13.747096
20
-0.1238647
11
13.747096
21
0.1499153
0
LINE
8
DEFAULT_255_1_388
10
13.2510391
20
0.1625652
11
13.2510391
21
-0.1048898
0
ARC
8
DEFAULT_255_1_388
10
12.5364888
20
-0.0841882
40
1.3777776
50
353.8440855
51
0.2287917
0
ARC
8
DEFAULT_255_1_388
10
13.0583906
20
-0.1424586
40
0.852639
50
344.4934746
51
353.9763743
0
ARC
8
DEFAULT_255_1_388
10
13.3950713
20
-0.2381809
40
0.5026273
50
329.2803599
51
344.7473406
0
ARC
8
DEFAULT_255_1_388
10
13.5066208
20
-0.2993962
40
0.3754848
50
324.9361395
51
328.6153007
0
ARC
8
DEFAULT_255_1_388
10
13.5491858
20
-0.3291414
40
0.3235566
50
280.5801797
51
324.9173226
0
ARC
8
DEFAULT_255_1_388
10
13.5040487
20
-0.1411764
40
0.5167077
50
269.5979457
51
281.6732777
0
ARC
8
DEFAULT_255_1_388
10
13.495939
20
-0.1546887
40
0.5032026
50
256.6228565
51
270.5105488
0
ARC
8
DEFAULT_255_1_388
10
13.4507133
20
-0.3288655
40
0.3233092
50
215.8618351
51
257.2787793
0
ARC
8
DEFAULT_255_1_388
10
13.565584
20
-0.2517894
40
0.4615831
50
197.9695203
51
215.2622745
0
ARC
8
DEFAULT_255_1_388
10
13.8451516
20
-0.1574359
40
0.7566307
50
187.8816486
51
198.2346584
0
ARC
8
DEFAULT_255_1_388
10
14.2904754
20
-0.0931547
40
1.2065653
50
180.8977266
51
188.0054894
0
ARC
8
DEFAULT_255_1_388
10
14.5954968
20
-0.08166
40
1.5117443
50
180.7434591
51
181.152202
0
ARC
8
DEFAULT_255_1_388
10
14.4279964
20
0.1273371
40
1.3441277
50
173.7674302
51
180.2315596
0
ARC
8
DEFAULT_255_1_388
10
13.9197833
20
0.1847779
40
0.8326847
50
164.3058537
51
173.9000553
0
ARC
8
DEFAULT_255_1_388
10
13.5921833
20
0.2791652
40
0.4917711
50
148.7922028
51
164.5682288
0
ARC
8
DEFAULT_255_1_388
10
13.485257
20
0.3388457
40
0.3694204
50
144.5883979
51
148.1161588
0
ARC
8
DEFAULT_255_1_388
10
13.4465315
20
0.3658667
40
0.322202
50
101.6440149
51
144.5142619
0
ARC
8
DEFAULT_255_1_388
10
13.4943508
20
0.1758337
40
0.5180451
50
89.528284
51
102.5820197
0
ARC
8
DEFAULT_255_1_388
10
13.5032499
20
0.1714376
40
0.5224441
50
77.0437914
51
90.508231
0
ARC
8
DEFAULT_255_1_388
10
13.5484753
20
0.3562272
40
0.3322297
50
48.2777708
51
77.4996087
0
ARC
8
DEFAULT_255_1_388
10
13.5566493
20
0.3707557
40
0.315966
50
36.3141586
51
47.6307332
0
ARC
8
DEFAULT_255_1_388
10
13.4589215
20
0.3049159
40
0.4337313
50
18.2931065
51
35.6770203
0
ARC
8
DEFAULT_255_1_388
10
13.1728056
20
0.2067107
40
0.7362203
50
8.0246996
51
18.5605636
0
ARC
8
DEFAULT_255_1_388
10
12.7044412
20
0.1375432
40
1.2096583
50
1.127539
51
8.1718423
0
ARC
8
DEFAULT_255_1_388
10
12.3395545
20
0.1232374
40
1.5747719
50
0.5432713
51
1.38669
0
ARC
8
DEFAULT_255_1_388
10
12.5452924
20
0.1539163
40
1.2018103
50
359.8092569
51
4.9408001
0
ARC
8
DEFAULT_255_1_388
10
13.0189505
20
0.19619
40
0.7262727
50
4.8364937
51
12.2906017
0
ARC
8
DEFAULT_255_1_388
10
13.328897
20
0.2652485
40
0.4087324
50
12.0806994
51
23.8171225
0
ARC
8
DEFAULT_255_1_388
10
13.4609366
20
0.3211508
40
0.2653719
50
24.2874621
51
31.3934353
0
ARC
8
DEFAULT_255_1_388
10
13.5199802
20
0.3597822
40
0.1948607
50
30.7407708
51
82.4658033
0
ARC
8
DEFAULT_255_1_388
10
13.4997463
20
0.2604017
40
0.2961198
50
81.1057101
51
90.2187368
0
ARC
8
DEFAULT_255_1_388
10
13.4957274
20
0.2894421
40
0.2670929
50
89.380395
51
105.6763916
0
ARC
8
DEFAULT_255_1_388
10
13.4750996
20
0.364432
40
0.1893189
50
105.7980655
51
149.7387869
0
ARC
8
DEFAULT_255_1_388
10
13.5948136
20
0.2924719
40
0.3289892
50
149.4208441
51
163.628295
0
ARC
8
DEFAULT_255_1_388
10
13.8300366
20
0.2207345
40
0.5749004
50
163.3764549
51
172.141138
0
ARC
8
DEFAULT_255_1_388
10
14.2013088
20
0.1675582
40
0.9499585
50
172.0258462
51
178.0705453
0
ARC
8
DEFAULT_255_1_388
10
14.543464
20
0.1513682
40
1.2924734
50
177.8639301
51
179.5036263
0
ARC
8
DEFAULT_255_1_388
10
14.4215659
20
-0.1089849
40
1.170534
50
179.7995545
51
185.246089
0
ARC
8
DEFAULT_255_1_388
10
13.9667252
20
-0.1520596
40
0.7136613
50
185.1411911
51
193.0082205
0
ARC
8
DEFAULT_255_1_388
10
13.6693513
20
-0.2223559
40
0.4080987
50
192.7897338
51
205.2507384
0
ARC
8
DEFAULT_255_1_388
10
13.5515723
20
-0.2749462
40
0.2791522
50
205.8001921
51
211.2545876
0
ARC
8
DEFAULT_255_1_388
10
13.4927262
20
-0.3143868
40
0.2084074
50
210.3789935
51
238.4007996
0
ARC
8
DEFAULT_255_1_388
10
13.4905348
20
-0.3091214
40
0.2117943
50
239.6521916
51
265.9793852
0
ARC
8
DEFAULT_255_1_388
10
13.5001197
20
-0.2334642
40
0.2879689
50
265.1324455
51
270.0603288
0
ARC
8
DEFAULT_255_1_388
10
13.5033574
20
-0.2699582
40
0.2514919
50
269.3314378
51
287.2180039
0
ARC
8
DEFAULT_255_1_388
10
13.5188656
20
-0.3265709
40
0.1928357
50
287.7957942
51
329.0808983
0
ARC
8
DEFAULT_255_1_388
10
13.4111413
20
-0.2593349
40
0.319808
50
328.6635261
51
343.3325043
0
ARC
8
DEFAULT_255_1_388
10
13.1666872
20
-0.1831805
40
0.5758408
50
343.0498092
51
351.9392499
0
ARC
8
DEFAULT_255_1_388
10
12.7766193
20
-0.1256795
40
0.9701202
50
351.8071632
51
357.7957897
0
ARC
8
DEFAULT_255_1_388
10
12.413167
20
-0.1068276
40
1.3340376
50
357.5870923
51
359.2682493
0
LINE
8
DEFAULT_255_1_388
10
14.6777674
20
0.6821148
11
14.6777674
21
-0.6398
0
LINE
8
DEFAULT_255_1_388
10
14.6777674
20
-0.6398
11
14.5097044
21
-0.6398
0
LINE
8
DEFAULT_255_1_388
10
14.5097044
20
-0.6398
11
14.5097044
21
0.474295
0
LINE
8
DEFAULT_255_1_388
10
14.5097044
20
0.474295
11
14.1726749
21
0.3505066
0
LINE
8
DEFAULT_255_1_388
10
14.1726749
20
0.3505066
11
14.1726749
21
0.5023055
0
LINE
8
DEFAULT_255_1_388
10
14.1726749
20
0.5023055
11
14.651564
21
0.6821148
0
LINE
8
DEFAULT_255_1_388
10
14.651564
20
0.6821148
11
14.6777674
21
0.6821148
0
LINE
8
DEFAULT_255_1_388
10
15.5325394
20
-0.0127263
11
15.5325394
21
-0.1491645
0
LINE
8
DEFAULT_255_1_388
10
15.5325394
20
-0.1491645
11
15.0915999
21
-0.1491645
0
LINE
8
DEFAULT_255_1_388
10
15.0915999
20
-0.1491645
11
15.0915999
21
-0.0127263
0
LINE
8
DEFAULT_255_1_388
10
15.0915999
20
-0.0127263
11
15.5325394
21
-0.0127263
0
LINE
8
DEFAULT_255_1_388
10
16.5029676
20
0.138169
11
16.5029676
21
-0.0786865
0
LINE
8
DEFAULT_255_1_388
10
15.6725918
20
-0.1012756
11
15.6725918
21
0.1219048
0
LINE
8
DEFAULT_255_1_388
10
16.3358082
20
-0.1238647
11
16.3358082
21
0.1499153
0
LINE
8
DEFAULT_255_1_388
10
15.8397513
20
0.1625652
11
15.8397513
21
-0.1048898
0
ARC
8
DEFAULT_255_1_388
10
15.125201
20
-0.0841882
40
1.3777776
50
353.8440855
51
0.2287917
0
ARC
8
DEFAULT_255_1_388
10
15.6471027
20
-0.1424586
40
0.852639
50
344.4934746
51
353.9763743
0
ARC
8
DEFAULT_255_1_388
10
15.9837834
20
-0.2381809
40
0.5026273
50
329.2803599
51
344.7473406
0
ARC
8
DEFAULT_255_1_388
10
16.095333
20
-0.2993962
40
0.3754848
50
324.9361395
51
328.6153007
0
ARC
8
DEFAULT_255_1_388
10
16.137898
20
-0.3291414
40
0.3235566
50
280.5801797
51
324.9173226
0
ARC
8
DEFAULT_255_1_388
10
16.0927609
20
-0.1411764
40
0.5167077
50
269.5979457
51
281.6732777
0
ARC
8
DEFAULT_255_1_388
10
16.0846512
20
-0.1546887
40
0.5032026
50
256.6228565
51
270.5105488
0
ARC
8
DEFAULT_255_1_388
10
16.0394255
20
-0.3288655
40
0.3233092
50
215.8618351
51
257.2787793
0
ARC
8
DEFAULT_255_1_388
10
16.1542962
20
-0.2517894
40
0.4615831
50
197.9695203
51
215.2622745
0
ARC
8
DEFAULT_255_1_388
10
16.4338637
20
-0.1574359
40
0.7566307
50
187.8816486
51
198.2346584
0
ARC
8
DEFAULT_255_1_388
10
16.8791876
20
-0.0931547
40
1.2065653
50
180.8977266
51
188.0054894
0
ARC
8
DEFAULT_255_1_388
10
17.1842089
20
-0.08166
40
1.5117443
50
180.7434591
51
181.152202
0
ARC
8
DEFAULT_255_1_388
10
17.0167085
20
0.1273371
40
1.3441277
50
173.7674302
51
180.2315596
0
ARC
8
DEFAULT_255_1_388
10
16.5084954
20
0.1847779
40
0.8326847
50
164.3058537
51
173.9000553
0
ARC
8
DEFAULT_255_1_388
10
16.1808954
20
0.2791652
40
0.4917711
50
148.7922028
51
164.5682288
0
ARC
8
DEFAULT_255_1_388
10
16.0739692
20
0.3388457
40
0.3694204
50
144.5883979
51
148.1161588
0
ARC
8
DEFAULT_255_1_388
10
16.0352437
20
0.3658667
40
0.322202
50
101.6440149
51
144.5142619
0
ARC
8
DEFAULT_255_1_388
10
16.0830629
20
0.1758337
40
0.5180451
50
89.528284
51
102.5820197
0
ARC
8
DEFAULT_255_1_388
10
16.0919621
20
0.1714376
40
0.5224441
50
77.0437914
51
90.508231
0
ARC
8
DEFAULT_255_1_388
10
16.1371875
20
0.3562272
40
0.3322297
50
48.2777708
51
77.4996087
0
ARC
8
DEFAULT_255_1_388
10
16.1453615
20
0.3707557
40
0.315966
50
36.3141586
51
47.6307332
0
ARC
8
DEFAULT_255_1_388
10
16.0476337
20
0.3049159
40
0.4337313
50
18.2931065
51
35.6770203
0
ARC
8
DEFAULT_255_1_388
10
15.7615178
20
0.2067107
40
0.7362203
50
8.0246996
51
18.5605636
0
ARC
8
DEFAULT_255_1_388
10
15.2931533
20
0.1375432
40
1.2096583
50
1.127539
51
8.1718423
0
ARC
8
DEFAULT_255_1_388
10
14.9282667
20
0.1232374
40
1.5747719
50
0.5432713
51
1.38669
0
ARC
8
DEFAULT_255_1_388
10
15.1340045
20
0.1539163
40
1.2018103
50
359.8092569
51
4.9408001
0
ARC
8
DEFAULT_255_1_388
10
15.6076627
20
0.19619
40
0.7262727
50
4.8364937
51
12.2906017
0
ARC
8
DEFAULT_255_1_388
10
15.9176091
20
0.2652485
40
0.4087324
50
12.0806994
51
23.8171225
0
ARC
8
DEFAULT_255_1_388
10
16.0496487
20
0.3211508
40
0.2653719
50
24.2874621
51
31.3934353
0
ARC
8
DEFAULT_255_1_388
10
16.1086923
20
0.3597822
40
0.1948607
50
30.7407708
51
82.4658033
0
ARC
8
DEFAULT_255_1_388
10
16.0884584
20
0.2604017
40
0.2961198
50
81.1057101
51
90.2187368
0
ARC
8
DEFAULT_255_1_388
10
16.0844396
20
0.2894421
40
0.2670929
50
89.380395
51
105.6763916
0
ARC
8
DEFAULT_255_1_388
10
16.0638118
20
0.364432
40
0.1893189
50
105.7980655
51
149.7387869
0
ARC
8
DEFAULT_255_1_388
10
16.1835258
20
0.2924719
40
0.3289892
50
149.4208441
51
163.628295
0
ARC
8
DEFAULT_255_1_388
10
16.4187488
20
0.2207345
40
0.5749004
50
163.3764549
51
172.141138
0
ARC
8
DEFAULT_255_1_388
10
16.7900209
20
0.1675582
40
0.9499585
50
172.0258462
51
178.0705453
0
ARC
8
DEFAULT_255_1_388
10
17.1321762
20
0.1513682
40
1.2924734
50
177.8639301
51
179.5036263
0
ARC
8
DEFAULT_255_1_388
10
17.0102781
20
-0.1089849
40
1.170534
50
179.7995545
51
185.246089
0
ARC
8
DEFAULT_255_1_388
10
16.5554374
20
-0.1520596
40
0.7136613
50
185.1411911
51
193.0082205
0
ARC
8
DEFAULT_255_1_388
10
16.2580634
20
-0.2223559
40
0.4080987
50
192.7897338
51
205.2507384
0
ARC
8
DEFAULT_255_1_388
10
16.1402844
20
-0.2749462
40
0.2791522
50
205.8001921
51
211.2545876
0
ARC
8
DEFAULT_255_1_388
10
16.0814384
20
-0.3143868
40
0.2084074
50
210.3789935
51
238.4007996
0
ARC
8
DEFAULT_255_1_388
10
16.079247
20
-0.3091214
40
0.2117943
50
239.6521916
51
265.9793852
0
ARC
8
DEFAULT_255_1_388
10
16.0888318
20
-0.2334642
40
0.2879689
50
265.1324455
51
270.0603288
0
ARC
8
DEFAULT_255_1_388
10
16.0920696
20
-0.2699582
40
0.2514919
50
269.3314378
51
287.2180039
0
ARC
8
DEFAULT_255_1_388
10
16.1075778
20
-0.3265709
40
0.1928357
50
287.7957942
51
329.0808983
0
ARC
8
DEFAULT_255_1_388
10
15.9998535
20
-0.2593349
40
0.319808
50
328.6635261
51
343.3325043
0
ARC
8
DEFAULT_255_1_388
10
15.7553993
20
-0.1831805
40
0.5758408
50
343.0498092
51
351.9392499
0
ARC
8
DEFAULT_255_1_388
10
15.3653315
20
-0.1256795
40
0.9701202
50
351.8071632
51
357.7957897
0
ARC
8
DEFAULT_255_1_388
10
15.0018792
20
-0.1068276
40
1.3340376
50
357.5870923
51
359.2682493
0
LINE
8
DEFAULT_255_1_388
10
17.5791128
20
-0.5033618
11
17.5791128
21
-0.6398
0
LINE
8
DEFAULT_255_1_388
10
17.5791128
20
-0.6398
11
16.7171124
21
-0.6398
0
LINE
8
DEFAULT_255_1_388
10
16.7171124
20
-0.6398
11
16.7171124
21
-0.5196259
0
LINE
8
DEFAULT_255_1_388
10
16.7171124
20
-0.5196259
11
17.1725088
21
-0.0136298
0
LINE
8
DEFAULT_255_1_388
10
16.858972
20
0.2881607
11
16.6918125
21
0.2881607
0
LINE
8
DEFAULT_255_1_388
10
17.2709974
20
-0.121154
11
16.9186072
21
-0.5033618
0
LINE
8
DEFAULT_255_1_388
10
16.9186072
20
-0.5033618
11
17.5791128
21
-0.5033618
0
ARC
8
DEFAULT_255_1_388
10
15.6549148
20
1.3283983
40
2.0258655
50
318.5132526
51
320.7829045
0
ARC
8
DEFAULT_255_1_388
10
16.2497105
20
0.8442929
40
1.2589638
50
320.7372878
51
323.9739031
0
ARC
8
DEFAULT_255_1_388
10
16.6906036
20
0.5248554
40
0.7145141
50
323.8962701
51
328.64194
0
ARC
8
DEFAULT_255_1_388
10
16.9208294
20
0.3828545
40
0.4440242
50
328.8294576
51
331.7891185
0
ARC
8
DEFAULT_255_1_388
10
17.0330614
20
0.3249374
40
0.3177517
50
331.4254512
51
352.9365785
0
ARC
8
DEFAULT_255_1_388
10
17.0483614
20
0.321505
40
0.3021496
50
353.2257659
51
0.0166158
0
ARC
8
DEFAULT_255_1_388
10
17.0720375
20
0.3240894
40
0.2784847
50
359.486299
51
15.9343185
0
ARC
8
DEFAULT_255_1_388
10
17.1290642
20
0.3394269
40
0.2194403
50
16.1712913
51
43.5286088
0
ARC
8
DEFAULT_255_1_388
10
17.1377586
20
0.3481191
40
0.2071504
50
43.4417391
51
83.1661095
0
ARC
8
DEFAULT_255_1_388
10
17.1226747
20
0.2652316
40
0.2912888
50
82.160179
51
90.1505708
0
ARC
8
DEFAULT_255_1_388
10
17.1191229
20
0.2048279
40
0.3517025
50
89.5460741
51
102.5418361
0
ARC
8
DEFAULT_255_1_388
10
17.0917949
20
0.3207933
40
0.2325748
50
102.1738499
51
129.206123
0
ARC
8
DEFAULT_255_1_388
10
17.0829402
20
0.3347664
40
0.2161591
50
129.72865
51
135.753947
0
ARC
8
DEFAULT_255_1_388
10
17.0965884
20
0.3238728
40
0.2335433
50
136.1757367
51
166.3673339
0
ARC
8
DEFAULT_255_1_388
10
17.2098573
20
0.2935148
40
0.3507873
50
165.9090694
51
178.8684636
0
ARC
8
DEFAULT_255_1_388
10
17.3074344
20
0.2882263
40
0.4484624
50
178.4391136
51
180.0083808
0
ARC
8
DEFAULT_255_1_388
10
17.1495046
20
0.2926197
40
0.4577138
50
163.2878482
51
180.5581842
0
ARC
8
DEFAULT_255_1_388
10
17.0593087
20
0.3174393
40
0.3641968
50
133.4540601
51
162.947111
0
ARC
8
DEFAULT_255_1_388
10
17.0793969
20
0.2960789
40
0.3935189
50
100.7869829
51
133.4382499
0
ARC
8
DEFAULT_255_1_388
10
17.1185214
20
0.1218399
40
0.5720313
50
89.660664
51
101.3702276
0
ARC
8
DEFAULT_255_1_388
10
17.1259823
20
0.1287263
40
0.5651495
50
78.2172678
51
90.412935
0
ARC
8
DEFAULT_255_1_388
10
17.1659288
20
0.3114511
40
0.378122
50
55.9269121
51
78.4888449
0
ARC
8
DEFAULT_255_1_388
10
17.1880004
20
0.3495187
40
0.3342379
50
47.929771
51
55.4049217
0
ARC
8
DEFAULT_255_1_388
10
17.1994534
20
0.3611618
40
0.3179217
50
4.334829
51
48.0560205
0
ARC
8
DEFAULT_255_1_388
10
17.0762336
20
0.3420487
40
0.442341
50
359.9251713
51
5.5971671
0
ARC
8
DEFAULT_255_1_388
10
17.124449
20
0.3483728
40
0.3941854
50
337.8914027
51
358.9967534
0
ARC
8
DEFAULT_255_1_388
10
16.819206
20
0.4661295
40
0.7213271
50
326.9132501
51
338.3508308
0
ARC
8
DEFAULT_255_1_388
10
16.3708172
20
0.7535105
40
1.2538973
50
319.6471833
51
327.0959558
0
ARC
8
DEFAULT_255_1_388
10
15.939483
20
1.109305
40
1.8129975
50
317.2588228
51
319.9045804
0
LINE
8
DEFAULT_255_1_388
10
18.5811658
20
0.138169
11
18.5811658
21
-0.0786865
0
LINE
8
DEFAULT_255_1_388
10
17.7507901
20
-0.1012756
11
17.7507901
21
0.1219048
0
LINE
8
DEFAULT_255_1_388
10
18.4140064
20
-0.1238647
11
18.4140064
21
0.1499153
0
LINE
8
DEFAULT_255_1_388
10
17.9179495
20
0.1625652
11
17.9179495
21
-0.1048898
0
ARC
8
DEFAULT_255_1_388
10
17.2033992
20
-0.0841882
40
1.3777776
50
353.8440855
51
0.2287917
0
ARC
8
DEFAULT_255_1_388
10
17.725301
20
-0.1424586
40
0.852639
50
344.4934746
51
353.9763743
0
ARC
8
DEFAULT_255_1_388
10
18.0619817
20
-0.2381809
40
0.5026273
50
329.2803599
51
344.7473406
0
ARC
8
DEFAULT_255_1_388
10
18.1735312
20
-0.2993962
40
0.3754848
50
324.9361395
51
328.6153007
0
ARC
8
DEFAULT_255_1_388
10
18.2160962
20
-0.3291414
40
0.3235566
50
280.5801797
51
324.9173226
0
ARC
8
DEFAULT_255_1_388
10
18.1709591
20
-0.1411764
40
0.5167077
50
269.5979457
51
281.6732777
0
ARC
8
DEFAULT_255_1_388
10
18.1628494
20
-0.1546887
40
0.5032026
50
256.6228565
51
270.5105488
0
ARC
8
DEFAULT_255_1_388
10
18.1176237
20
-0.3288655
40
0.3233092
50
215.8618351
51
257.2787793
0
ARC
8
DEFAULT_255_1_388
10
18.2324944
20
-0.2517894
40
0.4615831
50
197.9695203
51
215.2622745
0
ARC
8
DEFAULT_255_1_388
10
18.512062
20
-0.1574359
40
0.7566307
50
187.8816486
51
198.2346584
0
ARC
8
DEFAULT_255_1_388
10
18.9573858
20
-0.0931547
40
1.2065653
50
180.8977266
51
188.0054894
0
ARC
8
DEFAULT_255_1_388
10
19.2624072
20
-0.08166
40
1.5117443
50
180.7434591
51
181.152202
0
ARC
8
DEFAULT_255_1_388
10
19.0949068
20
0.1273371
40
1.3441277
50
173.7674302
51
180.2315596
0
ARC
8
DEFAULT_255_1_388
10
18.5866937
20
0.1847779
40
0.8326847
50
164.3058537
51
173.9000553
0
ARC
8
DEFAULT_255_1_388
10
18.2590937
20
0.2791652
40
0.4917711
50
148.7922028
51
164.5682288
0
ARC
8
DEFAULT_255_1_388
10
18.1521674
20
0.3388457
40
0.3694204
50
144.5883979
51
148.1161588
0
ARC
8
DEFAULT_255_1_388
10
18.1134419
20
0.3658667
40
0.322202
50
101.6440149
51
144.5142619
0
ARC
8
DEFAULT_255_1_388
10
18.1612612
20
0.1758337
40
0.5180451
50
89.528284
51
102.5820197
0
ARC
8
DEFAULT_255_1_388
10
18.1701603
20
0.1714376
40
0.5224441
50
77.0437914
51
90.508231
0
ARC
8
DEFAULT_255_1_388
10
18.2153857
20
0.3562272
40
0.3322297
50
48.2777708
51
77.4996087
0
ARC
8
DEFAULT_255_1_388
10
18.2235597
20
0.3707557
40
0.315966
50
36.3141586
51
47.6307332
0
ARC
8
DEFAULT_255_1_388
10
18.1258319
20
0.3049159
40
0.4337313
50
18.2931065
51
35.6770203
0
ARC
8
DEFAULT_255_1_388
10
17.839716
20
0.2067107
40
0.7362203
50
8.0246996
51
18.5605636
0
ARC
8
DEFAULT_255_1_388
10
17.3713516
20
0.1375432
40
1.2096583
50
1.127539
51
8.1718423
0
ARC
8
DEFAULT_255_1_388
10
17.0064649
20
0.1232374
40
1.5747719
50
0.5432713
51
1.38669
0
ARC
8
DEFAULT_255_1_388
10
17.2122028
20
0.1539163
40
1.2018103
50
359.8092569
51
4.9408001
0
ARC
8
DEFAULT_255_1_388
10
17.6858609
20
0.19619
40
0.7262727
50
4.8364937
51
12.2906017
0
ARC
8
DEFAULT_255_1_388
10
17.9958074
20
0.2652485
40
0.4087324
50
12.0806994
51
23.8171225
0
ARC
8
DEFAULT_255_1_388
10
18.127847
20
0.3211508
40
0.2653719
50
24.2874621
51
31.3934353
0
ARC
8
DEFAULT_255_1_388
10
18.1868906
20
0.3597822
40
0.1948607
50
30.7407708
51
82.4658033
0
ARC
8
DEFAULT_255_1_388
10
18.1666567
20
0.2604017
40
0.2961198
50
81.1057101
51
90.2187368
0
ARC
8
DEFAULT_255_1_388
10
18.1626378
20
0.2894421
40
0.2670929
50
89.380395
51
105.6763916
0
ARC
8
DEFAULT_255_1_388
10
18.14201
20
0.364432
40
0.1893189
50
105.7980655
51
149.7387869
0
ARC
8
DEFAULT_255_1_388
10
18.261724
20
0.2924719
40
0.3289892
50
149.4208441
51
163.628295
0
ARC
8
DEFAULT_255_1_388
10
18.496947
20
0.2207345
40
0.5749004
50
163.3764549
51
172.141138
0
ARC
8
DEFAULT_255_1_388
10
18.8682192
20
0.1675582
40
0.9499585
50
172.0258462
51
178.0705453
0
ARC
8
DEFAULT_255_1_388
10
19.2103744
20
0.1513682
40
1.2924734
50
177.8639301
51
179.5036263
0
ARC
8
DEFAULT_255_1_388
10
19.0884763
20
-0.1089849
40
1.170534
50
179.7995545
51
185.246089
0
ARC
8
DEFAULT_255_1_388
10
18.6336356
20
-0.1520596
40
0.7136613
50
185.1411911
51
193.0082205
0
ARC
8
DEFAULT_255_1_388
10
18.3362617
20
-0.2223559
40
0.4080987
50
192.7897338
51
205.2507384
0
ARC
8
DEFAULT_255_1_388
10
18.2184827
20
-0.2749462
40
0.2791522
50
205.8001921
51
211.2545876
0
ARC
8
DEFAULT_255_1_388
10
18.1596366
20
-0.3143868
40
0.2084074
50
210.3789935
51
238.4007996
0
ARC
8
DEFAULT_255_1_388
10
18.1574452
20
-0.3091214
40
0.2117943
50
239.6521916
51
265.9793852
0
ARC
8
DEFAULT_255_1_388
10
18.1670301
20
-0.2334642
40
0.2879689
50
265.1324455
51
270.0603288
0
ARC
8
DEFAULT_255_1_388
10
18.1702678
20
-0.2699582
40
0.2514919
50
269.3314378
51
287.2180039
0
ARC
8
DEFAULT_255_1_388
10
18.185776
20
-0.3265709
40
0.1928357
50
287.7957942
51
329.0808983
0
ARC
8
DEFAULT_255_1_388
10
18.0780517
20
-0.2593349
40
0.319808
50
328.6635261
51
343.3325043
0
ARC
8
DEFAULT_255_1_388
10
17.8335976
20
-0.1831805
40
0.5758408
50
343.0498092
51
351.9392499
0
ARC
8
DEFAULT_255_1_388
10
17.4435297
20
-0.1256795
40
0.9701202
50
351.8071632
51
357.7957897
0
ARC
8
DEFAULT_255_1_388
10
17.0800774
20
-0.1068276
40
1.3340376
50
357.5870923
51
359.2682493
0
LINE
8
DEFAULT_255_1_388
10
19.6573111
20
-0.5033618
11
19.6573111
21
-0.6398
0
LINE
8
DEFAULT_255_1_388
10
19.6573111
20
-0.6398
11
18.7953106
21
-0.6398
0
LINE
8
DEFAULT_255_1_388
10
18.7953106
20
-0.6398
11
18.7953106
21
-0.5196259
0
LINE
8
DEFAULT_255_1_388
10
18.7953106
20
-0.5196259
11
19.2507071
21
-0.0136298
0
LINE
8
DEFAULT_255_1_388
10
18.9371702
20
0.2881607
11
18.7700108
21
0.2881607
0
LINE
8
DEFAULT_255_1_388
10
19.3491956
20
-0.121154
11
18.9968055
21
-0.5033618
0
LINE
8
DEFAULT_255_1_388
10
18.9968055
20
-0.5033618
11
19.6573111
21
-0.5033618
0
ARC
8
DEFAULT_255_1_388
10
17.733113
20
1.3283983
40
2.0258655
50
318.5132526
51
320.7829045
0
ARC
8
DEFAULT_255_1_388
10
18.3279087
20
0.8442929
40
1.2589638
50
320.7372878
51
323.9739031
0
ARC
8
DEFAULT_255_1_388
10
18.7688019
20
0.5248554
40
0.7145141
50
323.8962701
51
328.64194
0
ARC
8
DEFAULT_255_1_388
10
18.9990276
20
0.3828545
40
0.4440242
50
328.8294576
51
331.7891185
0
ARC
8
DEFAULT_255_1_388
10
19.1112597
20
0.3249374
40
0.3177517
50
331.4254512
51
352.9365785
0
ARC
8
DEFAULT_255_1_388
10
19.1265597
20
0.321505
40
0.3021496
50
353.2257659
51
0.0166158
0
ARC
8
DEFAULT_255_1_388
10
19.1502357
20
0.3240894
40
0.2784847
50
359.486299
51
15.9343185
0
ARC
8
DEFAULT_255_1_388
10
19.2072624
20
0.3394269
40
0.2194403
50
16.1712913
51
43.5286088
0
ARC
8
DEFAULT_255_1_388
10
19.2159569
20
0.3481191
40
0.2071504
50
43.4417391
51
83.1661095
0
ARC
8
DEFAULT_255_1_388
10
19.200873
20
0.2652316
40
0.2912888
50
82.160179
51
90.1505708
0
ARC
8
DEFAULT_255_1_388
10
19.1973211
20
0.2048279
40
0.3517025
50
89.5460741
51
102.5418361
0
ARC
8
DEFAULT_255_1_388
10
19.1699931
20
0.3207933
40
0.2325748
50
102.1738499
51
129.206123
0
ARC
8
DEFAULT_255_1_388
10
19.1611385
20
0.3347664
40
0.2161591
50
129.72865
51
135.753947
0
ARC
8
DEFAULT_255_1_388
10
19.1747867
20
0.3238728
40
0.2335433
50
136.1757367
51
166.3673339
0
ARC
8
DEFAULT_255_1_388
10
19.2880555
20
0.2935148
40
0.3507873
50
165.9090694
51
178.8684636
0
ARC
8
DEFAULT_255_1_388
10
19.3856327
20
0.2882263
40
0.4484624
50
178.4391136
51
180.0083808
0
ARC
8
DEFAULT_255_1_388
10
19.2277028
20
0.2926197
40
0.4577138
50
163.2878482
51
180.5581842
0
ARC
8
DEFAULT_255_1_388
10
19.1375069
20
0.3174393
40
0.3641968
50
133.4540601
51
162.947111
0
ARC
8
DEFAULT_255_1_388
10
19.1575951
20
0.2960789
40
0.3935189
50
100.7869829
51
133.4382499
0
ARC
8
DEFAULT_255_1_388
10
19.1967196
20
0.1218399
40
0.5720313
50
89.660664
51
101.3702276
0
ARC
8
DEFAULT_255_1_388
10
19.2041805
20
0.1287263
40
0.5651495
50
78.2172678
51
90.412935
0
ARC
8
DEFAULT_255_1_388
10
19.2441271
20
0.3114511
40
0.378122
50
55.9269121
51
78.4888449
0
ARC
8
DEFAULT_255_1_388
10
19.2661986
20
0.3495187
40
0.3342379
50
47.929771
51
55.4049217
0
ARC
8
DEFAULT_255_1_388
10
19.2776516
20
0.3611618
40
0.3179217
50
4.334829
51
48.0560205
0
ARC
8
DEFAULT_255_1_388
10
19.1544318
20
0.3420487
40
0.442341
50
359.9251713
51
5.5971671
0
ARC
8
DEFAULT_255_1_388
10
19.2026473
20
0.3483728
40
0.3941854
50
337.8914027
51
358.9967534
0
ARC
8
DEFAULT_255_1_388
10
18.8974043
20
0.4661295
40
0.7213271
50
326.9132501
51
338.3508308
0
ARC
8
DEFAULT_255_1_388
10
18.4490155
20
0.7535105
40
1.2538973
50
319.6471833
51
327.0959558
0
ARC
8
DEFAULT_255_1_388
10
18.0176813
20
1.109305
40
1.8129975
50
317.2588228
51
319.9045804
0
ARC
8
DEFAULT_255_2_778
10
12.6050348
20
169.3538041
40
0.3813723
50
156.9728279
51
180.9672924
0
ARC
8
DEFAULT_255_2_778
10
12.4650905
20
169.4164556
40
0.2280903
50
120.6143155
51
157.7057572
0
ARC
8
DEFAULT_255_2_778
10
12.423185
20
169.4783889
40
0.1535155
50
105.6024085
51
118.9253865
0
ARC
8
DEFAULT_255_2_778
10
12.4163051
20
169.503158
40
0.1278087
50
90.2188612
51
105.6183161
0
ARC
8
DEFAULT_255_2_778
10
12.4186564
20
169.3360412
40
0.2949385
50
82.1187511
51
90.5516271
0
ARC
8
DEFAULT_255_2_778
10
12.4470429
20
169.5007036
40
0.128059
50
23.164146
51
84.5981403
0
ARC
8
DEFAULT_255_2_778
10
12.3195078
20
169.4489267
40
0.2656921
50
1.2065942
51
22.6109196
0
ARC
8
DEFAULT_255_2_778
10
12.1068205
20
169.4310377
40
0.4788966
50
359.9555286
51
2.8107684
0
ARC
8
DEFAULT_255_2_778
10
12.4802764
20
169.4196207
40
0.6523641
50
359.5121336
51
18.1513483
0
ARC
8
DEFAULT_255_2_778
10
12.6313291
20
169.4706245
40
0.4929411
50
17.987628
51
47.7515239
0
ARC
8
DEFAULT_255_2_778
10
12.6654537
20
169.5023389
40
0.4465388
50
48.2567149
51
90.320171
0
ARC
8
DEFAULT_255_2_778
10
12.6638541
20
169.4542874
40
0.4945841
50
90.103751
51
104.0317339
0
ARC
8
DEFAULT_255_2_778
10
12.6706581
20
169.4229342
40
0.5266526
50
103.9228462
51
106.737064
0
ARC
8
DEFAULT_255_2_778
10
12.6850928
20
169.3802316
40
0.5717052
50
106.8899656
51
120.2615348
0
ARC
8
DEFAULT_255_2_778
10
12.7341581
20
169.2957122
40
0.6694339
50
120.2432243
51
131.2854864
0
ARC
8
DEFAULT_255_2_778
10
12.785036
20
169.234952
40
0.7486631
50
131.143212
51
134.0802792
0
ARC
8
DEFAULT_255_2_778
10
15.2709404
20
168.2619131
40
0.1197666
50
309.5218924
51
339.9060311
0
ARC
8
DEFAULT_255_2_778
10
15.3039085
20
168.2244254
40
0.0698871
50
287.710739
51
308.230668
0
ARC
8
DEFAULT_255_2_778
10
15.3092212
20
168.2087982
40
0.0533853
50
270.2503717
51
287.3813074
0
ARC
8
DEFAULT_255_2_778
10
15.3118783
20
168.2096536
40
0.0542942
50
194.7346052
51
267.4414086
0
ARC
8
DEFAULT_255_2_778
10
15.3603123
20
168.232672
40
0.107451
50
190.9475811
51
200.0439116
0
ARC
8
DEFAULT_255_2_778
10
14.9941035
20
168.2197621
40
0.2608211
50
358.353068
51
64.1268931
0
ARC
8
DEFAULT_255_2_778
10
15.0249058
20
168.2654249
40
0.206441
50
66.2890109
51
89.9969258
0
ARC
8
DEFAULT_255_2_778
10
15.0382115
20
168.2301645
40
0.2420668
50
93.1483498
51
177.0819403
0
ARC
8
DEFAULT_255_2_778
10
15.0906424
20
168.2123292
40
0.2957256
50
174.1467469
51
180.0122521
0
ARC
8
DEFAULT_255_2_778
10
15.0902349
20
168.215793
40
0.2953391
50
180.6842551
51
197.2976119
0
ARC
8
DEFAULT_255_2_778
10
15.1427344
20
168.2319135
40
0.3502574
50
197.2618666
51
237.3003567
0
ARC
8
DEFAULT_255_2_778
10
15.1574152
20
168.260555
40
0.3823034
50
237.7678185
51
267.0989043
0
ARC
8
DEFAULT_255_2_778
10
15.1676437
20
168.345885
40
0.468079
50
266.3770992
51
270.0209723
0
ARC
8
DEFAULT_255_2_778
10
15.1676985
20
168.3761308
40
0.4983248
50
270.0133909
51
272.716577
0
ARC
8
DEFAULT_255_2_778
10
15.1758148
20
168.2615424
40
0.3834899
50
272.3167324
51
299.1303886
0
ARC
8
DEFAULT_255_2_778
10
15.1234049
20
168.3350329
40
0.4733038
50
300.3417229
51
327.7658215
0
ARC
8
DEFAULT_255_2_778
10
14.9406676
20
168.4635134
40
0.6964958
50
326.843622
51
335.4998036
0
ARC
8
DEFAULT_255_2_778
10
14.8514976
20
168.5057766
40
0.7951648
50
335.3932154
51
340.0324022
0
ARC
8
DEFAULT_255_2_778
10
14.8370312
20
168.5113094
40
0.8106509
50
340.0140149
51
340.5492811
0
ARC
8
DEFAULT_255_2_778
10
10.7612214
20
169.2094581
40
0.768197
50
90.8730151
51
175.0627552
0
ARC
8
DEFAULT_255_2_778
10
10.8136126
20
169.1930058
40
0.8218958
50
174.2343992
51
180.0097514
0
ARC
8
DEFAULT_255_2_778
10
10.7889867
20
169.1897729
40
0.7972759
50
179.7777162
51
222.1414196
0
ARC
8
DEFAULT_255_2_778
10
10.7511509
20
169.151835
40
0.7437709
50
221.9300285
51
269.8741254
0
ARC
8
DEFAULT_255_2_778
10
10.7376549
20
169.1762244
40
0.7682501
50
270.8846918
51
355.0667038
0
ARC
8
DEFAULT_255_2_778
10
10.6852873
20
169.1927267
40
0.8219296
50
354.2345114
51
0.0097094
0
ARC
8
DEFAULT_255_2_778
10
10.7100678
20
169.1959703
40
0.7971551
50
359.7768758
51
42.1436072
0
ARC
8
DEFAULT_255_2_778
10
10.7478782
20
169.2338788
40
0.7436889
50
41.9327014
51
89.8737509
0
ARC
8
DEFAULT_255_2_778
10
10.7319112
20
168.8166045
40
0.2064136
50
282.3154686
51
2.5716381
0
ARC
8
DEFAULT_255_2_778
10
10.749558
20
168.7815913
40
0.1687253
50
269.98603
51
278.995025
0
ARC
8
DEFAULT_255_2_778
10
10.7617107
20
168.8130042
40
0.2005094
50
178.6786273
51
266.5134562
0
ARC
8
DEFAULT_255_2_778
10
10.8074017
20
168.8258655
40
0.2462849
50
179.9999044
51
181.9167359
0
ARC
8
DEFAULT_255_2_778
10
10.7673954
20
169.5691548
40
0.2064787
50
103.0315545
51
182.5228891
0
ARC
8
DEFAULT_255_2_778
10
10.7494718
20
169.6042048
40
0.1685611
50
89.9846994
51
99.7807169
0
ARC
8
DEFAULT_255_2_778
10
10.7371616
20
169.5722176
40
0.2009286
50
358.490526
51
86.4746259
0
ARC
8
DEFAULT_255_2_778
10
10.6939639
20
169.5600644
40
0.244153
50
0.0003602
51
1.6101146
0
ARC
8
DEFAULT_255_2_778
10
13.7769085
20
169.1923122
40
1.0339085
50
353.7729731
51
0.0306848
0
ARC
8
DEFAULT_255_2_778
10
14.0136678
20
169.1959703
40
0.7971551
50
359.7768758
51
42.1436072
0
ARC
8
DEFAULT_255_2_778
10
14.0514782
20
169.2338788
40
0.7436889
50
41.9327014
51
89.8737509
0
ARC
8
DEFAULT_255_2_778
10
14.0648214
20
169.2094581
40
0.768197
50
90.8730151
51
175.0627552
0
ARC
8
DEFAULT_255_2_778
10
14.1172126
20
169.1930058
40
0.8218958
50
174.2343992
51
180.0097514
0
ARC
8
DEFAULT_255_2_778
10
14.0925867
20
169.1897729
40
0.7972759
50
179.7777162
51
222.1414196
0
ARC
8
DEFAULT_255_2_778
10
14.0547509
20
169.151835
40
0.7437709
50
221.9300285
51
269.8741254
0
ARC
8
DEFAULT_255_2_778
10
14.0479775
20
169.1618375
40
0.753789
50
270.3906469
51
332.9011285
0
ARC
8
DEFAULT_255_2_778
10
14.0503073
20
169.1733988
40
0.5766383
50
270.2493497
51
330.3649047
0
ARC
8
DEFAULT_255_2_778
10
14.0738266
20
168.8017117
40
0.2060198
50
188.4673322
51
264.146848
0
ARC
8
DEFAULT_255_2_778
10
14.1170452
20
168.8258502
40
0.2529285
50
180.0643852
51
192.4374066
0
ARC
8
DEFAULT_255_2_778
10
14.070552
20
169.5693297
40
0.2060435
50
102.2220352
51
182.5768883
0
ARC
8
DEFAULT_255_2_778
10
14.0532765
20
169.6035306
40
0.1692354
50
89.9863487
51
98.9553742
0
ARC
8
DEFAULT_255_2_778
10
14.0410627
20
169.5724487
40
0.2006917
50
358.1298546
51
86.4993767
0
ARC
8
DEFAULT_255_2_778
10
13.9951604
20
169.5600582
40
0.2465564
50
0.0018041
51
1.3574921
0
ARC
8
DEFAULT_255_2_778
10
18.8395085
20
169.1923122
40
1.0339085
50
353.7729731
51
0.0306848
0
ARC
8
DEFAULT_255_2_778
10
19.0763127
20
169.1959756
40
0.7971102
50
359.7764759
51
42.1460177
0
ARC
8
DEFAULT_255_2_778
10
19.1140101
20
169.2337511
40
0.7438166
50
41.9370909
51
89.8762358
0
ARC
8
DEFAULT_255_2_778
10
19.1273214
20
169.2094581
40
0.768197
50
90.8730151
51
175.0627552
0
ARC
8
DEFAULT_255_2_778
10
19.1797126
20
169.1930058
40
0.8218958
50
174.2343992
51
180.0097514
0
ARC
8
DEFAULT_255_2_778
10
19.1550867
20
169.1897729
40
0.7972759
50
179.7777162
51
222.1414196
0
ARC
8
DEFAULT_255_2_778
10
19.1172509
20
169.151835
40
0.7437709
50
221.9300285
51
269.8741254
0
ARC
8
DEFAULT_255_2_778
10
19.1104966
20
169.1622973
40
0.7542487
50
270.3889576
51
332.8797533
0
ARC
8
DEFAULT_255_2_778
10
19.1131073
20
169.1733988
40
0.5766383
50
270.2493497
51
330.3649047
0
ARC
8
DEFAULT_255_2_778
10
19.1366787
20
168.801307
40
0.2056225
50
188.7424888
51
264.120891
0
ARC
8
DEFAULT_255_2_778
10
19.180402
20
168.8258673
40
0.2531853
50
180.0682018
51
192.7352383
0
ARC
8
DEFAULT_255_2_778
10
19.1332623
20
169.569031
40
0.2062492
50
102.479692
51
182.5468765
0
ARC
8
DEFAULT_255_2_778
10
19.1155784
20
169.6040755
40
0.1684904
50
89.986931
51
99.1816697
0
ARC
8
DEFAULT_255_2_778
10
19.1031384
20
169.5718685
40
0.201085
50
358.3379179
51
86.4421934
0
ARC
8
DEFAULT_255_2_778
10
19.0609425
20
169.5598683
40
0.2432745
50
359.9994511
51
1.4527903
0
LINE
8
DEFAULT_255_2_778
10
20.0578169
20
168.5043659
11
20.5605169
21
168.5043659
0
LINE
8
DEFAULT_255_2_778
10
20.5605169
20
168.5043659
11
20.5605169
21
170.5239659
0
LINE
8
DEFAULT_255_2_778
10
20.5605169
20
170.5239659
11
20.0578169
21
170.5239659
0
LINE
8
DEFAULT_255_2_778
10
20.0578169
20
170.5239659
11
20.0578169
21
168.5043659
0
LINE
8
DEFAULT_255_2_778
10
20.0578169
20
168.5043659
11
20.0578169
21
168.5043659
0
LINE
8
DEFAULT_255_2_778
10
20.0578169
20
168.5043659
11
20.0578169
21
168.5043659
0
LINE
8
DEFAULT_255_2_778
10
21.2995169
20
170.5239659
11
21.2995169
21
168.5043659
0
LINE
8
DEFAULT_255_2_778
10
21.2995169
20
168.5043659
11
20.7970169
21
168.5043659
0
LINE
8
DEFAULT_255_2_778
10
20.7970169
20
168.5043659
11
20.7970169
21
170.5239659
0
LINE
8
DEFAULT_255_2_778
10
20.7970169
20
170.5239659
11
21.2995169
21
170.5239659
0
LINE
8
DEFAULT_255_2_778
10
21.2995169
20
170.5239659
11
21.2995169
21
170.5239659
0
LINE
8
DEFAULT_255_2_778
10
21.2995169
20
170.5239659
11
21.2995169
21
170.5239659
0
LINE
8
DEFAULT_255_2_778
10
9.1419169
20
169.7394659
11
8.7355169
21
169.7394659
0
LINE
8
DEFAULT_255_2_778
10
8.7355169
20
169.7394659
11
8.7355169
21
170.5239659
0
LINE
8
DEFAULT_255_2_778
10
8.7355169
20
170.5239659
11
8.0703169
21
170.5239659
0
LINE
8
DEFAULT_255_2_778
10
8.0703169
20
170.5239659
11
8.0703169
21
168.5043659
0
LINE
8
DEFAULT_255_2_778
10
8.0703169
20
168.5043659
11
8.7355169
21
168.5043659
0
LINE
8
DEFAULT_255_2_778
10
8.7355169
20
168.5043659
11
8.7355169
21
169.5058659
0
LINE
8
DEFAULT_255_2_778
10
8.7355169
20
169.5058659
11
9.1419169
21
169.5058659
0
LINE
8
DEFAULT_255_2_778
10
9.1419169
20
169.5058659
11
9.1419169
21
168.5043659
0
LINE
8
DEFAULT_255_2_778
10
9.1419169
20
168.5043659
11
9.8070169
21
168.5043659
0
LINE
8
DEFAULT_255_2_778
10
9.8070169
20
168.5043659
11
9.8070169
21
170.5239659
0
LINE
8
DEFAULT_255_2_778
10
9.8070169
20
170.5239659
11
9.1419169
21
170.5239659
0
LINE
8
DEFAULT_255_2_778
10
9.1419169
20
170.5239659
11
9.1419169
21
169.7394659
0
LINE
8
DEFAULT_255_2_778
10
9.1419169
20
169.7394659
11
9.1419169
21
169.7394659
0
LINE
8
DEFAULT_255_2_778
10
9.1419169
20
169.7394659
11
9.1419169
21
169.7394659
0
LINE
8
DEFAULT_255_2_778
10
12.2645169
20
169.7730659
11
12.2237169
21
169.9066659
0
LINE
8
DEFAULT_255_2_778
10
12.2237169
20
169.9066659
11
11.6768169
21
169.9066659
0
LINE
8
DEFAULT_255_2_778
10
11.6768169
20
169.9066659
11
11.6768169
21
168.5046659
0
LINE
8
DEFAULT_255_2_778
10
11.6768169
20
168.5046659
11
12.2237169
21
168.5046659
0
LINE
8
DEFAULT_255_2_778
10
12.2237169
20
168.5046659
11
12.2237169
21
169.3473659
0
LINE
8
DEFAULT_255_2_778
10
12.2237169
20
169.3473659
11
12.2237169
21
169.3473659
0
LINE
8
DEFAULT_255_2_778
10
12.5857169
20
169.4306659
11
12.5857169
21
169.4306659
0
LINE
8
DEFAULT_255_2_778
10
12.5857169
20
169.4306659
11
12.5857169
21
168.5043659
0
LINE
8
DEFAULT_255_2_778
10
12.5857169
20
168.5043659
11
13.1326169
21
168.5043659
0
LINE
8
DEFAULT_255_2_778
10
13.1326169
20
168.5043659
11
13.1326169
21
169.4140659
0
LINE
8
DEFAULT_255_2_778
10
13.1326169
20
169.4140659
11
13.1326169
21
169.4140659
0
LINE
8
DEFAULT_255_2_778
10
12.2642169
20
169.7727659
11
12.2642169
21
169.7727659
0
LINE
8
DEFAULT_255_2_778
10
12.2642169
20
169.7727659
11
12.2642169
21
169.7727659
0
LINE
8
DEFAULT_255_2_778
10
12.2642169
20
169.7727659
11
12.2642169
21
169.7727659
0
LINE
8
DEFAULT_255_2_778
10
12.2642169
20
169.7727659
11
12.2645169
21
169.7730659
0
LINE
8
DEFAULT_255_2_778
10
17.8816169
20
169.0928659
11
17.6265169
21
169.9064659
0
LINE
8
DEFAULT_255_2_778
10
17.6265169
20
169.9064659
11
17.2532169
21
169.9064659
0
LINE
8
DEFAULT_255_2_778
10
17.2532169
20
169.9064659
11
16.9981169
21
169.0594659
0
LINE
8
DEFAULT_255_2_778
10
16.9981169
20
169.0594659
11
16.7322169
21
169.9064659
0
LINE
8
DEFAULT_255_2_778
10
16.7322169
20
169.9064659
11
16.2113169
21
169.9064659
0
LINE
8
DEFAULT_255_2_778
10
16.2113169
20
169.9064659
11
16.2076169
21
169.9064659
0
LINE
8
DEFAULT_255_2_778
10
16.2076169
20
169.9064659
11
16.0007169
21
169.9064659
0
LINE
8
DEFAULT_255_2_778
10
16.0007169
20
169.9064659
11
15.7382169
21
169.1930659
0
LINE
8
DEFAULT_255_2_778
10
15.7382169
20
169.1930659
11
15.3688169
21
169.9064659
0
LINE
8
DEFAULT_255_2_778
10
15.3688169
20
169.9064659
11
14.7441169
21
169.9064659
0
LINE
8
DEFAULT_255_2_778
10
14.7441169
20
169.9064659
11
15.4794169
21
168.4877659
0
LINE
8
DEFAULT_255_2_778
10
15.4794169
20
168.4877659
11
15.3834169
21
168.2207659
0
LINE
8
DEFAULT_255_2_778
10
15.3834169
20
168.2207659
11
15.3834169
21
168.2207659
0
LINE
8
DEFAULT_255_2_778
10
15.6014169
20
168.2413659
11
15.6014169
21
168.2413659
0
LINE
8
DEFAULT_255_2_778
10
15.6014169
20
168.2413659
11
16.2091169
21
169.9005659
0
LINE
8
DEFAULT_255_2_778
10
16.2091169
20
169.9005659
11
16.6473169
21
168.5041659
0
LINE
8
DEFAULT_255_2_778
10
16.6473169
20
168.5041659
11
17.0463169
21
168.5041659
0
LINE
8
DEFAULT_255_2_778
10
17.0463169
20
168.5041659
11
17.2902169
21
169.3095659
0
LINE
8
DEFAULT_255_2_778
10
17.2902169
20
169.3095659
11
17.5416169
21
168.5041659
0
LINE
8
DEFAULT_255_2_778
10
17.5416169
20
168.5041659
11
17.9186169
21
168.5041659
0
LINE
8
DEFAULT_255_2_778
10
17.9186169
20
168.5041659
11
18.3435169
21
169.9061659
0
LINE
8
DEFAULT_255_2_778
10
18.3435169
20
169.9061659
11
18.1255169
21
169.9061659
0
LINE
8
DEFAULT_255_2_778
10
18.1255169
20
169.9061659
11
17.8816169
21
169.0925659
0
LINE
8
DEFAULT_255_2_778
10
17.8816169
20
169.0925659
11
17.8816169
21
169.0925659
0
LINE
8
DEFAULT_255_2_778
10
17.8816169
20
169.0925659
11
17.8816169
21
169.0925659
0
LINE
8
DEFAULT_255_2_778
10
17.8816169
20
169.0925659
11
17.8816169
21
169.0928659
0
LINE
8
DEFAULT_255_2_778
10
10.7495169
20
169.9775659
11
10.7495169
21
169.9775659
0
LINE
8
DEFAULT_255_2_778
10
10.7495169
20
169.9775659
11
10.7495169
21
169.9775659
0
LINE
8
DEFAULT_255_2_778
10
10.7495169
20
169.9775659
11
10.7495169
21
169.9775659
0
LINE
8
DEFAULT_255_2_778
10
10.7495169
20
169.9775659
11
10.7495169
21
169.9775659
0
LINE
8
DEFAULT_255_2_778
10
10.5611169
20
168.8258659
11
10.5611169
21
168.8258659
0
LINE
8
DEFAULT_255_2_778
10
10.5611169
20
168.8258659
11
10.5611169
21
169.5600659
0
LINE
8
DEFAULT_255_2_778
10
10.5611169
20
169.5600659
11
10.5611169
21
169.5600659
0
LINE
8
DEFAULT_255_2_778
10
10.9381169
20
169.5600659
11
10.9381169
21
169.5600659
0
LINE
8
DEFAULT_255_2_778
10
10.9381169
20
169.5600659
11
10.9381169
21
168.8258659
0
LINE
8
DEFAULT_255_2_778
10
10.9381169
20
168.8258659
11
10.9381169
21
168.8258659
0
LINE
8
DEFAULT_255_2_778
10
10.9381169
20
168.8258659
11
10.9381169
21
168.8258659
0
LINE
8
DEFAULT_255_2_778
10
10.9381169
20
168.8258659
11
10.9381169
21
168.8258659
0
LINE
8
DEFAULT_255_2_778
10
14.7190169
20
168.8184659
11
14.7190169
21
168.8184659
0
LINE
8
DEFAULT_255_2_778
10
14.7190169
20
168.8184659
11
14.5515169
21
168.8882659
0
LINE
8
DEFAULT_255_2_778
10
14.5515169
20
168.8882659
11
14.5515169
21
168.8882659
0
LINE
8
DEFAULT_255_2_778
10
13.8641169
20
168.8255659
11
13.8641169
21
168.8255659
0
LINE
8
DEFAULT_255_2_778
10
13.8641169
20
168.8255659
11
13.8641169
21
169.0801659
0
LINE
8
DEFAULT_255_2_778
10
13.8641169
20
169.0801659
11
14.8042169
21
169.0801659
0
LINE
8
DEFAULT_255_2_778
10
14.8042169
20
169.0801659
11
14.8042169
21
169.0801659
0
LINE
8
DEFAULT_255_2_778
10
14.8042169
20
169.0801659
11
14.8042169
21
169.0801659
0
LINE
8
DEFAULT_255_2_778
10
14.8042169
20
169.0801659
11
14.8047169
21
169.0801659
0
LINE
8
DEFAULT_255_2_778
10
14.2417169
20
169.5600659
11
14.2417169
21
169.5600659
0
LINE
8
DEFAULT_255_2_778
10
14.2417169
20
169.5600659
11
14.2417169
21
169.2804659
0
LINE
8
DEFAULT_255_2_778
10
14.2417169
20
169.2804659
11
13.8647169
21
169.2804659
0
LINE
8
DEFAULT_255_2_778
10
13.8647169
20
169.2804659
11
13.8647169
21
169.5600659
0
LINE
8
DEFAULT_255_2_778
10
13.8647169
20
169.5600659
11
13.8647169
21
169.5600659
0
LINE
8
DEFAULT_255_2_778
10
13.8647169
20
169.5600659
11
13.8647169
21
169.5600659
0
LINE
8
DEFAULT_255_2_778
10
13.8647169
20
169.5600659
11
13.8647169
21
169.5600659
0
LINE
8
DEFAULT_255_2_778
10
19.7818169
20
168.8184659
11
19.7818169
21
168.8184659
0
LINE
8
DEFAULT_255_2_778
10
19.7818169
20
168.8184659
11
19.6143169
21
168.8882659
0
LINE
8
DEFAULT_255_2_778
10
19.6143169
20
168.8882659
11
19.6143169
21
168.8882659
0
LINE
8
DEFAULT_255_2_778
10
18.9272169
20
168.8255659
11
18.9272169
21
168.8255659
0
LINE
8
DEFAULT_255_2_778
10
18.9272169
20
168.8255659
11
18.9272169
21
169.0801659
0
LINE
8
DEFAULT_255_2_778
10
18.9272169
20
169.0801659
11
19.8673169
21
169.0801659
0
LINE
8
DEFAULT_255_2_778
10
19.8673169
20
169.0801659
11
19.8673169
21
169.0801659
0
LINE
8
DEFAULT_255_2_778
10
19.8673169
20
169.0801659
11
19.8673169
21
169.0801659
0
LINE
8
DEFAULT_255_2_778
10
19.8673169
20
169.0801659
11
19.8673169
21
169.0801659
0
LINE
8
DEFAULT_255_2_778
10
19.3042169
20
169.5598659
11
19.3042169
21
169.5598659
0
LINE
8
DEFAULT_255_2_778
10
19.3042169
20
169.5598659
11
19.3042169
21
169.2804659
0
LINE
8
DEFAULT_255_2_778
10
19.3042169
20
169.2804659
11
18.9272169
21
169.2804659
0
LINE
8
DEFAULT_255_2_778
10
18.9272169
20
169.2804659
11
18.9272169
21
169.5600659
0
LINE
8
DEFAULT_255_2_778
10
18.9272169
20
169.5600659
11
18.9272169
21
169.5600659
0
LINE
8
DEFAULT_255_2_778
10
18.9272169
20
169.5600659
11
18.9272169
21
169.5600659
0
LINE
8
DEFAULT_255_2_778
10
18.9272169
20
169.5600659
11
18.9272169
21
169.5598659
0
LINE
8
DEFAULT_255_1_388
10
10.061632
20
165.8037468
11
10.2360199
21
165.8037468
0
LINE
8
DEFAULT_255_1_388
10
9.2231242
20
165.9826525
11
9.2231242
21
166.1091516
0
LINE
8
DEFAULT_255_1_388
10
10.2360199
20
166.2790217
11
10.061632
21
166.2790217
0
LINE
8
DEFAULT_255_1_388
10
9.3975121
20
166.1046337
11
9.3975121
21
165.9772312
0
ARC
8
DEFAULT_255_1_388
10
9.6194433
20
165.8709329
40
0.6202263
50
340.1774904
51
353.7812217
0
ARC
8
DEFAULT_255_1_388
10
9.7962286
20
165.8050893
40
0.4315926
50
311.4560052
51
340.4420756
0
ARC
8
DEFAULT_255_1_388
10
9.7924826
20
165.8175665
40
0.4434573
50
282.4332229
51
310.7514507
0
ARC
8
DEFAULT_255_1_388
10
9.7430644
20
166.0217703
40
0.6535262
50
269.9358869
51
282.8096729
0
ARC
8
DEFAULT_255_1_388
10
9.7372583
20
166.1730329
40
0.8048043
50
269.9995752
51
270.3612856
0
ARC
8
DEFAULT_255_1_388
10
9.7313073
20
165.8931781
40
0.5249831
50
250.7885263
51
270.6488451
0
ARC
8
DEFAULT_255_1_388
10
9.7123898
20
165.8214853
40
0.4510942
50
219.3628377
51
250.0611024
0
ARC
8
DEFAULT_255_1_388
10
9.8056772
20
165.9007653
40
0.5735046
50
193.5480293
51
219.5755675
0
ARC
8
DEFAULT_255_1_388
10
10.0724981
20
165.970052
40
0.849146
50
181.1220183
51
193.8754971
0
ARC
8
DEFAULT_255_1_388
10
10.3048214
20
165.9824914
40
1.0816971
50
179.9914644
51
181.5398227
0
ARC
8
DEFAULT_255_1_388
10
10.0971525
20
166.1133586
40
0.8740384
50
169.5837606
51
180.275782
0
ARC
8
DEFAULT_255_1_388
10
9.8904873
20
166.1515439
40
0.6638751
50
155.0367033
51
169.6002779
0
ARC
8
DEFAULT_255_1_388
10
9.7627331
20
166.2131336
40
0.5220662
50
136.7831557
51
155.2472983
0
ARC
8
DEFAULT_255_1_388
10
9.7189122
20
166.2503577
40
0.4646502
50
121.7633063
51
136.4281161
0
ARC
8
DEFAULT_255_1_388
10
9.7340962
20
166.2223049
40
0.4964979
50
95.6460018
51
121.5489589
0
ARC
8
DEFAULT_255_1_388
10
9.7517936
20
166.0975704
40
0.6223912
50
89.9245727
51
96.1375919
0
ARC
8
DEFAULT_255_1_388
10
9.7574641
20
166.1109721
40
0.6090084
50
76.6779212
51
90.456405
0
ARC
8
DEFAULT_255_1_388
10
9.8017454
20
166.289906
40
0.42469
50
47.4858803
51
76.9287069
0
ARC
8
DEFAULT_255_1_388
10
9.7852068
20
166.2786623
40
0.4441778
50
16.5424081
51
46.8934505
0
ARC
8
DEFAULT_255_1_388
10
9.6043118
20
166.2192265
40
0.6345318
50
5.4072971
51
17.0363711
0
ARC
8
DEFAULT_255_1_388
10
9.4424843
20
166.1932304
40
0.6250632
50
7.8888693
51
15.9242022
0
ARC
8
DEFAULT_255_1_388
10
9.6659828
20
166.2581309
40
0.3923364
50
15.7650676
51
27.9410069
0
ARC
8
DEFAULT_255_1_388
10
9.7901997
20
166.3246317
40
0.2514401
50
27.8167196
51
46.4007942
0
ARC
8
DEFAULT_255_1_388
10
9.7957839
20
166.3239882
40
0.2480958
50
47.4372362
51
75.0695672
0
ARC
8
DEFAULT_255_1_388
10
9.7610675
20
166.2031277
40
0.3738281
50
74.7009379
51
87.8124314
0
ARC
8
DEFAULT_255_1_388
10
9.7528292
20
166.0847659
40
0.4924321
50
87.3802571
51
90.0251599
0
ARC
8
DEFAULT_255_1_388
10
9.7484939
20
166.2167997
40
0.3604218
50
89.3451886
51
108.5744412
0
ARC
8
DEFAULT_255_1_388
10
9.7330931
20
166.2745836
40
0.3007661
50
109.2998307
51
143.3037387
0
ARC
8
DEFAULT_255_1_388
10
9.8188221
20
166.2086584
40
0.4089031
50
143.075267
51
163.1918576
0
ARC
8
DEFAULT_255_1_388
10
10.0384055
20
166.1393652
40
0.6391492
50
162.9375929
51
174.6208776
0
ARC
8
DEFAULT_255_1_388
10
10.3338437
20
166.1069711
40
0.9363344
50
174.342123
51
180.1430283
0
ARC
8
DEFAULT_255_1_388
10
10.2290978
20
165.9726117
40
0.8315986
50
179.6817261
51
189.150555
0
ARC
8
DEFAULT_255_1_388
10
9.9477727
20
165.9257559
40
0.5464044
50
188.9911061
51
203.5772363
0
ARC
8
DEFAULT_255_1_388
10
9.8263019
20
165.8753539
40
0.4149206
50
203.9075402
51
215.1312435
0
ARC
8
DEFAULT_255_1_388
10
9.7224817
20
165.7948907
40
0.2837747
50
213.9071511
51
263.8848919
0
ARC
8
DEFAULT_255_1_388
10
9.736581
20
165.8831519
40
0.3730641
50
263.1757928
51
270.1031044
0
ARC
8
DEFAULT_255_1_388
10
9.740189
20
166.0234511
40
0.5133712
50
269.6722503
51
279.0606936
0
ARC
8
DEFAULT_255_1_388
10
9.7702045
20
165.842015
40
0.3294739
50
278.8749101
51
293.6349581
0
ARC
8
DEFAULT_255_1_388
10
9.8062249
20
165.7574251
40
0.2375405
50
293.8553806
51
310.0518171
0
ARC
8
DEFAULT_255_1_388
10
9.8067758
20
165.7504021
40
0.2318463
50
311.0644687
51
332.0111037
0
ARC
8
DEFAULT_255_1_388
10
9.6726431
20
165.8243702
40
0.3850112
50
331.6586806
51
343.2877423
0
ARC
8
DEFAULT_255_1_388
10
9.4405896
20
165.8956806
40
0.6277712
50
343.1446576
51
351.0103568
0
ARC
8
DEFAULT_255_1_388
10
9.277322
20
165.9256873
40
0.7937327
50
350.71248
51
351.1626997
0
LINE
8
DEFAULT_255_1_388
10
10.4022758
20
165.8724177
11
10.4022758
21
165.884164
0
LINE
8
DEFAULT_255_1_388
10
11.2922868
20
165.8760319
11
11.2922868
21
165.8642856
0
ARC
8
DEFAULT_255_1_388
10
11.0307202
20
165.887804
40
0.628455
50
166.3005265
51
180.3318609
0
ARC
8
DEFAULT_255_1_388
10
10.9336552
20
165.9095267
40
0.52901
50
153.8608648
51
166.0965672
0
ARC
8
DEFAULT_255_1_388
10
10.8587718
20
165.9496652
40
0.4441126
50
135.1317053
51
154.2534962
0
ARC
8
DEFAULT_255_1_388
10
10.8274369
20
165.9773431
40
0.4023863
50
121.7042632
51
134.7771455
0
ARC
8
DEFAULT_255_1_388
10
10.8349801
20
165.9628469
40
0.4186852
50
93.4001111
51
121.5399523
0
ARC
8
DEFAULT_255_1_388
10
10.8456635
20
165.8698759
40
0.5121521
50
89.9706387
51
93.9763381
0
ARC
8
DEFAULT_255_1_388
10
10.8509619
20
165.9138563
40
0.4681988
50
71.3321659
51
90.6162917
0
ARC
8
DEFAULT_255_1_388
10
10.8692653
20
165.9816003
40
0.3981841
50
41.1813875
51
70.7072086
0
ARC
8
DEFAULT_255_1_388
10
10.8155369
20
165.932813
40
0.4707474
50
12.1971434
51
41.3446641
0
ARC
8
DEFAULT_255_1_388
10
10.5988633
20
165.8812328
40
0.6934429
50
359.5702713
51
12.5803533
0
ARC
8
DEFAULT_255_1_388
10
10.6520949
20
165.8607207
40
0.6402018
50
347.0196754
51
0.3190452
0
ARC
8
DEFAULT_255_1_388
10
10.7599002
20
165.8375189
40
0.5299421
50
334.350439
51
346.8460534
0
ARC
8
DEFAULT_255_1_388
10
10.8550249
20
165.7881244
40
0.4228234
50
310.4228125
51
334.8045131
0
ARC
8
DEFAULT_255_1_388
10
10.8642227
20
165.7809301
40
0.4113892
50
301.8488154
51
310.0972985
0
ARC
8
DEFAULT_255_1_388
10
10.8605967
20
165.7894573
40
0.4205483
50
274.3078723
51
301.6554173
0
ARC
8
DEFAULT_255_1_388
10
10.8481423
20
165.8881943
40
0.5199658
50
269.954904
51
274.859116
0
ARC
8
DEFAULT_255_1_388
10
10.8426247
20
165.8318239
40
0.4636233
50
250.8887647
51
270.6313164
0
ARC
8
DEFAULT_255_1_388
10
10.8257407
20
165.7689405
40
0.398705
50
221.1701369
51
250.2227012
0
ARC
8
DEFAULT_255_1_388
10
10.8802073
20
165.8185716
40
0.4723796
50
191.6263861
51
221.3526879
0
ARC
8
DEFAULT_255_1_388
10
11.0925918
20
165.8677203
40
0.6903321
50
179.6101251
51
192.0694841
0
ARC
8
DEFAULT_255_1_388
10
11.1402266
20
165.8606681
40
0.5698993
50
179.636304
51
190.6161344
0
ARC
8
DEFAULT_255_1_388
10
10.9554598
20
165.8246635
40
0.3816643
50
190.4136062
51
208.7168709
0
ARC
8
DEFAULT_255_1_388
10
10.8980632
20
165.7961905
40
0.3176572
50
209.187109
51
217.4221816
0
ARC
8
DEFAULT_255_1_388
10
10.8385102
20
165.7437729
40
0.2385702
50
216.1156863
51
265.2575395
0
ARC
8
DEFAULT_255_1_388
10
10.8474139
20
165.8082608
40
0.3035941
50
264.5891546
51
270.0602378
0
ARC
8
DEFAULT_255_1_388
10
10.8511335
20
165.7655539
40
0.2609091
50
269.2532353
51
291.8793864
0
ARC
8
DEFAULT_255_1_388
10
10.8544214
20
165.7455359
40
0.241148
50
292.9269367
51
323.1777736
0
ARC
8
DEFAULT_255_1_388
10
10.80735
20
165.7868762
40
0.3036446
50
322.25666
51
323.087958
0
ARC
8
DEFAULT_255_1_388
10
10.7770757
20
165.8051332
40
0.3388345
50
323.6941379
51
343.8493587
0
ARC
8
DEFAULT_255_1_388
10
10.5995193
20
165.8591698
40
0.5244204
50
343.5746655
51
355.008149
0
ARC
8
DEFAULT_255_1_388
10
10.3736885
20
165.8825797
40
0.7514406
50
354.728272
51
0.1208026
0
ARC
8
DEFAULT_255_1_388
10
10.5725911
20
165.8877947
40
0.5525482
50
359.6235211
51
11.2016685
0
ARC
8
DEFAULT_255_1_388
10
10.7451738
20
165.9233284
40
0.3763527
50
10.9991302
51
30.8317616
0
ARC
8
DEFAULT_255_1_388
10
10.7897042
20
165.9467988
40
0.3260975
50
31.3007463
51
37.395541
0
ARC
8
DEFAULT_255_1_388
10
10.8455761
20
165.9939773
40
0.253082
50
36.5918894
51
62.2439906
0
ARC
8
DEFAULT_255_1_388
10
10.8508052
20
165.9936378
40
0.2509927
50
63.3364883
51
89.7193846
0
ARC
8
DEFAULT_255_1_388
10
10.8459506
20
165.9288375
40
0.3158485
50
88.8962924
51
90.004475
0
ARC
8
DEFAULT_255_1_388
10
10.8423933
20
165.9941071
40
0.250604
50
89.1923115
51
114.7099029
0
ARC
8
DEFAULT_255_1_388
10
10.8456275
20
165.9983675
40
0.2481307
50
115.7996284
51
142.2901353
0
ARC
8
DEFAULT_255_1_388
10
10.8924546
20
165.9564752
40
0.310833
50
141.4607507
51
142.383894
0
ARC
8
DEFAULT_255_1_388
10
10.9072397
20
165.9496449
40
0.3267335
50
143.0176473
51
163.2340089
0
ARC
8
DEFAULT_255_1_388
10
11.0847686
20
165.8934553
40
0.5129308
50
162.9446504
51
174.3733893
0
ARC
8
DEFAULT_255_1_388
10
11.3261659
20
165.8663483
40
0.75583
50
174.1225809
51
180.1563667
0
LINE
8
DEFAULT_255_1_388
10
11.5019137
20
166.3639567
11
11.6600375
21
166.3639567
0
LINE
8
DEFAULT_255_1_388
10
11.6600375
20
166.3639567
11
11.6654589
21
166.241072
0
LINE
8
DEFAULT_255_1_388
10
12.2708471
20
166.0323486
11
12.2708471
21
165.3863
0
LINE
8
DEFAULT_255_1_388
10
12.2708471
20
165.3863
11
12.1036876
21
165.3863
0
LINE
8
DEFAULT_255_1_388
10
12.1036876
20
165.3863
11
12.1036876
21
166.0332521
0
LINE
8
DEFAULT_255_1_388
10
11.6690731
20
166.0829482
11
11.6690731
21
165.3863
0
LINE
8
DEFAULT_255_1_388
10
11.6690731
20
165.3863
11
11.5019137
21
165.3863
0
LINE
8
DEFAULT_255_1_388
10
11.5019137
20
165.3863
11
11.5019137
21
166.3639567
0
ARC
8
DEFAULT_255_1_388
10
11.9584888
20
166.0147868
40
0.3702317
50
116.459579
51
142.3237674
0
ARC
8
DEFAULT_255_1_388
10
11.9521168
20
166.0124216
40
0.3695717
50
89.9344799
51
115.4117431
0
ARC
8
DEFAULT_255_1_388
10
11.9582217
20
165.9207477
40
0.4612803
50
90.0009789
51
90.7058119
0
ARC
8
DEFAULT_255_1_388
10
11.9651613
20
165.9904095
40
0.3916802
50
71.6503198
51
91.0163578
0
ARC
8
DEFAULT_255_1_388
10
12.0052678
20
166.1233483
40
0.2529032
50
13.4487463
51
70.7930078
0
ARC
8
DEFAULT_255_1_388
10
11.7463049
20
166.0412303
40
0.5242314
50
1.3250409
51
15.5955556
0
ARC
8
DEFAULT_255_1_388
10
11.5164291
20
166.0266495
40
0.7544396
50
0.4328171
51
2.0283925
0
ARC
8
DEFAULT_255_1_388
10
11.7260494
20
166.032166
40
0.3776398
50
0.1647891
51
8.9343738
0
ARC
8
DEFAULT_255_1_388
10
11.8679534
20
166.0552206
40
0.2338783
50
8.7538928
51
22.2899346
0
ARC
8
DEFAULT_255_1_388
10
11.9431964
20
166.0862479
40
0.1524893
50
22.2261896
51
42.6534349
0
ARC
8
DEFAULT_255_1_388
10
11.9503006
20
166.0889551
40
0.1454574
50
43.7652806
51
71.277358
0
ARC
8
DEFAULT_255_1_388
10
11.9216569
20
166.0094698
40
0.2299367
50
70.8751244
51
84.317538
0
ARC
8
DEFAULT_255_1_388
10
11.9085281
20
165.898887
40
0.3412827
50
83.9624774
51
90.1534326
0
ARC
8
DEFAULT_255_1_388
10
11.905404
20
165.9825668
40
0.2576111
50
89.5084243
51
108.792202
0
ARC
8
DEFAULT_255_1_388
10
11.8983408
20
166.0083171
40
0.2309638
50
109.1912151
51
125.3077659
0
ARC
8
DEFAULT_255_1_388
10
11.9350265
20
165.9564216
40
0.2945169
50
125.2968281
51
154.5573532
0
LINE
8
DEFAULT_255_1_388
10
12.5825768
20
166.6006906
11
12.7497362
21
166.6006906
0
LINE
8
DEFAULT_255_1_388
10
12.7497362
20
166.6006906
11
12.7497362
21
166.3639567
0
LINE
8
DEFAULT_255_1_388
10
12.7497362
20
166.3639567
11
12.9322563
21
166.3639567
0
LINE
8
DEFAULT_255_1_388
10
12.9322563
20
166.3639567
11
12.9322563
21
166.234747
0
LINE
8
DEFAULT_255_1_388
10
12.9322563
20
166.234747
11
12.7497362
21
166.234747
0
LINE
8
DEFAULT_255_1_388
10
12.7497362
20
166.234747
11
12.7497362
21
165.6284553
0
LINE
8
DEFAULT_255_1_388
10
12.9367741
20
165.5218347
11
12.9367741
21
165.3863
0
LINE
8
DEFAULT_255_1_388
10
12.5825768
20
165.6284553
11
12.5825768
21
166.234747
0
LINE
8
DEFAULT_255_1_388
10
12.5825768
20
166.234747
11
12.4045746
21
166.234747
0
LINE
8
DEFAULT_255_1_388
10
12.4045746
20
166.234747
11
12.4045746
21
166.3639567
0
LINE
8
DEFAULT_255_1_388
10
12.4045746
20
166.3639567
11
12.5825768
21
166.3639567
0
LINE
8
DEFAULT_255_1_388
10
12.5825768
20
166.3639567
11
12.5825768
21
166.6006906
0
ARC
8
DEFAULT_255_1_388
10
12.975587
20
165.6272842
40
0.2258538
50
179.7029045
51
187.9180047
0
ARC
8
DEFAULT_255_1_388
10
12.8916444
20
165.6152019
40
0.1410477
50
187.7540838
51
200.2454047
0
ARC
8
DEFAULT_255_1_388
10
12.8443349
20
165.5975591
40
0.0905561
50
200.1304287
51
219.1733455
0
ARC
8
DEFAULT_255_1_388
10
12.8290516
20
165.5871695
40
0.0721626
50
220.4434631
51
249.6169985
0
ARC
8
DEFAULT_255_1_388
10
12.8464742
20
165.6309919
40
0.1193141
50
249.1038184
51
262.7745376
0
ARC
8
DEFAULT_255_1_388
10
12.8563924
20
165.7017481
40
0.1907583
50
262.4921618
51
270.2607019
0
ARC
8
DEFAULT_255_1_388
10
12.8561006
20
165.7259817
40
0.2149929
50
270.309081
51
275.6615459
0
ARC
8
DEFAULT_255_1_388
10
12.8400414
20
165.8948342
40
0.3846066
50
275.5607354
51
279.087751
0
ARC
8
DEFAULT_255_1_388
10
12.8028346
20
166.1309428
40
0.6236283
50
279.0369545
51
281.5000133
0
ARC
8
DEFAULT_255_1_388
10
12.7637614
20
166.3286499
40
0.825157
50
281.4217093
51
282.1031556
0
ARC
8
DEFAULT_255_1_388
10
12.8013589
20
165.8743229
40
0.5064619
50
275.2597791
51
285.5081125
0
ARC
8
DEFAULT_255_1_388
10
12.8082603
20
165.8117452
40
0.4435166
50
270.0268175
51
275.1130565
0
ARC
8
DEFAULT_255_1_388
10
12.8060055
20
165.6624367
40
0.2942182
50
257.3572424
51
270.4795428
0
ARC
8
DEFAULT_255_1_388
10
12.7820325
20
165.5613952
40
0.1903838
50
230.8036715
51
257.7414447
0
ARC
8
DEFAULT_255_1_388
10
12.7743821
20
165.5490723
40
0.1760087
50
219.9745381
51
230.1985446
0
ARC
8
DEFAULT_255_1_388
10
12.8117108
20
165.5776116
40
0.2229598
50
196.5081334
51
219.4319996
0
ARC
8
DEFAULT_255_1_388
10
12.925972
20
165.6134617
40
0.3427033
50
184.6408645
51
196.8266009
0
ARC
8
DEFAULT_255_1_388
10
13.0660625
20
165.627601
40
0.4834863
50
179.8987586
51
184.9677262
0
LINE
8
DEFAULT_255_1_388
10
13.5999904
20
166.3693781
11
13.5999904
21
166.213965
0
LINE
8
DEFAULT_255_1_388
10
13.2945856
20
166.0802375
11
13.2945856
21
165.3863
0
LINE
8
DEFAULT_255_1_388
10
13.2945856
20
165.3863
11
13.1274262
21
165.3863
0
LINE
8
DEFAULT_255_1_388
10
13.1274262
20
165.3863
11
13.1274262
21
166.3639567
0
LINE
8
DEFAULT_255_1_388
10
13.1274262
20
166.3639567
11
13.2900678
21
166.3639567
0
LINE
8
DEFAULT_255_1_388
10
13.2900678
20
166.3639567
11
13.2927785
21
166.2510112
0
ARC
8
DEFAULT_255_1_388
10
13.5250064
20
165.7573068
40
0.4627735
50
80.6751522
51
86.893806
0
ARC
8
DEFAULT_255_1_388
10
13.5181893
20
165.6481103
40
0.5721798
50
86.8046851
51
90.0423898
0
ARC
8
DEFAULT_255_1_388
10
13.5140313
20
165.9248197
40
0.2954939
50
89.2758283
51
106.6212906
0
ARC
8
DEFAULT_255_1_388
10
13.4910338
20
166.0084009
40
0.2088351
50
107.1347109
51
157.6456887
0
ARC
8
DEFAULT_255_1_388
10
13.56784
20
165.9656908
40
0.296292
50
155.6557383
51
157.256838
0
ARC
8
DEFAULT_255_1_388
10
13.5458014
20
166.0967472
40
0.296341
50
127.8167201
51
148.6300223
0
ARC
8
DEFAULT_255_1_388
10
13.5172761
20
166.1260066
40
0.2557782
50
91.3329934
51
126.7875218
0
ARC
8
DEFAULT_255_1_388
10
13.5258149
20
166.0456718
40
0.3363561
50
89.9858247
51
92.4688453
0
ARC
8
DEFAULT_255_1_388
10
13.5267642
20
166.0765114
40
0.3055179
50
85.3587643
51
90.1624243
0
ARC
8
DEFAULT_255_1_388
10
13.5362707
20
166.1894458
40
0.1921848
50
78.4019195
51
85.4592653
0
ARC
8
DEFAULT_255_1_388
10
13.5525768
20
166.2672142
40
0.1127267
50
67.7849217
51
78.573798
0
ARC
8
DEFAULT_255_1_388
10
13.5647402
20
166.2987374
40
0.0789473
50
63.4805074
51
67.3074739
0
LINE
8
DEFAULT_255_1_388
10
13.6912504
20
165.8724177
11
13.6912504
21
165.884164
0
LINE
8
DEFAULT_255_1_388
10
14.5812614
20
165.8760319
11
14.5812614
21
165.8642856
0
ARC
8
DEFAULT_255_1_388
10
14.3196948
20
165.887804
40
0.628455
50
166.3005265
51
180.3318609
0
ARC
8
DEFAULT_255_1_388
10
14.2226298
20
165.9095267
40
0.52901
50
153.8608648
51
166.0965672
0
ARC
8
DEFAULT_255_1_388
10
14.1477464
20
165.9496652
40
0.4441126
50
135.1317053
51
154.2534962
0
ARC
8
DEFAULT_255_1_388
10
14.1164115
20
165.9773431
40
0.4023863
50
121.7042632
51
134.7771455
0
ARC
8
DEFAULT_255_1_388
10
14.1239547
20
165.9628469
40
0.4186852
50
93.4001111
51
121.5399523
0
ARC
8
DEFAULT_255_1_388
10
14.1346381
20
165.8698759
40
0.5121521
50
89.9706387
51
93.9763381
0
ARC
8
DEFAULT_255_1_388
10
14.1399365
20
165.9138563
40
0.4681988
50
71.3321659
51
90.6162917
0
ARC
8
DEFAULT_255_1_388
10
14.1582399
20
165.9816003
40
0.3981841
50
41.1813875
51
70.7072086
0
ARC
8
DEFAULT_255_1_388
10
14.1045115
20
165.932813
40
0.4707474
50
12.1971434
51
41.3446641
0
ARC
8
DEFAULT_255_1_388
10
13.8878379
20
165.8812328
40
0.6934429
50
359.5702713
51
12.5803533
0
ARC
8
DEFAULT_255_1_388
10
13.9410695
20
165.8607207
40
0.6402018
50
347.0196754
51
0.3190452
0
ARC
8
DEFAULT_255_1_388
10
14.0488748
20
165.8375189
40
0.5299421
50
334.350439
51
346.8460534
0
ARC
8
DEFAULT_255_1_388
10
14.1439995
20
165.7881244
40
0.4228234
50
310.4228125
51
334.8045131
0
ARC
8
DEFAULT_255_1_388
10
14.1531973
20
165.7809301
40
0.4113892
50
301.8488154
51
310.0972985
0
ARC
8
DEFAULT_255_1_388
10
14.1495713
20
165.7894573
40
0.4205483
50
274.3078723
51
301.6554173
0
ARC
8
DEFAULT_255_1_388
10
14.1371169
20
165.8881943
40
0.5199658
50
269.954904
51
274.859116
0
ARC
8
DEFAULT_255_1_388
10
14.1315993
20
165.8318239
40
0.4636233
50
250.8887647
51
270.6313164
0
ARC
8
DEFAULT_255_1_388
10
14.1147154
20
165.7689405
40
0.398705
50
221.1701369
51
250.2227012
0
ARC
8
DEFAULT_255_1_388
10
14.1691819
20
165.8185716
40
0.4723796
50
191.6263861
51
221.3526879
0
ARC
8
DEFAULT_255_1_388
10
14.3815664
20
165.8677203
40
0.6903321
50
179.6101251
51
192.0694841
0
ARC
8
DEFAULT_255_1_388
10
14.4292012
20
165.8606681
40
0.5698993
50
179.636304
51
190.6161344
0
ARC
8
DEFAULT_255_1_388
10
14.2444344
20
165.8246635
40
0.3816643
50
190.4136062
51
208.7168709
0
ARC
8
DEFAULT_255_1_388
10
14.1870378
20
165.7961905
40
0.3176572
50
209.187109
51
217.4221816
0
ARC
8
DEFAULT_255_1_388
10
14.1274848
20
165.7437729
40
0.2385702
50
216.1156863
51
265.2575395
0
ARC
8
DEFAULT_255_1_388
10
14.1363885
20
165.8082608
40
0.3035941
50
264.5891546
51
270.0602378
0
ARC
8
DEFAULT_255_1_388
10
14.1401081
20
165.7655539
40
0.2609091
50
269.2532353
51
291.8793864
0
ARC
8
DEFAULT_255_1_388
10
14.143396
20
165.7455359
40
0.241148
50
292.9269367
51
323.1777736
0
ARC
8
DEFAULT_255_1_388
10
14.0963246
20
165.7868762
40
0.3036446
50
322.25666
51
323.087958
0
ARC
8
DEFAULT_255_1_388
10
14.0660503
20
165.8051332
40
0.3388345
50
323.6941379
51
343.8493587
0
ARC
8
DEFAULT_255_1_388
10
13.888494
20
165.8591698
40
0.5244204
50
343.5746655
51
355.008149
0
ARC
8
DEFAULT_255_1_388
10
13.6626631
20
165.8825797
40
0.7514406
50
354.728272
51
0.1208026
0
ARC
8
DEFAULT_255_1_388
10
13.8615657
20
165.8877947
40
0.5525482
50
359.6235211
51
11.2016685
0
ARC
8
DEFAULT_255_1_388
10
14.0341484
20
165.9233284
40
0.3763527
50
10.9991302
51
30.8317616
0
ARC
8
DEFAULT_255_1_388
10
14.0786788
20
165.9467988
40
0.3260975
50
31.3007463
51
37.395541
0
ARC
8
DEFAULT_255_1_388
10
14.1345507
20
165.9939773
40
0.253082
50
36.5918894
51
62.2439906
0
ARC
8
DEFAULT_255_1_388
10
14.1397799
20
165.9936378
40
0.2509927
50
63.3364883
51
89.7193846
0
ARC
8
DEFAULT_255_1_388
10
14.1349252
20
165.9288375
40
0.3158485
50
88.8962924
51
90.004475
0
ARC
8
DEFAULT_255_1_388
10
14.1313679
20
165.9941071
40
0.250604
50
89.1923115
51
114.7099029
0
ARC
8
DEFAULT_255_1_388
10
14.1346021
20
165.9983675
40
0.2481307
50
115.7996284
51
142.2901353
0
ARC
8
DEFAULT_255_1_388
10
14.1814292
20
165.9564752
40
0.310833
50
141.4607507
51
142.383894
0
ARC
8
DEFAULT_255_1_388
10
14.1962143
20
165.9496449
40
0.3267335
50
143.0176473
51
163.2340089
0
ARC
8
DEFAULT_255_1_388
10
14.3737432
20
165.8934553
40
0.5129308
50
162.9446504
51
174.3733893
0
ARC
8
DEFAULT_255_1_388
10
14.6151405
20
165.8663483
40
0.75583
50
174.1225809
51
180.1563667
0
LINE
8
DEFAULT_255_1_388
10
14.9725048
20
166.774175
11
14.9725048
21
165.3863
0
LINE
8
DEFAULT_255_1_388
10
14.9725048
20
165.3863
11
14.8053454
21
165.3863
0
LINE
8
DEFAULT_255_1_388
10
14.8053454
20
165.3863
11
14.8053454
21
166.774175
0
LINE
8
DEFAULT_255_1_388
10
14.8053454
20
166.774175
11
14.9725048
21
166.774175
0
LINE
8
DEFAULT_255_1_388
10
16.0097968
20
166.1362585
11
16.0097968
21
165.9943989
0
LINE
8
DEFAULT_255_1_388
10
16.0097968
20
165.9943989
11
15.4396476
21
165.9943989
0
LINE
8
DEFAULT_255_1_388
10
15.4396476
20
165.9943989
11
15.4396476
21
165.5281596
0
LINE
8
DEFAULT_255_1_388
10
15.4396476
20
165.5281596
11
16.1019604
21
165.5281596
0
LINE
8
DEFAULT_255_1_388
10
16.1019604
20
165.5281596
11
16.1019604
21
165.3863
0
LINE
8
DEFAULT_255_1_388
10
16.1019604
20
165.3863
11
15.2661632
21
165.3863
0
LINE
8
DEFAULT_255_1_388
10
15.2661632
20
165.3863
11
15.2661632
21
166.7018898
0
LINE
8
DEFAULT_255_1_388
10
15.2661632
20
166.7018898
11
16.0929247
21
166.7018898
0
LINE
8
DEFAULT_255_1_388
10
16.0929247
20
166.7018898
11
16.0929247
21
166.5591267
0
LINE
8
DEFAULT_255_1_388
10
16.0929247
20
166.5591267
11
15.4396476
21
166.5591267
0
LINE
8
DEFAULT_255_1_388
10
15.4396476
20
166.5591267
11
15.4396476
21
166.1362585
0
LINE
8
DEFAULT_255_1_388
10
15.4396476
20
166.1362585
11
16.0097968
21
166.1362585
0
LINE
8
DEFAULT_255_1_388
10
16.2338808
20
165.8706105
11
16.2338808
21
165.8832604
0
LINE
8
DEFAULT_255_1_388
10
16.8916757
20
166.2645646
11
16.8916757
21
166.774175
0
LINE
8
DEFAULT_255_1_388
10
16.8916757
20
166.774175
11
17.0588351
21
166.774175
0
LINE
8
DEFAULT_255_1_388
10
17.0588351
20
166.774175
11
17.0588351
21
165.3863
0
LINE
8
DEFAULT_255_1_388
10
17.0588351
20
165.3863
11
16.9052292
21
165.3863
0
LINE
8
DEFAULT_255_1_388
10
16.9052292
20
165.3863
11
16.8970971
21
165.4911135
0
LINE
8
DEFAULT_255_1_388
10
16.8916757
20
165.6528515
11
16.8916757
21
166.101923
0
ARC
8
DEFAULT_255_1_388
10
17.0073501
20
165.8882084
40
0.7734851
50
169.1662656
51
180.3665225
0
ARC
8
DEFAULT_255_1_388
10
16.760241
20
165.9374773
40
0.5215235
50
150.2837807
51
169.3798657
0
ARC
8
DEFAULT_255_1_388
10
16.6889862
20
165.9739124
40
0.4415937
50
142.1063912
51
149.8065902
0
ARC
8
DEFAULT_255_1_388
10
16.6246073
20
166.0299913
40
0.3563766
50
118.4282495
51
142.8642233
0
ARC
8
DEFAULT_255_1_388
10
16.6135085
20
166.0370109
40
0.3449797
50
89.9199141
51
117.3621403
0
ARC
8
DEFAULT_255_1_388
10
16.6196937
20
165.9495171
40
0.4325108
50
89.9988001
51
90.7555106
0
ARC
8
DEFAULT_255_1_388
10
16.6239015
20
165.9782362
40
0.4038136
50
72.8979482
51
90.595751
0
ARC
8
DEFAULT_255_1_388
10
16.6461695
20
166.0586099
40
0.3204539
50
39.9932308
51
72.4773248
0
ARC
8
DEFAULT_255_1_388
10
16.6428786
20
165.6972007
40
0.3272598
50
275.0849466
51
320.9693562
0
ARC
8
DEFAULT_255_1_388
10
16.6187702
20
165.8397895
40
0.4715615
50
269.8937433
51
276.4672347
0
ARC
8
DEFAULT_255_1_388
10
16.6111242
20
165.697215
40
0.3290559
50
222.0839188
51
271.1791339
0
ARC
8
DEFAULT_255_1_388
10
16.6798752
20
165.7675998
40
0.4272982
50
217.5168262
51
222.9097935
0
ARC
8
DEFAULT_255_1_388
10
16.7353624
20
165.8057851
40
0.4945763
50
193.0962732
51
217.1109075
0
ARC
8
DEFAULT_255_1_388
10
16.9555354
20
165.8607252
40
0.7214806
50
181.1071959
51
193.3839643
0
ARC
8
DEFAULT_255_1_388
10
17.143973
20
165.8704904
40
0.9100921
50
179.9924355
51
181.4926257
0
ARC
8
DEFAULT_255_1_388
10
17.0511088
20
165.8607904
40
0.650078
50
179.6919448
51
188.655086
0
ARC
8
DEFAULT_255_1_388
10
16.8239144
20
165.8250086
40
0.420088
50
188.4934981
51
202.2188222
0
ARC
8
DEFAULT_255_1_388
10
16.7150951
20
165.7818888
40
0.3030458
50
202.4516374
51
215.9308342
0
ARC
8
DEFAULT_255_1_388
10
16.6484375
20
165.728769
40
0.2179351
50
214.9061987
51
264.2076983
0
ARC
8
DEFAULT_255_1_388
10
16.6589913
20
165.7959867
40
0.2858989
50
263.4629438
51
270.0938577
0
ARC
8
DEFAULT_255_1_388
10
16.6634847
20
165.785673
40
0.2756141
50
269.1632216
51
291.0932257
0
ARC
8
DEFAULT_255_1_388
10
16.6726752
20
165.7483218
40
0.2375078
50
292.2675188
51
328.1937653
0
ARC
8
DEFAULT_255_1_388
10
16.594941
20
165.8044245
40
0.3332054
50
327.040169
51
332.941918
0
ARC
8
DEFAULT_255_1_388
10
16.6413623
20
165.9706122
40
0.2826647
50
27.6808655
51
48.7895461
0
ARC
8
DEFAULT_255_1_388
10
16.6732259
20
165.9999738
40
0.2396281
50
49.8958562
51
87.0102063
0
ARC
8
DEFAULT_255_1_388
10
16.6615103
20
165.9113941
40
0.3287745
50
85.7763593
51
90.0424518
0
ARC
8
DEFAULT_255_1_388
10
16.658217
20
165.9855766
40
0.25461
50
89.3136862
51
109.426258
0
ARC
8
DEFAULT_255_1_388
10
16.6498592
20
166.019891
40
0.2194978
50
110.3479382
51
145.1577921
0
ARC
8
DEFAULT_255_1_388
10
16.7234072
20
165.966319
40
0.3104736
50
144.7981654
51
162.8715843
0
ARC
8
DEFAULT_255_1_388
10
16.9140672
20
165.9050138
40
0.5107383
50
162.598526
51
173.3417416
0
ARC
8
DEFAULT_255_1_388
10
17.2142045
20
165.8677767
40
0.8131718
50
173.1877249
51
180.2459848
0
LINE
8
DEFAULT_255_1_388
10
17.9434247
20
166.255529
11
17.9515568
21
166.3639567
0
LINE
8
DEFAULT_255_1_388
10
17.9515568
20
166.3639567
11
18.1042592
21
166.3639567
0
LINE
8
DEFAULT_255_1_388
10
18.1042592
20
166.3639567
11
18.1042592
21
165.4097927
0
LINE
8
DEFAULT_255_1_388
10
17.3280973
20
165.1703481
11
17.4148395
21
165.2706438
0
LINE
8
DEFAULT_255_1_388
10
17.9361962
20
165.3998535
11
17.9361962
21
165.483885
0
LINE
8
DEFAULT_255_1_388
10
17.9361962
20
165.6537551
11
17.9361962
21
166.1001159
0
ARC
8
DEFAULT_255_1_388
10
18.082294
20
165.888122
40
0.8039074
50
169.8802333
51
180.3464902
0
ARC
8
DEFAULT_255_1_388
10
17.8175746
20
165.937287
40
0.5346711
50
152.8534324
51
170.0824729
0
ARC
8
DEFAULT_255_1_388
10
17.723814
20
165.9816868
40
0.4309932
50
142.0147746
51
152.418569
0
ARC
8
DEFAULT_255_1_388
10
17.6521589
20
166.0469169
40
0.3344504
50
94.3317494
51
143.2674518
0
ARC
8
DEFAULT_255_1_388
10
17.6638448
20
165.9588903
40
0.423138
50
89.9487512
51
95.0093077
0
ARC
8
DEFAULT_255_1_388
10
17.6685246
20
165.9768021
40
0.4052487
50
72.9496911
51
90.6081488
0
ARC
8
DEFAULT_255_1_388
10
17.6915969
20
166.0603718
40
0.3185963
50
37.7743532
51
72.5099202
0
ARC
8
DEFAULT_255_1_388
10
17.5880836
20
165.4054774
40
0.5161937
50
346.3655403
51
0.4789834
0
ARC
8
DEFAULT_255_1_388
10
17.7419669
20
165.3663644
40
0.3574311
50
314.3365584
51
346.6438898
0
ARC
8
DEFAULT_255_1_388
10
17.7304813
20
165.38249
40
0.3770042
50
280.7144
51
313.872307
0
ARC
8
DEFAULT_255_1_388
10
17.6927549
20
165.5506099
40
0.5492378
50
269.6628653
51
281.3208129
0
ARC
8
DEFAULT_255_1_388
10
17.6909208
20
165.5042105
40
0.5028309
50
245.5258654
51
269.8407328
0
ARC
8
DEFAULT_255_1_388
10
17.6480054
20
165.4237065
40
0.4118207
50
232.6664457
51
246.3200328
0
ARC
8
DEFAULT_255_1_388
10
17.5935298
20
165.3514386
40
0.3213227
50
214.3036526
51
232.5750527
0
ARC
8
DEFAULT_255_1_388
10
17.719333
20
165.5118259
40
0.3884393
50
218.381912
51
236.3657409
0
ARC
8
DEFAULT_255_1_388
10
17.67431
20
165.4490326
40
0.3112322
50
236.8637655
51
270.6382272
0
ARC
8
DEFAULT_255_1_388
10
17.6804783
20
165.4862587
40
0.3484494
50
269.5557858
51
282.3972101
0
ARC
8
DEFAULT_255_1_388
10
17.7070368
20
165.3720767
40
0.2312324
50
282.043923
51
308.3079272
0
ARC
8
DEFAULT_255_1_388
10
17.7166482
20
165.356747
40
0.2132542
50
308.8347234
51
315.2037678
0
ARC
8
DEFAULT_255_1_388
10
17.7078192
20
165.3632123
40
0.2240808
50
315.6213011
51
345.6795376
0
ARC
8
DEFAULT_255_1_388
10
17.5976617
20
165.3938736
40
0.3384084
50
345.2627538
51
358.6311244
0
ARC
8
DEFAULT_255_1_388
10
17.4978123
20
165.3997581
40
0.4383839
50
358.1739988
51
0.0124651
0
ARC
8
DEFAULT_255_1_388
10
17.6872298
20
165.6991381
40
0.3291173
50
275.6950404
51
319.1537182
0
ARC
8
DEFAULT_255_1_388
10
17.6633929
20
165.8369049
40
0.4686772
50
269.8805882
51
276.9235205
0
ARC
8
DEFAULT_255_1_388
10
17.657423
20
165.71199
40
0.3437976
50
244.0748846
51
270.8321697
0
ARC
8
DEFAULT_255_1_388
10
17.6658738
20
165.7142423
40
0.3495805
50
217.781776
51
242.9905232
0
ARC
8
DEFAULT_255_1_388
10
17.7334169
20
165.7743567
40
0.4398355
50
217.5209891
51
218.58043
0
ARC
8
DEFAULT_255_1_388
10
17.7650008
20
165.792913
40
0.4762087
50
195.3497149
51
216.9773048
0
ARC
8
DEFAULT_255_1_388
10
17.9925897
20
165.8590667
40
0.7131994
50
183.9387193
51
195.6348167
0
ARC
8
DEFAULT_255_1_388
10
18.2486091
20
165.8820646
40
0.9702086
50
179.929381
51
184.2551265
0
ARC
8
DEFAULT_255_1_388
10
18.0999758
20
165.8608515
40
0.6535206
50
179.6989243
51
188.5749266
0
ARC
8
DEFAULT_255_1_388
10
17.8734949
20
165.8254789
40
0.4242988
50
188.4117627
51
202.0559679
0
ARC
8
DEFAULT_255_1_388
10
17.7645209
20
165.7826952
40
0.3072368
50
202.2924994
51
215.4475859
0
ARC
8
DEFAULT_255_1_388
10
17.6920279
20
165.7265576
40
0.2156547
50
214.4673097
51
264.3362727
0
ARC
8
DEFAULT_255_1_388
10
17.7034948
20
165.7981673
40
0.2880794
50
263.4723224
51
270.0965288
0
ARC
8
DEFAULT_255_1_388
10
17.7080183
20
165.7813896
40
0.2713313
50
269.1472473
51
291.7978484
0
ARC
8
DEFAULT_255_1_388
10
17.7150443
20
165.7500081
40
0.2396396
50
293.0243185
51
327.6232391
0
ARC
8
DEFAULT_255_1_388
10
17.6353877
20
165.8082435
40
0.3381603
50
326.5171836
51
332.8160011
0
ARC
8
DEFAULT_255_1_388
10
17.6749058
20
165.9612272
40
0.29591
50
27.9928465
51
47.6314088
0
ARC
8
DEFAULT_255_1_388
10
17.7155763
20
165.9999256
40
0.2399437
50
48.5793547
51
88.6245273
0
ARC
8
DEFAULT_255_1_388
10
17.7058882
20
165.9159448
40
0.3242237
50
87.2690754
51
90.0178312
0
ARC
8
DEFAULT_255_1_388
10
17.7026581
20
165.9897957
40
0.2503923
50
89.2839515
51
110.1847982
0
ARC
8
DEFAULT_255_1_388
10
17.6957381
20
166.0197002
40
0.2199699
50
111.180781
51
145.0423499
0
ARC
8
DEFAULT_255_1_388
10
17.7318243
20
165.9884759
40
0.2674811
50
143.9895932
51
144.106678
0
ARC
8
DEFAULT_255_1_388
10
17.7688313
20
165.966319
40
0.3104736
50
144.7981654
51
162.8715843
0
ARC
8
DEFAULT_255_1_388
10
17.9594912
20
165.9050138
40
0.5107383
50
162.598526
51
173.3417416
0
ARC
8
DEFAULT_255_1_388
10
18.2596286
20
165.8677767
40
0.8131718
50
173.1877249
51
180.2459848
0
LINE
8
DEFAULT_255_1_388
10
18.3138861
20
165.8480214
11
18.3138861
21
165.8787426
0
LINE
8
DEFAULT_255_1_388
10
19.1433583
20
165.8968139
11
19.1433583
21
165.8272395
0
LINE
8
DEFAULT_255_1_388
10
19.1433583
20
165.8272395
11
18.4810456
21
165.8272395
0
LINE
8
DEFAULT_255_1_388
10
19.0286056
20
165.6365874
11
19.1307084
21
165.5570737
0
LINE
8
DEFAULT_255_1_388
10
18.4864669
20
165.9645813
11
18.9761989
21
165.9645813
0
LINE
8
DEFAULT_255_1_388
10
18.9761989
20
165.9645813
11
18.9761989
21
165.9772312
0
ARC
8
DEFAULT_255_1_388
10
18.7570622
20
165.860521
40
0.4923176
50
252.326534
51
270.5809615
0
ARC
8
DEFAULT_255_1_388
10
18.7340087
20
165.777194
40
0.4059384
50
223.3000488
51
251.8562489
0
ARC
8
DEFAULT_255_1_388
10
18.7577867
20
165.8002898
40
0.4390832
50
190.9374369
51
223.3654369
0
ARC
8
DEFAULT_255_1_388
10
18.9518545
20
165.8441598
40
0.63798
50
179.6531919
51
191.4988561
0
ARC
8
DEFAULT_255_1_388
10
18.9655572
20
165.8823571
40
0.6516811
50
167.4005523
51
180.3177836
0
ARC
8
DEFAULT_255_1_388
10
18.8472243
20
165.9073853
40
0.5307402
50
154.1835149
51
167.2508278
0
ARC
8
DEFAULT_255_1_388
10
18.7761834
20
165.9447925
40
0.4505076
50
134.3150225
51
154.5315008
0
ARC
8
DEFAULT_255_1_388
10
18.7517169
20
165.966255
40
0.4180662
50
122.8617482
51
133.9707159
0
ARC
8
DEFAULT_255_1_388
10
18.7400776
20
165.9912882
40
0.3907416
50
89.8248474
51
123.4199325
0
ARC
8
DEFAULT_255_1_388
10
18.7457074
20
165.9185352
40
0.4635141
50
74.7874349
51
90.5482648
0
ARC
8
DEFAULT_255_1_388
10
18.7787538
20
166.0405987
40
0.3370565
50
39.8178888
51
74.7634383
0
ARC
8
DEFAULT_255_1_388
10
18.721078
20
165.9956356
40
0.4101553
50
16.8990848
51
39.4830125
0
ARC
8
DEFAULT_255_1_388
10
18.5079395
20
165.9273711
40
0.6339427
50
4.9634768
51
17.2027767
0
ARC
8
DEFAULT_255_1_388
10
18.23588
20
165.89866
40
0.9074803
50
359.8834402
51
5.2832409
0
ARC
8
DEFAULT_255_1_388
10
18.9151157
20
165.8346981
40
0.4341343
50
180.9844233
51
194.9402766
0
ARC
8
DEFAULT_255_1_388
10
18.7970323
20
165.802417
40
0.3117211
50
194.8030557
51
222.0412897
0
ARC
8
DEFAULT_255_1_388
10
18.7628195
20
165.7684715
40
0.2635903
50
221.541578
51
268.8616004
0
ARC
8
DEFAULT_255_1_388
10
18.7710316
20
165.844528
40
0.3398611
50
267.7321071
51
270.009808
0
ARC
8
DEFAULT_255_1_388
10
18.7730379
20
165.8672178
40
0.3625561
50
269.6921218
51
280.4122297
0
ARC
8
DEFAULT_255_1_388
10
18.7928791
20
165.7638767
40
0.2573323
50
280.2257165
51
298.633539
0
ARC
8
DEFAULT_255_1_388
10
18.8054205
20
165.7374578
40
0.2281403
50
299.0485543
51
300.4624141
0
ARC
8
DEFAULT_255_1_388
10
18.7295185
20
165.8639796
40
0.3756797
50
300.6578578
51
322.037749
0
ARC
8
DEFAULT_255_1_388
10
18.6924706
20
165.8963266
40
0.4247956
50
321.671786
51
322.3059078
0
ARC
8
DEFAULT_255_1_388
10
18.7948269
20
165.7669267
40
0.3960488
50
276.9729088
51
328.0035579
0
ARC
8
DEFAULT_255_1_388
10
18.763674
20
165.9334609
40
0.5652345
50
269.8358003
51
278.0581296
0
ARC
8
DEFAULT_255_1_388
10
18.7381039
20
166.017282
40
0.2274263
50
89.2017936
51
117.2852353
0
ARC
8
DEFAULT_255_1_388
10
18.7440789
20
166.0125637
40
0.2343798
50
118.0546404
51
137.4544511
0
ARC
8
DEFAULT_255_1_388
10
18.7862433
20
165.9742556
40
0.2913471
50
137.5109688
51
158.8516701
0
ARC
8
DEFAULT_255_1_388
10
18.9142534
20
165.9225902
40
0.4293804
50
158.5845496
51
170.1719753
0
ARC
8
DEFAULT_255_1_388
10
19.0458869
20
165.8964519
40
0.5635533
50
169.8378964
51
173.0563877
0
ARC
8
DEFAULT_255_1_388
10
18.5174153
20
165.9539187
40
0.4593755
50
2.9089079
51
12.88469
0
ARC
8
DEFAULT_255_1_388
10
18.6716072
20
165.9902082
40
0.3009753
50
12.6957404
51
28.6405841
0
ARC
8
DEFAULT_255_1_388
10
18.7325569
20
166.0217577
40
0.232366
50
29.016559
51
41.1492981
0
ARC
8
DEFAULT_255_1_388
10
18.7553548
20
166.041608
40
0.2021373
50
41.1646967
51
85.001362
0
ARC
8
DEFAULT_255_1_388
10
18.7417552
20
165.9589775
40
0.2857091
50
83.728216
51
90.0968824
0
LINE
8
DEFAULT_255_2_778
10
9.3932417
20
158.6176645
11
10.7161417
21
158.6176645
0
LINE
8
DEFAULT_255_2_778
10
10.7161417
20
158.6176645
11
10.7161417
21
84.5343645
0
LINE
8
DEFAULT_255_2_778
10
10.7161417
20
79.2426645
11
10.7161417
21
5.1593645
0
LINE
8
DEFAULT_255_2_778
10
10.7161417
20
5.1593645
11
9.3932417
21
5.1593645
0
LINE
8
DEFAULT_255_2_778
10
9.3932834
20
84.5343333
11
12.0390834
21
84.5343333
0
LINE
8
DEFAULT_255_2_778
10
12.0390834
20
84.5343333
11
12.0390834
21
79.2426333
0
LINE
8
DEFAULT_255_2_778
10
12.0390834
20
79.2426333
11
9.3932834
21
79.2426333
0
LINE
8
DEFAULT_255_2_778
10
9.3932834
20
79.2426333
11
9.3932834
21
84.5343333
0
LINE
8
DEFAULT_255_2_778
10
10.187
20
79.7718666
11
10.187
21
84.0051666
0
LINE
8
DEFAULT_255_2_778
10
9.9224167
20
83.211475
11
10.1870167
21
84.005175
0
LINE
8
DEFAULT_255_2_778
10
10.1870167
20
84.005175
11
10.4516167
21
83.211475
0
LINE
8
DEFAULT_255_2_778
10
10.4516167
20
83.211475
11
9.9224167
21
83.211475
0
LINE
8
DEFAULT_255_2_778
10
11.2453
20
84.0051666
11
11.2453
21
79.7718666
0
LINE
8
DEFAULT_255_2_778
10
10.9807167
20
80.565675
11
11.2453167
21
79.771975
0
LINE
8
DEFAULT_255_2_778
10
11.2453167
20
79.771975
11
11.5099167
21
80.565675
0
LINE
8
DEFAULT_255_2_778
10
11.5099167
20
80.565675
11
10.9807167
21
80.565675
0
LINE
8
DEFAULT_255_1_388
10
4.1879448
20
164.7174898
11
4.5620205
21
163.6323089
0
LINE
8
DEFAULT_255_1_388
10
4.5620205
20
163.6323089
11
4.9379033
21
164.7174898
0
LINE
8
DEFAULT_255_1_388
10
4.9379033
20
164.7174898
11
5.1276518
21
164.7174898
0
LINE
8
DEFAULT_255_1_388
10
5.1276518
20
164.7174898
11
4.639727
21
163.4019
0
LINE
8
DEFAULT_255_1_388
10
4.639727
20
163.4019
11
4.486121
21
163.4019
0
LINE
8
DEFAULT_255_1_388
10
4.486121
20
163.4019
11
3.9990998
21
164.7174898
0
LINE
8
DEFAULT_255_1_388
10
3.9990998
20
164.7174898
11
4.1879448
21
164.7174898
0
LINE
8
DEFAULT_255_1_388
10
5.7565327
20
164.4915987
11
5.7565327
21
164.1075838
0
LINE
8
DEFAULT_255_1_388
10
5.7565327
20
164.1075838
11
6.1233798
21
164.1075838
0
LINE
8
DEFAULT_255_1_388
10
6.1233798
20
164.1075838
11
6.1233798
21
163.9494601
0
LINE
8
DEFAULT_255_1_388
10
6.1233798
20
163.9494601
11
5.7565327
21
163.9494601
0
LINE
8
DEFAULT_255_1_388
10
5.7565327
20
163.9494601
11
5.7565327
21
163.5338204
0
LINE
8
DEFAULT_255_1_388
10
5.7565327
20
163.5338204
11
5.5884697
21
163.5338204
0
LINE
8
DEFAULT_255_1_388
10
5.5884697
20
163.5338204
11
5.5884697
21
163.9494601
0
LINE
8
DEFAULT_255_1_388
10
5.5884697
20
163.9494601
11
5.2216225
21
163.9494601
0
LINE
8
DEFAULT_255_1_388
10
5.2216225
20
163.9494601
11
5.2216225
21
164.1075838
0
LINE
8
DEFAULT_255_1_388
10
5.2216225
20
164.1075838
11
5.5884697
21
164.1075838
0
LINE
8
DEFAULT_255_1_388
10
5.5884697
20
164.1075838
11
5.5884697
21
164.4915987
0
LINE
8
DEFAULT_255_1_388
10
5.5884697
20
164.4915987
11
5.7565327
21
164.4915987
0
LINE
8
DEFAULT_255_1_388
10
4.3188367
20
5.9674898
11
4.3188367
21
4.6519
0
LINE
8
DEFAULT_255_1_388
10
4.3188367
20
4.6519
11
4.1453523
21
4.6519
0
LINE
8
DEFAULT_255_1_388
10
4.1453523
20
4.6519
11
4.1453523
21
5.9674898
0
LINE
8
DEFAULT_255_1_388
10
4.1453523
20
5.9674898
11
4.3188367
21
5.9674898
0
LINE
8
DEFAULT_255_1_388
10
5.6470764
20
5.9674898
11
5.6470764
21
4.6519
0
LINE
8
DEFAULT_255_1_388
10
5.6470764
20
4.6519
11
5.4726885
21
4.6519
0
LINE
8
DEFAULT_255_1_388
10
5.4726885
20
4.6519
11
4.8103757
21
5.6656993
0
LINE
8
DEFAULT_255_1_388
10
4.8103757
20
5.6656993
11
4.8103757
21
4.6519
0
LINE
8
DEFAULT_255_1_388
10
4.8103757
20
4.6519
11
4.6359878
21
4.6519
0
LINE
8
DEFAULT_255_1_388
10
4.6359878
20
4.6519
11
4.6359878
21
5.9674898
0
LINE
8
DEFAULT_255_1_388
10
4.6359878
20
5.9674898
11
4.8103757
21
5.9674898
0
LINE
8
DEFAULT_255_1_388
10
4.8103757
20
5.9674898
11
5.4744956
21
4.9491727
0
LINE
8
DEFAULT_255_1_388
10
5.4744956
20
4.9491727
11
5.4744956
21
5.9674898
0
LINE
8
DEFAULT_255_1_388
10
5.4744956
20
5.9674898
11
5.6470764
21
5.9674898
0
LINE
8
DEFAULT_255_1_388
10
6.461188
20
5.9738148
11
6.461188
21
4.6519
0
LINE
8
DEFAULT_255_1_388
10
6.461188
20
4.6519
11
6.293125
21
4.6519
0
LINE
8
DEFAULT_255_1_388
10
6.293125
20
4.6519
11
6.293125
21
5.765995
0
LINE
8
DEFAULT_255_1_388
10
6.293125
20
5.765995
11
5.9560955
21
5.6422066
0
LINE
8
DEFAULT_255_1_388
10
5.9560955
20
5.6422066
11
5.9560955
21
5.7940055
0
LINE
8
DEFAULT_255_1_388
10
5.9560955
20
5.7940055
11
6.4349846
21
5.9738148
0
LINE
8
DEFAULT_255_1_388
10
6.4349846
20
5.9738148
11
6.461188
21
5.9738148
0
LINE
8
DEFAULT_255_1_388
10
7.5770901
20
5.9683934
11
7.6069077
21
5.9683934
0
LINE
8
DEFAULT_255_1_388
10
7.6069077
20
5.9683934
11
7.6069077
21
5.8265338
0
LINE
8
DEFAULT_255_1_388
10
7.6069077
20
5.8265338
11
7.5761865
21
5.8265338
0
LINE
8
DEFAULT_255_1_388
10
6.9608591
20
5.1524747
11
6.9608591
21
5.2166278
0
LINE
8
DEFAULT_255_1_388
10
7.1289221
20
5.1949422
11
7.1289221
21
5.1334999
0
ARC
8
DEFAULT_255_1_388
10
7.5820757
20
5.2642826
40
0.562282
50
90.6001079
51
104.5146616
0
ARC
8
DEFAULT_255_1_388
10
7.5383716
20
5.42681
40
0.3939917
50
104.2855758
51
133.8630124
0
ARC
8
DEFAULT_255_1_388
10
7.5567969
20
5.4146243
40
0.4155734
50
134.5304124
51
161.6210222
0
ARC
8
DEFAULT_255_1_388
10
7.7427901
20
5.3490421
40
0.6127682
50
161.2850533
51
174.2074364
0
ARC
8
DEFAULT_255_1_388
10
7.9017468
20
5.3271437
40
0.7731446
50
173.7817938
51
174.9251711
0
ARC
8
DEFAULT_255_1_388
10
7.3891662
20
5.171627
40
0.3412588
50
95.8332067
51
138.995412
0
ARC
8
DEFAULT_255_1_388
10
7.4142942
20
5.0277695
40
0.4870358
50
89.8755506
51
97.0540979
0
ARC
8
DEFAULT_255_1_388
10
7.4196331
20
5.1217841
40
0.3930432
50
71.6407016
51
90.6240821
0
ARC
8
DEFAULT_255_1_388
10
7.4365724
20
5.1841433
40
0.3285421
50
39.6368051
51
71.0190743
0
ARC
8
DEFAULT_255_1_388
10
7.3649632
20
5.1222586
40
0.4231706
50
10.6588054
51
39.9044509
0
ARC
8
DEFAULT_255_1_388
10
7.1908178
20
5.0844223
40
0.60133
50
359.6827842
51
11.1326896
0
ARC
8
DEFAULT_255_1_388
10
7.1863513
20
5.0764715
40
0.6058047
50
347.2485908
51
0.4371098
0
ARC
8
DEFAULT_255_1_388
10
7.3739299
20
5.0313379
40
0.4128987
50
318.1408565
51
347.6118497
0
ARC
8
DEFAULT_255_1_388
10
7.4104896
20
5.0012903
40
0.3656244
50
275.6342406
51
317.824739
0
ARC
8
DEFAULT_255_1_388
10
7.3856416
20
5.1474827
40
0.513655
50
269.8872513
51
276.7916069
0
ARC
8
DEFAULT_255_1_388
10
7.3794609
20
5.0321181
40
0.398323
50
246.9139443
51
270.7436787
0
ARC
8
DEFAULT_255_1_388
10
7.3801805
20
5.0161044
40
0.3839368
50
218.1665534
51
245.8780431
0
ARC
8
DEFAULT_255_1_388
10
7.4791177
20
5.0988903
40
0.5128958
50
191.4115343
51
218.6077624
0
ARC
8
DEFAULT_255_1_388
10
7.6971493
20
5.1477777
40
0.7363054
50
179.6344971
51
191.7836758
0
ARC
8
DEFAULT_255_1_388
10
8.3251368
20
5.2241495
40
1.3642984
50
171.4523743
51
180.3158856
0
ARC
8
DEFAULT_255_1_388
10
7.8307095
20
5.3010895
40
0.8639311
50
157.9802296
51
171.6246761
0
ARC
8
DEFAULT_255_1_388
10
7.5816445
20
5.4004038
40
0.5958004
50
141.4299236
51
157.8541251
0
ARC
8
DEFAULT_255_1_388
10
7.5094529
20
5.4514746
40
0.5075416
50
102.871586
51
140.8564533
0
ARC
8
DEFAULT_255_1_388
10
7.5823082
20
5.1769943
40
0.7914163
50
90.377773
51
103.5868422
0
ARC
8
DEFAULT_255_1_388
10
7.3867603
20
5.1089543
40
0.2667015
50
89.8751238
51
126.2072139
0
ARC
8
DEFAULT_255_1_388
10
7.3919074
20
5.0915847
40
0.2838229
50
124.9742447
51
144.8960197
0
ARC
8
DEFAULT_255_1_388
10
7.3721319
20
5.1076981
40
0.2583845
50
145.2974778
51
160.2660922
0
ARC
8
DEFAULT_255_1_388
10
7.7177807
20
5.1299151
40
0.5888695
50
179.6512124
51
190.285571
0
ARC
8
DEFAULT_255_1_388
10
7.5272287
20
5.0939968
40
0.3949683
50
190.0944895
51
207.5099647
0
ARC
8
DEFAULT_255_1_388
10
7.4635868
20
5.0637177
40
0.3245464
50
207.9585471
51
216.325377
0
ARC
8
DEFAULT_255_1_388
10
7.4253506
20
5.0322712
40
0.2751259
50
215.7661336
51
232.5457193
0
ARC
8
DEFAULT_255_1_388
10
7.3822621
20
4.9775273
40
0.2054668
50
232.8005815
51
270.6605497
0
ARC
8
DEFAULT_255_1_388
10
7.3874046
20
5.0184853
40
0.2464268
50
269.3550767
51
288.474612
0
ARC
8
DEFAULT_255_1_388
10
7.3978553
20
4.9791721
40
0.2058436
50
289.1831976
51
322.9685307
0
ARC
8
DEFAULT_255_1_388
10
7.3290654
20
5.0334279
40
0.2934408
50
322.6007085
51
346.5183319
0
ARC
8
DEFAULT_255_1_388
10
7.1988411
20
5.0666434
40
0.4278249
50
346.2584622
51
358.7739592
0
ARC
8
DEFAULT_255_1_388
10
7.0836986
20
5.0728829
40
0.5430876
50
358.3757628
51
0.0082477
0
ARC
8
DEFAULT_255_1_388
10
7.1693804
20
5.0759856
40
0.4574157
50
359.6211417
51
11.28403
0
ARC
8
DEFAULT_255_1_388
10
7.3130411
20
5.1059535
40
0.3106708
50
11.0483152
51
31.8145585
0
ARC
8
DEFAULT_255_1_388
10
7.3478116
20
5.1248045
40
0.2711963
50
32.3028554
51
38.0820598
0
ARC
8
DEFAULT_255_1_388
10
7.3951349
20
5.1676717
40
0.2075566
50
36.8249851
51
85.741667
0
ARC
8
DEFAULT_255_1_388
10
7.3875761
20
5.1113065
40
0.2643487
50
85.0150021
51
90.050843
0
LINE
8
DEFAULT_255_1_388
10
8.3550591
20
5.2789737
11
8.3550591
21
5.1425355
0
LINE
8
DEFAULT_255_1_388
10
8.3550591
20
5.1425355
11
7.9141196
21
5.1425355
0
LINE
8
DEFAULT_255_1_388
10
7.9141196
20
5.1425355
11
7.9141196
21
5.2789737
0
LINE
8
DEFAULT_255_1_388
10
7.9141196
20
5.2789737
11
8.3550591
21
5.2789737
0
LINE
8
DEFAULT_255_1_388
10
4.1823367
20
11.2591898
11
4.1823367
21
9.9436
0
LINE
8
DEFAULT_255_1_388
10
4.1823367
20
9.9436
11
4.0088523
21
9.9436
0
LINE
8
DEFAULT_255_1_388
10
4.0088523
20
9.9436
11
4.0088523
21
11.2591898
0
LINE
8
DEFAULT_255_1_388
10
4.0088523
20
11.2591898
11
4.1823367
21
11.2591898
0
LINE
8
DEFAULT_255_1_388
10
5.5105764
20
11.2591898
11
5.5105764
21
9.9436
0
LINE
8
DEFAULT_255_1_388
10
5.5105764
20
9.9436
11
5.3361885
21
9.9436
0
LINE
8
DEFAULT_255_1_388
10
5.3361885
20
9.9436
11
4.6738757
21
10.9573993
0
LINE
8
DEFAULT_255_1_388
10
4.6738757
20
10.9573993
11
4.6738757
21
9.9436
0
LINE
8
DEFAULT_255_1_388
10
4.6738757
20
9.9436
11
4.4994878
21
9.9436
0
LINE
8
DEFAULT_255_1_388
10
4.4994878
20
9.9436
11
4.4994878
21
11.2591898
0
LINE
8
DEFAULT_255_1_388
10
4.4994878
20
11.2591898
11
4.6738757
21
11.2591898
0
LINE
8
DEFAULT_255_1_388
10
4.6738757
20
11.2591898
11
5.3379956
21
10.2408727
0
LINE
8
DEFAULT_255_1_388
10
5.3379956
20
10.2408727
11
5.3379956
21
11.2591898
0
LINE
8
DEFAULT_255_1_388
10
5.3379956
20
11.2591898
11
5.5105764
21
11.2591898
0
LINE
8
DEFAULT_255_1_388
10
6.324688
20
11.2655148
11
6.324688
21
9.9436
0
LINE
8
DEFAULT_255_1_388
10
6.324688
20
9.9436
11
6.156625
21
9.9436
0
LINE
8
DEFAULT_255_1_388
10
6.156625
20
9.9436
11
6.156625
21
11.057695
0
LINE
8
DEFAULT_255_1_388
10
6.156625
20
11.057695
11
5.8195955
21
10.9339066
0
LINE
8
DEFAULT_255_1_388
10
5.8195955
20
10.9339066
11
5.8195955
21
11.0857055
0
LINE
8
DEFAULT_255_1_388
10
5.8195955
20
11.0857055
11
6.2984846
21
11.2655148
0
LINE
8
DEFAULT_255_1_388
10
6.2984846
20
11.2655148
11
6.324688
21
11.2655148
0
LINE
8
DEFAULT_255_1_388
10
7.4405901
20
11.2600934
11
7.4704077
21
11.2600934
0
LINE
8
DEFAULT_255_1_388
10
7.4704077
20
11.2600934
11
7.4704077
21
11.1182338
0
LINE
8
DEFAULT_255_1_388
10
7.4704077
20
11.1182338
11
7.4396865
21
11.1182338
0
LINE
8
DEFAULT_255_1_388
10
6.8243591
20
10.4441747
11
6.8243591
21
10.5083278
0
LINE
8
DEFAULT_255_1_388
10
6.9924221
20
10.4866422
11
6.9924221
21
10.4251999
0
ARC
8
DEFAULT_255_1_388
10
7.4455757
20
10.5559826
40
0.562282
50
90.6001079
51
104.5146616
0
ARC
8
DEFAULT_255_1_388
10
7.4018716
20
10.71851
40
0.3939917
50
104.2855758
51
133.8630124
0
ARC
8
DEFAULT_255_1_388
10
7.4202969
20
10.7063243
40
0.4155734
50
134.5304124
51
161.6210222
0
ARC
8
DEFAULT_255_1_388
10
7.6062901
20
10.6407421
40
0.6127682
50
161.2850533
51
174.2074364
0
ARC
8
DEFAULT_255_1_388
10
7.7652468
20
10.6188437
40
0.7731446
50
173.7817938
51
174.9251711
0
ARC
8
DEFAULT_255_1_388
10
7.2526662
20
10.463327
40
0.3412588
50
95.8332067
51
138.995412
0
ARC
8
DEFAULT_255_1_388
10
7.2777942
20
10.3194695
40
0.4870358
50
89.8755506
51
97.0540979
0
ARC
8
DEFAULT_255_1_388
10
7.2831331
20
10.4134841
40
0.3930432
50
71.6407016
51
90.6240821
0
ARC
8
DEFAULT_255_1_388
10
7.3000724
20
10.4758433
40
0.3285421
50
39.6368051
51
71.0190743
0
ARC
8
DEFAULT_255_1_388
10
7.2284632
20
10.4139586
40
0.4231706
50
10.6588054
51
39.9044509
0
ARC
8
DEFAULT_255_1_388
10
7.0543178
20
10.3761223
40
0.60133
50
359.6827842
51
11.1326896
0
ARC
8
DEFAULT_255_1_388
10
7.0498513
20
10.3681715
40
0.6058047
50
347.2485908
51
0.4371098
0
ARC
8
DEFAULT_255_1_388
10
7.2374299
20
10.3230379
40
0.4128987
50
318.1408565
51
347.6118497
0
ARC
8
DEFAULT_255_1_388
10
7.2739896
20
10.2929903
40
0.3656244
50
275.6342406
51
317.824739
0
ARC
8
DEFAULT_255_1_388
10
7.2491416
20
10.4391827
40
0.513655
50
269.8872513
51
276.7916069
0
ARC
8
DEFAULT_255_1_388
10
7.2429609
20
10.3238181
40
0.398323
50
246.9139443
51
270.7436787
0
ARC
8
DEFAULT_255_1_388
10
7.2436805
20
10.3078044
40
0.3839368
50
218.1665534
51
245.8780431
0
ARC
8
DEFAULT_255_1_388
10
7.3426177
20
10.3905903
40
0.5128958
50
191.4115343
51
218.6077624
0
ARC
8
DEFAULT_255_1_388
10
7.5606493
20
10.4394777
40
0.7363054
50
179.6344971
51
191.7836758
0
ARC
8
DEFAULT_255_1_388
10
8.1886368
20
10.5158495
40
1.3642984
50
171.4523743
51
180.3158856
0
ARC
8
DEFAULT_255_1_388
10
7.6942095
20
10.5927895
40
0.8639311
50
157.9802296
51
171.6246761
0
ARC
8
DEFAULT_255_1_388
10
7.4451445
20
10.6921038
40
0.5958004
50
141.4299236
51
157.8541251
0
ARC
8
DEFAULT_255_1_388
10
7.3729529
20
10.7431746
40
0.5075416
50
102.871586
51
140.8564533
0
ARC
8
DEFAULT_255_1_388
10
7.4458082
20
10.4686943
40
0.7914163
50
90.377773
51
103.5868422
0
ARC
8
DEFAULT_255_1_388
10
7.2502603
20
10.4006543
40
0.2667015
50
89.8751238
51
126.2072139
0
ARC
8
DEFAULT_255_1_388
10
7.2554074
20
10.3832847
40
0.2838229
50
124.9742447
51
144.8960197
0
ARC
8
DEFAULT_255_1_388
10
7.2356319
20
10.3993981
40
0.2583845
50
145.2974778
51
160.2660922
0
ARC
8
DEFAULT_255_1_388
10
7.5812807
20
10.4216151
40
0.5888695
50
179.6512124
51
190.285571
0
ARC
8
DEFAULT_255_1_388
10
7.3907287
20
10.3856968
40
0.3949683
50
190.0944895
51
207.5099647
0
ARC
8
DEFAULT_255_1_388
10
7.3270868
20
10.3554177
40
0.3245464
50
207.9585471
51
216.325377
0
ARC
8
DEFAULT_255_1_388
10
7.2888506
20
10.3239712
40
0.2751259
50
215.7661336
51
232.5457193
0
ARC
8
DEFAULT_255_1_388
10
7.2457621
20
10.2692273
40
0.2054668
50
232.8005815
51
270.6605497
0
ARC
8
DEFAULT_255_1_388
10
7.2509046
20
10.3101853
40
0.2464268
50
269.3550767
51
288.474612
0
ARC
8
DEFAULT_255_1_388
10
7.2613553
20
10.2708721
40
0.2058436
50
289.1831976
51
322.9685307
0
ARC
8
DEFAULT_255_1_388
10
7.1925654
20
10.3251279
40
0.2934408
50
322.6007085
51
346.5183319
0
ARC
8
DEFAULT_255_1_388
10
7.0623411
20
10.3583434
40
0.4278249
50
346.2584622
51
358.7739592
0
ARC
8
DEFAULT_255_1_388
10
6.9471986
20
10.3645829
40
0.5430876
50
358.3757628
51
0.0082477
0
ARC
8
DEFAULT_255_1_388
10
7.0328804
20
10.3676856
40
0.4574157
50
359.6211417
51
11.28403
0
ARC
8
DEFAULT_255_1_388
10
7.1765411
20
10.3976535
40
0.3106708
50
11.0483152
51
31.8145585
0
ARC
8
DEFAULT_255_1_388
10
7.2113116
20
10.4165045
40
0.2711963
50
32.3028554
51
38.0820598
0
ARC
8
DEFAULT_255_1_388
10
7.2586349
20
10.4593717
40
0.2075566
50
36.8249851
51
85.741667
0
ARC
8
DEFAULT_255_1_388
10
7.2510761
20
10.4030065
40
0.2643487
50
85.0150021
51
90.050843
0
LINE
8
DEFAULT_255_1_388
10
8.3495759
20
11.0332987
11
8.3495759
21
10.6492838
0
LINE
8
DEFAULT_255_1_388
10
8.3495759
20
10.6492838
11
8.7164231
21
10.6492838
0
LINE
8
DEFAULT_255_1_388
10
8.7164231
20
10.6492838
11
8.7164231
21
10.4911601
0
LINE
8
DEFAULT_255_1_388
10
8.7164231
20
10.4911601
11
8.3495759
21
10.4911601
0
LINE
8
DEFAULT_255_1_388
10
8.3495759
20
10.4911601
11
8.3495759
21
10.0755204
0
LINE
8
DEFAULT_255_1_388
10
8.3495759
20
10.0755204
11
8.1815129
21
10.0755204
0
LINE
8
DEFAULT_255_1_388
10
8.1815129
20
10.0755204
11
8.1815129
21
10.4911601
0
LINE
8
DEFAULT_255_1_388
10
8.1815129
20
10.4911601
11
7.8146658
21
10.4911601
0
LINE
8
DEFAULT_255_1_388
10
7.8146658
20
10.4911601
11
7.8146658
21
10.6492838
0
LINE
8
DEFAULT_255_1_388
10
7.8146658
20
10.6492838
11
8.1815129
21
10.6492838
0
LINE
8
DEFAULT_255_1_388
10
8.1815129
20
10.6492838
11
8.1815129
21
11.0332987
0
LINE
8
DEFAULT_255_1_388
10
8.1815129
20
11.0332987
11
8.3495759
21
11.0332987
0
LINE
8
DEFAULT_255_1_388
10
4.3188367
20
16.5507898
11
4.3188367
21
15.2352
0
LINE
8
DEFAULT_255_1_388
10
4.3188367
20
15.2352
11
4.1453523
21
15.2352
0
LINE
8
DEFAULT_255_1_388
10
4.1453523
20
15.2352
11
4.1453523
21
16.5507898
0
LINE
8
DEFAULT_255_1_388
10
4.1453523
20
16.5507898
11
4.3188367
21
16.5507898
0
LINE
8
DEFAULT_255_1_388
10
5.6470764
20
16.5507898
11
5.6470764
21
15.2352
0
LINE
8
DEFAULT_255_1_388
10
5.6470764
20
15.2352
11
5.4726885
21
15.2352
0
LINE
8
DEFAULT_255_1_388
10
5.4726885
20
15.2352
11
4.8103757
21
16.2489993
0
LINE
8
DEFAULT_255_1_388
10
4.8103757
20
16.2489993
11
4.8103757
21
15.2352
0
LINE
8
DEFAULT_255_1_388
10
4.8103757
20
15.2352
11
4.6359878
21
15.2352
0
LINE
8
DEFAULT_255_1_388
10
4.6359878
20
15.2352
11
4.6359878
21
16.5507898
0
LINE
8
DEFAULT_255_1_388
10
4.6359878
20
16.5507898
11
4.8103757
21
16.5507898
0
LINE
8
DEFAULT_255_1_388
10
4.8103757
20
16.5507898
11
5.4744956
21
15.5324727
0
LINE
8
DEFAULT_255_1_388
10
5.4744956
20
15.5324727
11
5.4744956
21
16.5507898
0
LINE
8
DEFAULT_255_1_388
10
5.4744956
20
16.5507898
11
5.6470764
21
16.5507898
0
LINE
8
DEFAULT_255_1_388
10
6.461188
20
16.5571148
11
6.461188
21
15.2352
0
LINE
8
DEFAULT_255_1_388
10
6.461188
20
15.2352
11
6.293125
21
15.2352
0
LINE
8
DEFAULT_255_1_388
10
6.293125
20
15.2352
11
6.293125
21
16.349295
0
LINE
8
DEFAULT_255_1_388
10
6.293125
20
16.349295
11
5.9560955
21
16.2255066
0
LINE
8
DEFAULT_255_1_388
10
5.9560955
20
16.2255066
11
5.9560955
21
16.3773055
0
LINE
8
DEFAULT_255_1_388
10
5.9560955
20
16.3773055
11
6.4349846
21
16.5571148
0
LINE
8
DEFAULT_255_1_388
10
6.4349846
20
16.5571148
11
6.461188
21
16.5571148
0
LINE
8
DEFAULT_255_1_388
10
7.1614504
20
15.8604666
11
7.0277229
21
15.8948021
0
LINE
8
DEFAULT_255_1_388
10
7.0277229
20
15.8948021
11
7.0945867
21
16.5507898
0
LINE
8
DEFAULT_255_1_388
10
7.0945867
20
16.5507898
11
7.7686458
21
16.5507898
0
LINE
8
DEFAULT_255_1_388
10
7.7686458
20
16.5507898
11
7.7686458
21
16.3962803
0
LINE
8
DEFAULT_255_1_388
10
7.7686458
20
16.3962803
11
7.2364463
21
16.3962803
0
LINE
8
DEFAULT_255_1_388
10
7.2364463
20
16.3962803
11
7.1966895
21
16.0375652
0
LINE
8
DEFAULT_255_1_388
10
6.9807375
20
15.5812652
11
7.1388613
21
15.5812652
0
LINE
8
DEFAULT_255_1_388
10
7.2057251
20
15.8966092
11
7.1614504
21
15.8604666
0
ARC
8
DEFAULT_255_1_388
10
7.4053508
20
15.6798241
40
0.4141476
50
93.7181681
51
120.253934
0
ARC
8
DEFAULT_255_1_388
10
7.415956
20
15.5889284
40
0.5055616
50
89.9660471
51
94.2495185
0
ARC
8
DEFAULT_255_1_388
10
7.4205382
20
15.6552154
40
0.4392953
50
73.8045384
51
90.5585736
0
ARC
8
DEFAULT_255_1_388
10
7.446964
20
15.751752
40
0.3392225
50
41.3071072
51
73.543002
0
ARC
8
DEFAULT_255_1_388
10
7.400146
20
15.7114461
40
0.4009977
50
13.5075837
51
41.2174839
0
ARC
8
DEFAULT_255_1_388
10
7.2154557
20
15.6630907
40
0.5918864
50
1.1330171
51
13.8830737
0
ARC
8
DEFAULT_255_1_388
10
7.0558203
20
15.6545522
40
0.7516787
50
359.9925091
51
1.5431298
0
ARC
8
DEFAULT_255_1_388
10
7.2002818
20
15.6499027
40
0.6072343
50
347.8572712
51
0.4294349
0
ARC
8
DEFAULT_255_1_388
10
7.3971953
20
15.6052898
40
0.4053482
50
323.6727442
51
348.1674594
0
ARC
8
DEFAULT_255_1_388
10
7.4302917
20
15.5851175
40
0.3667495
50
316.8171818
51
323.1486802
0
ARC
8
DEFAULT_255_1_388
10
7.4372041
20
15.5809612
40
0.358869
50
281.839603
51
316.5458142
0
ARC
8
DEFAULT_255_1_388
10
7.3949329
20
15.7559363
40
0.5388223
50
269.5770964
51
282.4214641
0
ARC
8
DEFAULT_255_1_388
10
7.3869249
20
15.731893
40
0.5147801
50
256.2425863
51
270.4486481
0
ARC
8
DEFAULT_255_1_388
10
7.3532777
20
15.5969124
40
0.3756708
50
228.9024379
51
256.33135
0
ARC
8
DEFAULT_255_1_388
10
7.3449757
20
15.5838054
40
0.360344
50
193.7536029
51
228.5272638
0
ARC
8
DEFAULT_255_1_388
10
7.4842322
20
15.6246463
40
0.5053599
50
184.9244437
51
194.4976052
0
ARC
8
DEFAULT_255_1_388
10
7.5058963
20
15.6286722
40
0.3700839
50
187.3596909
51
198.6733728
0
ARC
8
DEFAULT_255_1_388
10
7.3878207
20
15.5877373
40
0.2451195
50
198.4453795
51
217.7945479
0
ARC
8
DEFAULT_255_1_388
10
7.3545379
20
15.5641563
40
0.2043754
50
218.2887146
51
228.5613203
0
ARC
8
DEFAULT_255_1_388
10
7.3655386
20
15.5789902
40
0.2227819
50
228.9652423
51
258.1237049
0
ARC
8
DEFAULT_255_1_388
10
7.3886824
20
15.6780964
40
0.3245374
50
257.7260585
51
270.4013717
0
ARC
8
DEFAULT_255_1_388
10
7.3937322
20
15.6280255
40
0.2744726
50
269.4204315
51
286.420998
0
ARC
8
DEFAULT_255_1_388
10
7.4104377
20
15.5673705
40
0.2115721
50
286.7250065
51
320.6004665
0
ARC
8
DEFAULT_255_1_388
10
7.3673293
20
15.6023527
40
0.2670878
50
320.6712228
51
344.5440474
0
ARC
8
DEFAULT_255_1_388
10
7.2372007
20
15.6405394
40
0.4026927
50
344.241448
51
356.735803
0
ARC
8
DEFAULT_255_1_388
10
7.0968314
20
15.6521656
40
0.5435085
50
356.3547471
51
0.0507222
0
ARC
8
DEFAULT_255_1_388
10
7.2470579
20
15.6556812
40
0.3932934
50
359.5579289
51
12.9534322
0
ARC
8
DEFAULT_255_1_388
10
7.3657419
20
15.6844586
40
0.2711827
50
12.6489751
51
41.608121
0
ARC
8
DEFAULT_255_1_388
10
7.3916579
20
15.7064946
40
0.2371737
50
41.7851122
51
85.9892156
0
ARC
8
DEFAULT_255_1_388
10
7.3777889
20
15.6149738
40
0.3295244
50
84.6965848
51
90.0672125
0
ARC
8
DEFAULT_255_1_388
10
7.3751457
20
15.5398118
40
0.4046926
50
89.6804991
51
99.161352
0
ARC
8
DEFAULT_255_1_388
10
7.3520466
20
15.6778848
40
0.2647044
50
98.9836248
51
113.8905702
0
ARC
8
DEFAULT_255_1_388
10
7.3262141
20
15.7388118
40
0.1985386
50
114.195234
51
127.3641866
0
LINE
8
DEFAULT_255_1_388
10
8.3550591
20
15.8622737
11
8.3550591
21
15.7258355
0
LINE
8
DEFAULT_255_1_388
10
8.3550591
20
15.7258355
11
7.9141196
21
15.7258355
0
LINE
8
DEFAULT_255_1_388
10
7.9141196
20
15.7258355
11
7.9141196
21
15.8622737
0
LINE
8
DEFAULT_255_1_388
10
7.9141196
20
15.8622737
11
8.3550591
21
15.8622737
0
LINE
8
DEFAULT_255_1_388
10
4.1823367
20
21.8424898
11
4.1823367
21
20.5269
0
LINE
8
DEFAULT_255_1_388
10
4.1823367
20
20.5269
11
4.0088523
21
20.5269
0
LINE
8
DEFAULT_255_1_388
10
4.0088523
20
20.5269
11
4.0088523
21
21.8424898
0
LINE
8
DEFAULT_255_1_388
10
4.0088523
20
21.8424898
11
4.1823367
21
21.8424898
0
LINE
8
DEFAULT_255_1_388
10
5.5105764
20
21.8424898
11
5.5105764
21
20.5269
0
LINE
8
DEFAULT_255_1_388
10
5.5105764
20
20.5269
11
5.3361885
21
20.5269
0
LINE
8
DEFAULT_255_1_388
10
5.3361885
20
20.5269
11
4.6738757
21
21.5406993
0
LINE
8
DEFAULT_255_1_388
10
4.6738757
20
21.5406993
11
4.6738757
21
20.5269
0
LINE
8
DEFAULT_255_1_388
10
4.6738757
20
20.5269
11
4.4994878
21
20.5269
0
LINE
8
DEFAULT_255_1_388
10
4.4994878
20
20.5269
11
4.4994878
21
21.8424898
0
LINE
8
DEFAULT_255_1_388
10
4.4994878
20
21.8424898
11
4.6738757
21
21.8424898
0
LINE
8
DEFAULT_255_1_388
10
4.6738757
20
21.8424898
11
5.3379956
21
20.8241727
0
LINE
8
DEFAULT_255_1_388
10
5.3379956
20
20.8241727
11
5.3379956
21
21.8424898
0
LINE
8
DEFAULT_255_1_388
10
5.3379956
20
21.8424898
11
5.5105764
21
21.8424898
0
LINE
8
DEFAULT_255_1_388
10
6.324688
20
21.8488148
11
6.324688
21
20.5269
0
LINE
8
DEFAULT_255_1_388
10
6.324688
20
20.5269
11
6.156625
21
20.5269
0
LINE
8
DEFAULT_255_1_388
10
6.156625
20
20.5269
11
6.156625
21
21.640995
0
LINE
8
DEFAULT_255_1_388
10
6.156625
20
21.640995
11
5.8195955
21
21.5172066
0
LINE
8
DEFAULT_255_1_388
10
5.8195955
20
21.5172066
11
5.8195955
21
21.6690055
0
LINE
8
DEFAULT_255_1_388
10
5.8195955
20
21.6690055
11
6.2984846
21
21.8488148
0
LINE
8
DEFAULT_255_1_388
10
6.2984846
20
21.8488148
11
6.324688
21
21.8488148
0
LINE
8
DEFAULT_255_1_388
10
7.0249504
20
21.1521666
11
6.8912229
21
21.1865021
0
LINE
8
DEFAULT_255_1_388
10
6.8912229
20
21.1865021
11
6.9580867
21
21.8424898
0
LINE
8
DEFAULT_255_1_388
10
6.9580867
20
21.8424898
11
7.6321458
21
21.8424898
0
LINE
8
DEFAULT_255_1_388
10
7.6321458
20
21.8424898
11
7.6321458
21
21.6879803
0
LINE
8
DEFAULT_255_1_388
10
7.6321458
20
21.6879803
11
7.0999463
21
21.6879803
0
LINE
8
DEFAULT_255_1_388
10
7.0999463
20
21.6879803
11
7.0601895
21
21.3292652
0
LINE
8
DEFAULT_255_1_388
10
6.8442375
20
20.8729652
11
7.0023613
21
20.8729652
0
LINE
8
DEFAULT_255_1_388
10
7.0692251
20
21.1883092
11
7.0249504
21
21.1521666
0
ARC
8
DEFAULT_255_1_388
10
7.2688508
20
20.9715241
40
0.4141476
50
93.7181681
51
120.253934
0
ARC
8
DEFAULT_255_1_388
10
7.279456
20
20.8806284
40
0.5055616
50
89.9660471
51
94.2495185
0
ARC
8
DEFAULT_255_1_388
10
7.2840382
20
20.9469154
40
0.4392953
50
73.8045384
51
90.5585736
0
ARC
8
DEFAULT_255_1_388
10
7.310464
20
21.043452
40
0.3392225
50
41.3071072
51
73.543002
0
ARC
8
DEFAULT_255_1_388
10
7.263646
20
21.0031461
40
0.4009977
50
13.5075837
51
41.2174839
0
ARC
8
DEFAULT_255_1_388
10
7.0789557
20
20.9547907
40
0.5918864
50
1.1330171
51
13.8830737
0
ARC
8
DEFAULT_255_1_388
10
6.9193203
20
20.9462522
40
0.7516787
50
359.9925091
51
1.5431298
0
ARC
8
DEFAULT_255_1_388
10
7.0637818
20
20.9416027
40
0.6072343
50
347.8572712
51
0.4294349
0
ARC
8
DEFAULT_255_1_388
10
7.2606953
20
20.8969898
40
0.4053482
50
323.6727442
51
348.1674594
0
ARC
8
DEFAULT_255_1_388
10
7.2937917
20
20.8768175
40
0.3667495
50
316.8171818
51
323.1486802
0
ARC
8
DEFAULT_255_1_388
10
7.3007041
20
20.8726612
40
0.358869
50
281.839603
51
316.5458142
0
ARC
8
DEFAULT_255_1_388
10
7.2584329
20
21.0476363
40
0.5388223
50
269.5770964
51
282.4214641
0
ARC
8
DEFAULT_255_1_388
10
7.2504249
20
21.023593
40
0.5147801
50
256.2425863
51
270.4486481
0
ARC
8
DEFAULT_255_1_388
10
7.2167777
20
20.8886124
40
0.3756708
50
228.9024379
51
256.33135
0
ARC
8
DEFAULT_255_1_388
10
7.2084757
20
20.8755054
40
0.360344
50
193.7536029
51
228.5272638
0
ARC
8
DEFAULT_255_1_388
10
7.3477322
20
20.9163463
40
0.5053599
50
184.9244437
51
194.4976052
0
ARC
8
DEFAULT_255_1_388
10
7.3693963
20
20.9203722
40
0.3700839
50
187.3596909
51
198.6733728
0
ARC
8
DEFAULT_255_1_388
10
7.2513207
20
20.8794373
40
0.2451195
50
198.4453795
51
217.7945479
0
ARC
8
DEFAULT_255_1_388
10
7.2180379
20
20.8558563
40
0.2043754
50
218.2887146
51
228.5613203
0
ARC
8
DEFAULT_255_1_388
10
7.2290386
20
20.8706902
40
0.2227819
50
228.9652423
51
258.1237049
0
ARC
8
DEFAULT_255_1_388
10
7.2521824
20
20.9697964
40
0.3245374
50
257.7260585
51
270.4013717
0
ARC
8
DEFAULT_255_1_388
10
7.2572322
20
20.9197255
40
0.2744726
50
269.4204315
51
286.420998
0
ARC
8
DEFAULT_255_1_388
10
7.2739377
20
20.8590705
40
0.2115721
50
286.7250065
51
320.6004665
0
ARC
8
DEFAULT_255_1_388
10
7.2308293
20
20.8940527
40
0.2670878
50
320.6712228
51
344.5440474
0
ARC
8
DEFAULT_255_1_388
10
7.1007007
20
20.9322394
40
0.4026927
50
344.241448
51
356.735803
0
ARC
8
DEFAULT_255_1_388
10
6.9603314
20
20.9438656
40
0.5435085
50
356.3547471
51
0.0507222
0
ARC
8
DEFAULT_255_1_388
10
7.1105579
20
20.9473812
40
0.3932934
50
359.5579289
51
12.9534322
0
ARC
8
DEFAULT_255_1_388
10
7.2292419
20
20.9761586
40
0.2711827
50
12.6489751
51
41.608121
0
ARC
8
DEFAULT_255_1_388
10
7.2551579
20
20.9981946
40
0.2371737
50
41.7851122
51
85.9892156
0
ARC
8
DEFAULT_255_1_388
10
7.2412889
20
20.9066738
40
0.3295244
50
84.6965848
51
90.0672125
0
ARC
8
DEFAULT_255_1_388
10
7.2386457
20
20.8315118
40
0.4046926
50
89.6804991
51
99.161352
0
ARC
8
DEFAULT_255_1_388
10
7.2155466
20
20.9695848
40
0.2647044
50
98.9836248
51
113.8905702
0
ARC
8
DEFAULT_255_1_388
10
7.1897141
20
21.0305118
40
0.1985386
50
114.195234
51
127.3641866
0
LINE
8
DEFAULT_255_1_388
10
8.3495759
20
21.6165987
11
8.3495759
21
21.2325838
0
LINE
8
DEFAULT_255_1_388
10
8.3495759
20
21.2325838
11
8.7164231
21
21.2325838
0
LINE
8
DEFAULT_255_1_388
10
8.7164231
20
21.2325838
11
8.7164231
21
21.0744601
0
LINE
8
DEFAULT_255_1_388
10
8.7164231
20
21.0744601
11
8.3495759
21
21.0744601
0
LINE
8
DEFAULT_255_1_388
10
8.3495759
20
21.0744601
11
8.3495759
21
20.6588204
0
LINE
8
DEFAULT_255_1_388
10
8.3495759
20
20.6588204
11
8.1815129
21
20.6588204
0
LINE
8
DEFAULT_255_1_388
10
8.1815129
20
20.6588204
11
8.1815129
21
21.0744601
0
LINE
8
DEFAULT_255_1_388
10
8.1815129
20
21.0744601
11
7.8146658
21
21.0744601
0
LINE
8
DEFAULT_255_1_388
10
7.8146658
20
21.0744601
11
7.8146658
21
21.2325838
0
LINE
8
DEFAULT_255_1_388
10
7.8146658
20
21.2325838
11
8.1815129
21
21.2325838
0
LINE
8
DEFAULT_255_1_388
10
8.1815129
20
21.2325838
11
8.1815129
21
21.6165987
0
LINE
8
DEFAULT_255_1_388
10
8.1815129
20
21.6165987
11
8.3495759
21
21.6165987
0
LINE
8
DEFAULT_255_1_388
10
4.3188367
20
27.1341898
11
4.3188367
21
25.8186
0
LINE
8
DEFAULT_255_1_388
10
4.3188367
20
25.8186
11
4.1453523
21
25.8186
0
LINE
8
DEFAULT_255_1_388
10
4.1453523
20
25.8186
11
4.1453523
21
27.1341898
0
LINE
8
DEFAULT_255_1_388
10
4.1453523
20
27.1341898
11
4.3188367
21
27.1341898
0
LINE
8
DEFAULT_255_1_388
10
5.6470764
20
27.1341898
11
5.6470764
21
25.8186
0
LINE
8
DEFAULT_255_1_388
10
5.6470764
20
25.8186
11
5.4726885
21
25.8186
0
LINE
8
DEFAULT_255_1_388
10
5.4726885
20
25.8186
11
4.8103757
21
26.8323993
0
LINE
8
DEFAULT_255_1_388
10
4.8103757
20
26.8323993
11
4.8103757
21
25.8186
0
LINE
8
DEFAULT_255_1_388
10
4.8103757
20
25.8186
11
4.6359878
21
25.8186
0
LINE
8
DEFAULT_255_1_388
10
4.6359878
20
25.8186
11
4.6359878
21
27.1341898
0
LINE
8
DEFAULT_255_1_388
10
4.6359878
20
27.1341898
11
4.8103757
21
27.1341898
0
LINE
8
DEFAULT_255_1_388
10
4.8103757
20
27.1341898
11
5.4744956
21
26.1158727
0
LINE
8
DEFAULT_255_1_388
10
5.4744956
20
26.1158727
11
5.4744956
21
27.1341898
0
LINE
8
DEFAULT_255_1_388
10
5.4744956
20
27.1341898
11
5.6470764
21
27.1341898
0
LINE
8
DEFAULT_255_1_388
10
6.461188
20
27.1405148
11
6.461188
21
25.8186
0
LINE
8
DEFAULT_255_1_388
10
6.461188
20
25.8186
11
6.293125
21
25.8186
0
LINE
8
DEFAULT_255_1_388
10
6.293125
20
25.8186
11
6.293125
21
26.932695
0
LINE
8
DEFAULT_255_1_388
10
6.293125
20
26.932695
11
5.9560955
21
26.8089066
0
LINE
8
DEFAULT_255_1_388
10
5.9560955
20
26.8089066
11
5.9560955
21
26.9607055
0
LINE
8
DEFAULT_255_1_388
10
5.9560955
20
26.9607055
11
6.4349846
21
27.1405148
0
LINE
8
DEFAULT_255_1_388
10
6.4349846
20
27.1405148
11
6.461188
21
27.1405148
0
LINE
8
DEFAULT_255_1_388
10
7.6566038
20
27.1341898
11
7.6566038
21
26.260443
0
LINE
8
DEFAULT_255_1_388
10
7.6566038
20
26.260443
11
7.8391238
21
26.260443
0
LINE
8
DEFAULT_255_1_388
10
7.8391238
20
26.260443
11
7.8391238
21
26.1240048
0
LINE
8
DEFAULT_255_1_388
10
7.8391238
20
26.1240048
11
7.6566038
21
26.1240048
0
LINE
8
DEFAULT_255_1_388
10
7.6566038
20
26.1240048
11
7.6566038
21
25.8186
0
LINE
8
DEFAULT_255_1_388
10
7.6566038
20
25.8186
11
7.4885408
21
25.8186
0
LINE
8
DEFAULT_255_1_388
10
7.4885408
20
25.8186
11
7.4885408
21
26.1240048
0
LINE
8
DEFAULT_255_1_388
10
7.4885408
20
26.1240048
11
6.8894775
21
26.1240048
0
LINE
8
DEFAULT_255_1_388
10
6.8894775
20
26.1240048
11
6.8894775
21
26.2224933
0
LINE
8
DEFAULT_255_1_388
10
6.8894775
20
26.2224933
11
7.4786016
21
27.1341898
0
LINE
8
DEFAULT_255_1_388
10
7.4786016
20
27.1341898
11
7.6566038
21
27.1341898
0
LINE
8
DEFAULT_255_1_388
10
7.4686624
20
26.8694455
11
7.0792261
21
26.260443
0
LINE
8
DEFAULT_255_1_388
10
7.0792261
20
26.260443
11
7.4885408
21
26.260443
0
LINE
8
DEFAULT_255_1_388
10
7.4885408
20
26.260443
11
7.4885408
21
26.905588
0
LINE
8
DEFAULT_255_1_388
10
7.4885408
20
26.905588
11
7.4686624
21
26.8694455
0
LINE
8
DEFAULT_255_1_388
10
8.3550591
20
26.4456737
11
8.3550591
21
26.3092355
0
LINE
8
DEFAULT_255_1_388
10
8.3550591
20
26.3092355
11
7.9141196
21
26.3092355
0
LINE
8
DEFAULT_255_1_388
10
7.9141196
20
26.3092355
11
7.9141196
21
26.4456737
0
LINE
8
DEFAULT_255_1_388
10
7.9141196
20
26.4456737
11
8.3550591
21
26.4456737
0
LINE
8
DEFAULT_255_1_388
10
4.1823367
20
32.4257898
11
4.1823367
21
31.1102
0
LINE
8
DEFAULT_255_1_388
10
4.1823367
20
31.1102
11
4.0088523
21
31.1102
0
LINE
8
DEFAULT_255_1_388
10
4.0088523
20
31.1102
11
4.0088523
21
32.4257898
0
LINE
8
DEFAULT_255_1_388
10
4.0088523
20
32.4257898
11
4.1823367
21
32.4257898
0
LINE
8
DEFAULT_255_1_388
10
5.5105764
20
32.4257898
11
5.5105764
21
31.1102
0
LINE
8
DEFAULT_255_1_388
10
5.5105764
20
31.1102
11
5.3361885
21
31.1102
0
LINE
8
DEFAULT_255_1_388
10
5.3361885
20
31.1102
11
4.6738757
21
32.1239993
0
LINE
8
DEFAULT_255_1_388
10
4.6738757
20
32.1239993
11
4.6738757
21
31.1102
0
LINE
8
DEFAULT_255_1_388
10
4.6738757
20
31.1102
11
4.4994878
21
31.1102
0
LINE
8
DEFAULT_255_1_388
10
4.4994878
20
31.1102
11
4.4994878
21
32.4257898
0
LINE
8
DEFAULT_255_1_388
10
4.4994878
20
32.4257898
11
4.6738757
21
32.4257898
0
LINE
8
DEFAULT_255_1_388
10
4.6738757
20
32.4257898
11
5.3379956
21
31.4074727
0
LINE
8
DEFAULT_255_1_388
10
5.3379956
20
31.4074727
11
5.3379956
21
32.4257898
0
LINE
8
DEFAULT_255_1_388
10
5.3379956
20
32.4257898
11
5.5105764
21
32.4257898
0
LINE
8
DEFAULT_255_1_388
10
6.324688
20
32.4321148
11
6.324688
21
31.1102
0
LINE
8
DEFAULT_255_1_388
10
6.324688
20
31.1102
11
6.156625
21
31.1102
0
LINE
8
DEFAULT_255_1_388
10
6.156625
20
31.1102
11
6.156625
21
32.224295
0
LINE
8
DEFAULT_255_1_388
10
6.156625
20
32.224295
11
5.8195955
21
32.1005066
0
LINE
8
DEFAULT_255_1_388
10
5.8195955
20
32.1005066
11
5.8195955
21
32.2523055
0
LINE
8
DEFAULT_255_1_388
10
5.8195955
20
32.2523055
11
6.2984846
21
32.4321148
0
LINE
8
DEFAULT_255_1_388
10
6.2984846
20
32.4321148
11
6.324688
21
32.4321148
0
LINE
8
DEFAULT_255_1_388
10
7.5201038
20
32.4257898
11
7.5201038
21
31.552043
0
LINE
8
DEFAULT_255_1_388
10
7.5201038
20
31.552043
11
7.7026238
21
31.552043
0
LINE
8
DEFAULT_255_1_388
10
7.7026238
20
31.552043
11
7.7026238
21
31.4156048
0
LINE
8
DEFAULT_255_1_388
10
7.7026238
20
31.4156048
11
7.5201038
21
31.4156048
0
LINE
8
DEFAULT_255_1_388
10
7.5201038
20
31.4156048
11
7.5201038
21
31.1102
0
LINE
8
DEFAULT_255_1_388
10
7.5201038
20
31.1102
11
7.3520408
21
31.1102
0
LINE
8
DEFAULT_255_1_388
10
7.3520408
20
31.1102
11
7.3520408
21
31.4156048
0
LINE
8
DEFAULT_255_1_388
10
7.3520408
20
31.4156048
11
6.7529775
21
31.4156048
0
LINE
8
DEFAULT_255_1_388
10
6.7529775
20
31.4156048
11
6.7529775
21
31.5140933
0
LINE
8
DEFAULT_255_1_388
10
6.7529775
20
31.5140933
11
7.3421016
21
32.4257898
0
LINE
8
DEFAULT_255_1_388
10
7.3421016
20
32.4257898
11
7.5201038
21
32.4257898
0
LINE
8
DEFAULT_255_1_388
10
7.3321624
20
32.1610455
11
6.9427261
21
31.552043
0
LINE
8
DEFAULT_255_1_388
10
6.9427261
20
31.552043
11
7.3520408
21
31.552043
0
LINE
8
DEFAULT_255_1_388
10
7.3520408
20
31.552043
11
7.3520408
21
32.197188
0
LINE
8
DEFAULT_255_1_388
10
7.3520408
20
32.197188
11
7.3321624
21
32.1610455
0
LINE
8
DEFAULT_255_1_388
10
8.3495759
20
32.1998987
11
8.3495759
21
31.8158838
0
LINE
8
DEFAULT_255_1_388
10
8.3495759
20
31.8158838
11
8.7164231
21
31.8158838
0
LINE
8
DEFAULT_255_1_388
10
8.7164231
20
31.8158838
11
8.7164231
21
31.6577601
0
LINE
8
DEFAULT_255_1_388
10
8.7164231
20
31.6577601
11
8.3495759
21
31.6577601
0
LINE
8
DEFAULT_255_1_388
10
8.3495759
20
31.6577601
11
8.3495759
21
31.2421204
0
LINE
8
DEFAULT_255_1_388
10
8.3495759
20
31.2421204
11
8.1815129
21
31.2421204
0
LINE
8
DEFAULT_255_1_388
10
8.1815129
20
31.2421204
11
8.1815129
21
31.6577601
0
LINE
8
DEFAULT_255_1_388
10
8.1815129
20
31.6577601
11
7.8146658
21
31.6577601
0
LINE
8
DEFAULT_255_1_388
10
7.8146658
20
31.6577601
11
7.8146658
21
31.8158838
0
LINE
8
DEFAULT_255_1_388
10
7.8146658
20
31.8158838
11
8.1815129
21
31.8158838
0
LINE
8
DEFAULT_255_1_388
10
8.1815129
20
31.8158838
11
8.1815129
21
32.1998987
0
LINE
8
DEFAULT_255_1_388
10
8.1815129
20
32.1998987
11
8.3495759
21
32.1998987
0
LINE
8
DEFAULT_255_1_388
10
4.3188367
20
37.7174898
11
4.3188367
21
36.4019
0
LINE
8
DEFAULT_255_1_388
10
4.3188367
20
36.4019
11
4.1453523
21
36.4019
0
LINE
8
DEFAULT_255_1_388
10
4.1453523
20
36.4019
11
4.1453523
21
37.7174898
0
LINE
8
DEFAULT_255_1_388
10
4.1453523
20
37.7174898
11
4.3188367
21
37.7174898
0
LINE
8
DEFAULT_255_1_388
10
5.6470764
20
37.7174898
11
5.6470764
21
36.4019
0
LINE
8
DEFAULT_255_1_388
10
5.6470764
20
36.4019
11
5.4726885
21
36.4019
0
LINE
8
DEFAULT_255_1_388
10
5.4726885
20
36.4019
11
4.8103757
21
37.4156993
0
LINE
8
DEFAULT_255_1_388
10
4.8103757
20
37.4156993
11
4.8103757
21
36.4019
0
LINE
8
DEFAULT_255_1_388
10
4.8103757
20
36.4019
11
4.6359878
21
36.4019
0
LINE
8
DEFAULT_255_1_388
10
4.6359878
20
36.4019
11
4.6359878
21
37.7174898
0
LINE
8
DEFAULT_255_1_388
10
4.6359878
20
37.7174898
11
4.8103757
21
37.7174898
0
LINE
8
DEFAULT_255_1_388
10
4.8103757
20
37.7174898
11
5.4744956
21
36.6991727
0
LINE
8
DEFAULT_255_1_388
10
5.4744956
20
36.6991727
11
5.4744956
21
37.7174898
0
LINE
8
DEFAULT_255_1_388
10
5.4744956
20
37.7174898
11
5.6470764
21
37.7174898
0
LINE
8
DEFAULT_255_1_388
10
6.461188
20
37.7238148
11
6.461188
21
36.4019
0
LINE
8
DEFAULT_255_1_388
10
6.461188
20
36.4019
11
6.293125
21
36.4019
0
LINE
8
DEFAULT_255_1_388
10
6.293125
20
36.4019
11
6.293125
21
37.515995
0
LINE
8
DEFAULT_255_1_388
10
6.293125
20
37.515995
11
5.9560955
21
37.3922066
0
LINE
8
DEFAULT_255_1_388
10
5.9560955
20
37.3922066
11
5.9560955
21
37.5440055
0
LINE
8
DEFAULT_255_1_388
10
5.9560955
20
37.5440055
11
6.4349846
21
37.7238148
0
LINE
8
DEFAULT_255_1_388
10
6.4349846
20
37.7238148
11
6.461188
21
37.7238148
0
LINE
8
DEFAULT_255_1_388
10
7.1939788
20
37.0045775
11
7.1939788
21
37.1410157
0
LINE
8
DEFAULT_255_1_388
10
7.1939788
20
37.1410157
11
7.3195742
21
37.1410157
0
LINE
8
DEFAULT_255_1_388
10
7.1054294
20
37.3723282
11
6.93827
21
37.3723282
0
LINE
8
DEFAULT_255_1_388
10
6.9265237
20
36.7488688
11
7.0945867
21
36.7488688
0
LINE
8
DEFAULT_255_1_388
10
7.3195742
20
37.0045775
11
7.1939788
21
37.0045775
0
ARC
8
DEFAULT_255_1_388
10
7.3162969
20
37.5226922
40
0.3816905
50
270.491971
51
281.8953028
0
ARC
8
DEFAULT_255_1_388
10
7.3434396
20
37.3987199
40
0.2547877
50
281.6690378
51
301.2943765
0
ARC
8
DEFAULT_255_1_388
10
7.3625847
20
37.3636926
40
0.2149197
50
301.7834992
51
311.754567
0
ARC
8
DEFAULT_255_1_388
10
7.3728888
20
37.352265
40
0.1995326
50
311.7325027
51
354.2803031
0
ARC
8
DEFAULT_255_1_388
10
7.2911304
20
37.366328
40
0.2823461
50
353.0941646
51
0.1174696
0
ARC
8
DEFAULT_255_1_388
10
7.2392862
20
37.3716874
40
0.3342238
50
359.1804452
51
15.0452323
0
ARC
8
DEFAULT_255_1_388
10
7.3906921
20
37.4158546
40
0.1765747
50
13.957816
51
77.6713812
0
ARC
8
DEFAULT_255_1_388
10
7.3472156
20
37.2600464
40
0.3381982
50
76.111571
51
90.7028736
0
ARC
8
DEFAULT_255_1_388
10
7.3405568
20
37.290825
40
0.3074046
50
89.5321574
51
103.5319393
0
ARC
8
DEFAULT_255_1_388
10
7.3179952
20
37.3807443
40
0.2147041
50
103.2930114
51
133.5619756
0
ARC
8
DEFAULT_255_1_388
10
7.3129894
20
37.3874351
40
0.2064084
50
133.8349761
51
173.5343225
0
ARC
8
DEFAULT_255_1_388
10
7.3943551
20
37.3730144
40
0.2889266
50
172.5097183
51
180.1360699
0
ARC
8
DEFAULT_255_1_388
10
7.2873315
20
37.376888
40
0.3490913
50
155.3483706
51
180.7484035
0
ARC
8
DEFAULT_255_1_388
10
7.2818291
20
37.3736519
40
0.3454798
50
131.5745177
51
154.4799474
0
ARC
8
DEFAULT_255_1_388
10
7.3170573
20
37.3380422
40
0.3955058
50
96.9874487
51
131.9690874
0
ARC
8
DEFAULT_255_1_388
10
7.3417466
20
37.1979407
40
0.537622
50
89.8592909
51
97.7827481
0
ARC
8
DEFAULT_255_1_388
10
7.3471575
20
37.168436
40
0.5671399
50
78.3654493
51
90.4132586
0
ARC
8
DEFAULT_255_1_388
10
7.3874216
20
37.3550918
40
0.3762034
50
56.6229818
51
78.6387103
0
ARC
8
DEFAULT_255_1_388
10
7.4116045
20
37.3973846
40
0.3275964
50
47.0254604
51
56.085558
0
ARC
8
DEFAULT_255_1_388
10
7.4138296
20
37.4018189
40
0.3228382
50
10.9207523
51
46.777927
0
ARC
8
DEFAULT_255_1_388
10
7.260389
20
37.3663401
40
0.4802559
50
359.6364235
51
11.6087615
0
ARC
8
DEFAULT_255_1_388
10
7.4668056
20
37.3646404
40
0.273833
50
332.3549969
51
359.7179765
0
ARC
8
DEFAULT_255_1_388
10
7.3936457
20
37.3993285
40
0.3547505
50
325.2332381
51
332.8746682
0
ARC
8
DEFAULT_255_1_388
10
7.4108039
20
37.3873763
40
0.3338396
50
292.9803892
51
325.2391113
0
ARC
8
DEFAULT_255_1_388
10
7.3797235
20
37.4478679
40
0.4016959
50
292.542178
51
293.6931461
0
ARC
8
DEFAULT_255_1_388
10
7.4240807
20
36.7213036
40
0.372079
50
57.643292
51
72.8626085
0
ARC
8
DEFAULT_255_1_388
10
7.4639642
20
36.7859273
40
0.2961455
50
36.7246661
51
57.4701329
0
ARC
8
DEFAULT_255_1_388
10
7.4626798
20
36.787347
40
0.2963321
50
8.054535
51
36.3561529
0
ARC
8
DEFAULT_255_1_388
10
7.3656471
20
36.7699073
40
0.3948682
50
359.8316595
51
8.5873361
0
ARC
8
DEFAULT_255_1_388
10
7.3233945
20
36.764497
40
0.4371398
50
343.9831631
51
0.557075
0
ARC
8
DEFAULT_255_1_388
10
7.4230995
20
36.7371963
40
0.3337749
50
311.6358204
51
343.7652116
0
ARC
8
DEFAULT_255_1_388
10
7.3805248
20
36.7851955
40
0.3979351
50
279.7829743
51
311.625622
0
ARC
8
DEFAULT_255_1_388
10
7.3466384
20
36.9468642
40
0.5630417
50
269.7285092
51
280.3857694
0
ARC
8
DEFAULT_255_1_388
10
7.3396697
20
36.9422241
40
0.5584119
50
256.6827433
51
270.4412869
0
ARC
8
DEFAULT_255_1_388
10
7.3015683
20
36.7864698
40
0.3980715
50
229.4223821
51
256.8554507
0
ARC
8
DEFAULT_255_1_388
10
7.2549237
20
36.7339683
40
0.3278564
50
181.8183354
51
229.6455015
0
ARC
8
DEFAULT_255_1_388
10
7.3718846
20
36.7486825
40
0.4453611
50
179.9760419
51
183.2330638
0
ARC
8
DEFAULT_255_1_388
10
7.3525398
20
36.7463781
40
0.2579652
50
179.4467996
51
196.2871626
0
ARC
8
DEFAULT_255_1_388
10
7.2976852
20
36.7313709
40
0.2011057
50
196.5661293
51
227.7059371
0
ARC
8
DEFAULT_255_1_388
10
7.3161459
20
36.7520155
40
0.2287994
50
227.7653015
51
257.8763321
0
ARC
8
DEFAULT_255_1_388
10
7.3414543
20
36.8580961
40
0.3378385
50
257.4583525
51
270.4267406
0
ARC
8
DEFAULT_255_1_388
10
7.3465792
20
36.890723
40
0.3704652
50
269.5965319
51
280.8788143
0
ARC
8
DEFAULT_255_1_388
10
7.372402
20
36.7617529
40
0.2389415
50
280.6347277
51
299.8594068
0
ARC
8
DEFAULT_255_1_388
10
7.393879
20
36.7209736
40
0.19289
50
300.3575552
51
314.5515667
0
ARC
8
DEFAULT_255_1_388
10
7.3845465
20
36.7278025
40
0.204312
50
315.0730962
51
345.0429362
0
ARC
8
DEFAULT_255_1_388
10
7.2806973
20
36.7580539
40
0.31246
50
344.598526
51
357.9270698
0
ARC
8
DEFAULT_255_1_388
10
7.1797278
20
36.7649705
40
0.4136265
50
357.4755098
51
0.0224936
0
ARC
8
DEFAULT_255_1_388
10
7.2950155
20
36.7677099
40
0.2983498
50
359.5051035
51
13.4236939
0
ARC
8
DEFAULT_255_1_388
10
7.3925245
20
36.7926637
40
0.1977186
50
12.9497905
51
48.7550905
0
ARC
8
DEFAULT_255_1_388
10
7.3720167
20
36.7646373
40
0.2323321
50
49.509109
51
72.1832965
0
ARC
8
DEFAULT_255_1_388
10
7.3317635
20
36.6451632
40
0.358397
50
71.9008458
51
84.3555134
0
ARC
8
DEFAULT_255_1_388
10
7.313603
20
36.4919712
40
0.512641
50
84.019632
51
89.3326067
0
LINE
8
DEFAULT_255_1_388
10
8.3550591
20
37.0289737
11
8.3550591
21
36.8925355
0
LINE
8
DEFAULT_255_1_388
10
8.3550591
20
36.8925355
11
7.9141196
21
36.8925355
0
LINE
8
DEFAULT_255_1_388
10
7.9141196
20
36.8925355
11
7.9141196
21
37.0289737
0
LINE
8
DEFAULT_255_1_388
10
7.9141196
20
37.0289737
11
8.3550591
21
37.0289737
0
LINE
8
DEFAULT_255_1_388
10
4.1823367
20
43.0091898
11
4.1823367
21
41.6936
0
LINE
8
DEFAULT_255_1_388
10
4.1823367
20
41.6936
11
4.0088523
21
41.6936
0
LINE
8
DEFAULT_255_1_388
10
4.0088523
20
41.6936
11
4.0088523
21
43.0091898
0
LINE
8
DEFAULT_255_1_388
10
4.0088523
20
43.0091898
11
4.1823367
21
43.0091898
0
LINE
8
DEFAULT_255_1_388
10
5.5105764
20
43.0091898
11
5.5105764
21
41.6936
0
LINE
8
DEFAULT_255_1_388
10
5.5105764
20
41.6936
11
5.3361885
21
41.6936
0
LINE
8
DEFAULT_255_1_388
10
5.3361885
20
41.6936
11
4.6738757
21
42.7073993
0
LINE
8
DEFAULT_255_1_388
10
4.6738757
20
42.7073993
11
4.6738757
21
41.6936
0
LINE
8
DEFAULT_255_1_388
10
4.6738757
20
41.6936
11
4.4994878
21
41.6936
0
LINE
8
DEFAULT_255_1_388
10
4.4994878
20
41.6936
11
4.4994878
21
43.0091898
0
LINE
8
DEFAULT_255_1_388
10
4.4994878
20
43.0091898
11
4.6738757
21
43.0091898
0
LINE
8
DEFAULT_255_1_388
10
4.6738757
20
43.0091898
11
5.3379956
21
41.9908727
0
LINE
8
DEFAULT_255_1_388
10
5.3379956
20
41.9908727
11
5.3379956
21
43.0091898
0
LINE
8
DEFAULT_255_1_388
10
5.3379956
20
43.0091898
11
5.5105764
21
43.0091898
0
LINE
8
DEFAULT_255_1_388
10
6.324688
20
43.0155148
11
6.324688
21
41.6936
0
LINE
8
DEFAULT_255_1_388
10
6.324688
20
41.6936
11
6.156625
21
41.6936
0
LINE
8
DEFAULT_255_1_388
10
6.156625
20
41.6936
11
6.156625
21
42.807695
0
LINE
8
DEFAULT_255_1_388
10
6.156625
20
42.807695
11
5.8195955
21
42.6839066
0
LINE
8
DEFAULT_255_1_388
10
5.8195955
20
42.6839066
11
5.8195955
21
42.8357055
0
LINE
8
DEFAULT_255_1_388
10
5.8195955
20
42.8357055
11
6.2984846
21
43.0155148
0
LINE
8
DEFAULT_255_1_388
10
6.2984846
20
43.0155148
11
6.324688
21
43.0155148
0
LINE
8
DEFAULT_255_1_388
10
7.0574788
20
42.2962775
11
7.0574788
21
42.4327157
0
LINE
8
DEFAULT_255_1_388
10
7.0574788
20
42.4327157
11
7.1830742
21
42.4327157
0
LINE
8
DEFAULT_255_1_388
10
6.9689294
20
42.6640282
11
6.80177
21
42.6640282
0
LINE
8
DEFAULT_255_1_388
10
6.7900237
20
42.0405688
11
6.9580867
21
42.0405688
0
LINE
8
DEFAULT_255_1_388
10
7.1830742
20
42.2962775
11
7.0574788
21
42.2962775
0
ARC
8
DEFAULT_255_1_388
10
7.1797969
20
42.8143922
40
0.3816905
50
270.491971
51
281.8953028
0
ARC
8
DEFAULT_255_1_388
10
7.2069396
20
42.6904199
40
0.2547877
50
281.6690378
51
301.2943765
0
ARC
8
DEFAULT_255_1_388
10
7.2260847
20
42.6553926
40
0.2149197
50
301.7834992
51
311.754567
0
ARC
8
DEFAULT_255_1_388
10
7.2363888
20
42.643965
40
0.1995326
50
311.7325027
51
354.2803031
0
ARC
8
DEFAULT_255_1_388
10
7.1546304
20
42.658028
40
0.2823461
50
353.0941646
51
0.1174696
0
ARC
8
DEFAULT_255_1_388
10
7.1027862
20
42.6633874
40
0.3342238
50
359.1804452
51
15.0452323
0
ARC
8
DEFAULT_255_1_388
10
7.2541921
20
42.7075546
40
0.1765747
50
13.957816
51
77.6713812
0
ARC
8
DEFAULT_255_1_388
10
7.2107156
20
42.5517464
40
0.3381982
50
76.111571
51
90.7028736
0
ARC
8
DEFAULT_255_1_388
10
7.2040568
20
42.582525
40
0.3074046
50
89.5321574
51
103.5319393
0
ARC
8
DEFAULT_255_1_388
10
7.1814952
20
42.6724443
40
0.2147041
50
103.2930114
51
133.5619756
0
ARC
8
DEFAULT_255_1_388
10
7.1764894
20
42.6791351
40
0.2064084
50
133.8349761
51
173.5343225
0
ARC
8
DEFAULT_255_1_388
10
7.2578551
20
42.6647144
40
0.2889266
50
172.5097183
51
180.1360699
0
ARC
8
DEFAULT_255_1_388
10
7.1508315
20
42.668588
40
0.3490913
50
155.3483706
51
180.7484035
0
ARC
8
DEFAULT_255_1_388
10
7.1453291
20
42.6653519
40
0.3454798
50
131.5745177
51
154.4799474
0
ARC
8
DEFAULT_255_1_388
10
7.1805573
20
42.6297422
40
0.3955058
50
96.9874487
51
131.9690874
0
ARC
8
DEFAULT_255_1_388
10
7.2052466
20
42.4896407
40
0.537622
50
89.8592909
51
97.7827481
0
ARC
8
DEFAULT_255_1_388
10
7.2106575
20
42.460136
40
0.5671399
50
78.3654493
51
90.4132586
0
ARC
8
DEFAULT_255_1_388
10
7.2509216
20
42.6467918
40
0.3762034
50
56.6229818
51
78.6387103
0
ARC
8
DEFAULT_255_1_388
10
7.2751045
20
42.6890846
40
0.3275964
50
47.0254604
51
56.085558
0
ARC
8
DEFAULT_255_1_388
10
7.2773296
20
42.6935189
40
0.3228382
50
10.9207523
51
46.777927
0
ARC
8
DEFAULT_255_1_388
10
7.123889
20
42.6580401
40
0.4802559
50
359.6364235
51
11.6087615
0
ARC
8
DEFAULT_255_1_388
10
7.3303056
20
42.6563404
40
0.273833
50
332.3549969
51
359.7179765
0
ARC
8
DEFAULT_255_1_388
10
7.2571457
20
42.6910285
40
0.3547505
50
325.2332381
51
332.8746682
0
ARC
8
DEFAULT_255_1_388
10
7.2743039
20
42.6790763
40
0.3338396
50
292.9803892
51
325.2391113
0
ARC
8
DEFAULT_255_1_388
10
7.2432235
20
42.7395679
40
0.4016959
50
292.542178
51
293.6931461
0
ARC
8
DEFAULT_255_1_388
10
7.2875807
20
42.0130036
40
0.372079
50
57.643292
51
72.8626085
0
ARC
8
DEFAULT_255_1_388
10
7.3274642
20
42.0776273
40
0.2961455
50
36.7246661
51
57.4701329
0
ARC
8
DEFAULT_255_1_388
10
7.3261798
20
42.079047
40
0.2963321
50
8.054535
51
36.3561529
0
ARC
8
DEFAULT_255_1_388
10
7.2291471
20
42.0616073
40
0.3948682
50
359.8316595
51
8.5873361
0
ARC
8
DEFAULT_255_1_388
10
7.1868945
20
42.056197
40
0.4371398
50
343.9831631
51
0.557075
0
ARC
8
DEFAULT_255_1_388
10
7.2865995
20
42.0288963
40
0.3337749
50
311.6358204
51
343.7652116
0
ARC
8
DEFAULT_255_1_388
10
7.2440248
20
42.0768955
40
0.3979351
50
279.7829743
51
311.625622
0
ARC
8
DEFAULT_255_1_388
10
7.2101384
20
42.2385642
40
0.5630417
50
269.7285092
51
280.3857694
0
ARC
8
DEFAULT_255_1_388
10
7.2031697
20
42.2339241
40
0.5584119
50
256.6827433
51
270.4412869
0
ARC
8
DEFAULT_255_1_388
10
7.1650683
20
42.0781698
40
0.3980715
50
229.4223821
51
256.8554507
0
ARC
8
DEFAULT_255_1_388
10
7.1184237
20
42.0256683
40
0.3278564
50
181.8183354
51
229.6455015
0
ARC
8
DEFAULT_255_1_388
10
7.2353846
20
42.0403825
40
0.4453611
50
179.9760419
51
183.2330638
0
ARC
8
DEFAULT_255_1_388
10
7.2160398
20
42.0380781
40
0.2579652
50
179.4467996
51
196.2871626
0
ARC
8
DEFAULT_255_1_388
10
7.1611852
20
42.0230709
40
0.2011057
50
196.5661293
51
227.7059371
0
ARC
8
DEFAULT_255_1_388
10
7.1796459
20
42.0437155
40
0.2287994
50
227.7653015
51
257.8763321
0
ARC
8
DEFAULT_255_1_388
10
7.2049543
20
42.1497961
40
0.3378385
50
257.4583525
51
270.4267406
0
ARC
8
DEFAULT_255_1_388
10
7.2100792
20
42.182423
40
0.3704652
50
269.5965319
51
280.8788143
0
ARC
8
DEFAULT_255_1_388
10
7.235902
20
42.0534529
40
0.2389415
50
280.6347277
51
299.8594068
0
ARC
8
DEFAULT_255_1_388
10
7.257379
20
42.0126736
40
0.19289
50
300.3575552
51
314.5515667
0
ARC
8
DEFAULT_255_1_388
10
7.2480465
20
42.0195025
40
0.204312
50
315.0730962
51
345.0429362
0
ARC
8
DEFAULT_255_1_388
10
7.1441973
20
42.0497539
40
0.31246
50
344.598526
51
357.9270698
0
ARC
8
DEFAULT_255_1_388
10
7.0432278
20
42.0566705
40
0.4136265
50
357.4755098
51
0.0224936
0
ARC
8
DEFAULT_255_1_388
10
7.1585155
20
42.0594099
40
0.2983498
50
359.5051035
51
13.4236939
0
ARC
8
DEFAULT_255_1_388
10
7.2560245
20
42.0843637
40
0.1977186
50
12.9497905
51
48.7550905
0
ARC
8
DEFAULT_255_1_388
10
7.2355167
20
42.0563373
40
0.2323321
50
49.509109
51
72.1832965
0
ARC
8
DEFAULT_255_1_388
10
7.1952635
20
41.9368632
40
0.358397
50
71.9008458
51
84.3555134
0
ARC
8
DEFAULT_255_1_388
10
7.177103
20
41.7836712
40
0.512641
50
84.019632
51
89.3326067
0
LINE
8
DEFAULT_255_1_388
10
8.3495759
20
42.7832987
11
8.3495759
21
42.3992838
0
LINE
8
DEFAULT_255_1_388
10
8.3495759
20
42.3992838
11
8.7164231
21
42.3992838
0
LINE
8
DEFAULT_255_1_388
10
8.7164231
20
42.3992838
11
8.7164231
21
42.2411601
0
LINE
8
DEFAULT_255_1_388
10
8.7164231
20
42.2411601
11
8.3495759
21
42.2411601
0
LINE
8
DEFAULT_255_1_388
10
8.3495759
20
42.2411601
11
8.3495759
21
41.8255204
0
LINE
8
DEFAULT_255_1_388
10
8.3495759
20
41.8255204
11
8.1815129
21
41.8255204
0
LINE
8
DEFAULT_255_1_388
10
8.1815129
20
41.8255204
11
8.1815129
21
42.2411601
0
LINE
8
DEFAULT_255_1_388
10
8.1815129
20
42.2411601
11
7.8146658
21
42.2411601
0
LINE
8
DEFAULT_255_1_388
10
7.8146658
20
42.2411601
11
7.8146658
21
42.3992838
0
LINE
8
DEFAULT_255_1_388
10
7.8146658
20
42.3992838
11
8.1815129
21
42.3992838
0
LINE
8
DEFAULT_255_1_388
10
8.1815129
20
42.3992838
11
8.1815129
21
42.7832987
0
LINE
8
DEFAULT_255_1_388
10
8.1815129
20
42.7832987
11
8.3495759
21
42.7832987
0
LINE
8
DEFAULT_255_1_388
10
4.3188367
20
48.3007898
11
4.3188367
21
46.9852
0
LINE
8
DEFAULT_255_1_388
10
4.3188367
20
46.9852
11
4.1453523
21
46.9852
0
LINE
8
DEFAULT_255_1_388
10
4.1453523
20
46.9852
11
4.1453523
21
48.3007898
0
LINE
8
DEFAULT_255_1_388
10
4.1453523
20
48.3007898
11
4.3188367
21
48.3007898
0
LINE
8
DEFAULT_255_1_388
10
5.6470764
20
48.3007898
11
5.6470764
21
46.9852
0
LINE
8
DEFAULT_255_1_388
10
5.6470764
20
46.9852
11
5.4726885
21
46.9852
0
LINE
8
DEFAULT_255_1_388
10
5.4726885
20
46.9852
11
4.8103757
21
47.9989993
0
LINE
8
DEFAULT_255_1_388
10
4.8103757
20
47.9989993
11
4.8103757
21
46.9852
0
LINE
8
DEFAULT_255_1_388
10
4.8103757
20
46.9852
11
4.6359878
21
46.9852
0
LINE
8
DEFAULT_255_1_388
10
4.6359878
20
46.9852
11
4.6359878
21
48.3007898
0
LINE
8
DEFAULT_255_1_388
10
4.6359878
20
48.3007898
11
4.8103757
21
48.3007898
0
LINE
8
DEFAULT_255_1_388
10
4.8103757
20
48.3007898
11
5.4744956
21
47.2824727
0
LINE
8
DEFAULT_255_1_388
10
5.4744956
20
47.2824727
11
5.4744956
21
48.3007898
0
LINE
8
DEFAULT_255_1_388
10
5.4744956
20
48.3007898
11
5.6470764
21
48.3007898
0
LINE
8
DEFAULT_255_1_388
10
6.461188
20
48.3071148
11
6.461188
21
46.9852
0
LINE
8
DEFAULT_255_1_388
10
6.461188
20
46.9852
11
6.293125
21
46.9852
0
LINE
8
DEFAULT_255_1_388
10
6.293125
20
46.9852
11
6.293125
21
48.099295
0
LINE
8
DEFAULT_255_1_388
10
6.293125
20
48.099295
11
5.9560955
21
47.9755066
0
LINE
8
DEFAULT_255_1_388
10
5.9560955
20
47.9755066
11
5.9560955
21
48.1273055
0
LINE
8
DEFAULT_255_1_388
10
5.9560955
20
48.1273055
11
6.4349846
21
48.3071148
0
LINE
8
DEFAULT_255_1_388
10
6.4349846
20
48.3071148
11
6.461188
21
48.3071148
0
LINE
8
DEFAULT_255_1_388
10
7.8129204
20
47.1216382
11
7.8129204
21
46.9852
0
LINE
8
DEFAULT_255_1_388
10
7.8129204
20
46.9852
11
6.9509199
21
46.9852
0
LINE
8
DEFAULT_255_1_388
10
6.9509199
20
46.9852
11
6.9509199
21
47.1053741
0
LINE
8
DEFAULT_255_1_388
10
6.9509199
20
47.1053741
11
7.4063164
21
47.6113702
0
LINE
8
DEFAULT_255_1_388
10
7.0927795
20
47.9131607
11
6.9256201
21
47.9131607
0
LINE
8
DEFAULT_255_1_388
10
7.5048049
20
47.503846
11
7.1524148
21
47.1216382
0
LINE
8
DEFAULT_255_1_388
10
7.1524148
20
47.1216382
11
7.8129204
21
47.1216382
0
ARC
8
DEFAULT_255_1_388
10
5.8887224
20
48.9533983
40
2.0258655
50
318.5132526
51
320.7829045
0
ARC
8
DEFAULT_255_1_388
10
6.4835181
20
48.4692929
40
1.2589638
50
320.7372878
51
323.9739031
0
ARC
8
DEFAULT_255_1_388
10
6.9244112
20
48.1498554
40
0.7145141
50
323.8962701
51
328.64194
0
ARC
8
DEFAULT_255_1_388
10
7.154637
20
48.0078545
40
0.4440242
50
328.8294576
51
331.7891185
0
ARC
8
DEFAULT_255_1_388
10
7.266869
20
47.9499374
40
0.3177517
50
331.4254512
51
352.9365785
0
ARC
8
DEFAULT_255_1_388
10
7.282169
20
47.946505
40
0.3021496
50
353.2257659
51
0.0166158
0
ARC
8
DEFAULT_255_1_388
10
7.305845
20
47.9490894
40
0.2784847
50
359.486299
51
15.9343185
0
ARC
8
DEFAULT_255_1_388
10
7.3628717
20
47.9644269
40
0.2194403
50
16.1712913
51
43.5286088
0
ARC
8
DEFAULT_255_1_388
10
7.3715662
20
47.9731191
40
0.2071504
50
43.4417391
51
83.1661095
0
ARC
8
DEFAULT_255_1_388
10
7.3564823
20
47.8902316
40
0.2912888
50
82.160179
51
90.1505708
0
ARC
8
DEFAULT_255_1_388
10
7.3529305
20
47.8298279
40
0.3517025
50
89.5460741
51
102.5418361
0
ARC
8
DEFAULT_255_1_388
10
7.3256025
20
47.9457933
40
0.2325748
50
102.1738499
51
129.206123
0
ARC
8
DEFAULT_255_1_388
10
7.3167478
20
47.9597664
40
0.2161591
50
129.72865
51
135.753947
0
ARC
8
DEFAULT_255_1_388
10
7.330396
20
47.9488728
40
0.2335433
50
136.1757367
51
166.3673339
0
ARC
8
DEFAULT_255_1_388
10
7.4436649
20
47.9185148
40
0.3507873
50
165.9090694
51
178.8684636
0
ARC
8
DEFAULT_255_1_388
10
7.541242
20
47.9132263
40
0.4484624
50
178.4391136
51
180.0083808
0
ARC
8
DEFAULT_255_1_388
10
7.3833122
20
47.9176197
40
0.4577138
50
163.2878482
51
180.5581842
0
ARC
8
DEFAULT_255_1_388
10
7.2931163
20
47.9424393
40
0.3641968
50
133.4540601
51
162.947111
0
ARC
8
DEFAULT_255_1_388
10
7.3132044
20
47.9210789
40
0.3935189
50
100.7869829
51
133.4382499
0
ARC
8
DEFAULT_255_1_388
10
7.3523289
20
47.7468399
40
0.5720313
50
89.660664
51
101.3702276
0
ARC
8
DEFAULT_255_1_388
10
7.3597898
20
47.7537263
40
0.5651495
50
78.2172678
51
90.412935
0
ARC
8
DEFAULT_255_1_388
10
7.3997364
20
47.9364511
40
0.378122
50
55.9269121
51
78.4888449
0
ARC
8
DEFAULT_255_1_388
10
7.4218079
20
47.9745187
40
0.3342379
50
47.929771
51
55.4049217
0
ARC
8
DEFAULT_255_1_388
10
7.433261
20
47.9861618
40
0.3179217
50
4.334829
51
48.0560205
0
ARC
8
DEFAULT_255_1_388
10
7.3100411
20
47.9670487
40
0.442341
50
359.9251713
51
5.5971671
0
ARC
8
DEFAULT_255_1_388
10
7.3582566
20
47.9733728
40
0.3941854
50
337.8914027
51
358.9967534
0
ARC
8
DEFAULT_255_1_388
10
7.0530136
20
48.0911295
40
0.7213271
50
326.9132501
51
338.3508308
0
ARC
8
DEFAULT_255_1_388
10
6.6046248
20
48.3785105
40
1.2538973
50
319.6471833
51
327.0959558
0
ARC
8
DEFAULT_255_1_388
10
6.1732906
20
48.734305
40
1.8129975
50
317.2588228
51
319.9045804
0
LINE
8
DEFAULT_255_1_388
10
8.3550591
20
47.6122737
11
8.3550591
21
47.4758355
0
LINE
8
DEFAULT_255_1_388
10
8.3550591
20
47.4758355
11
7.9141196
21
47.4758355
0
LINE
8
DEFAULT_255_1_388
10
7.9141196
20
47.4758355
11
7.9141196
21
47.6122737
0
LINE
8
DEFAULT_255_1_388
10
7.9141196
20
47.6122737
11
8.3550591
21
47.6122737
0
LINE
8
DEFAULT_255_1_388
10
4.1823367
20
53.5924898
11
4.1823367
21
52.2769
0
LINE
8
DEFAULT_255_1_388
10
4.1823367
20
52.2769
11
4.0088523
21
52.2769
0
LINE
8
DEFAULT_255_1_388
10
4.0088523
20
52.2769
11
4.0088523
21
53.5924898
0
LINE
8
DEFAULT_255_1_388
10
4.0088523
20
53.5924898
11
4.1823367
21
53.5924898
0
LINE
8
DEFAULT_255_1_388
10
5.5105764
20
53.5924898
11
5.5105764
21
52.2769
0
LINE
8
DEFAULT_255_1_388
10
5.5105764
20
52.2769
11
5.3361885
21
52.2769
0
LINE
8
DEFAULT_255_1_388
10
5.3361885
20
52.2769
11
4.6738757
21
53.2906993
0
LINE
8
DEFAULT_255_1_388
10
4.6738757
20
53.2906993
11
4.6738757
21
52.2769
0
LINE
8
DEFAULT_255_1_388
10
4.6738757
20
52.2769
11
4.4994878
21
52.2769
0
LINE
8
DEFAULT_255_1_388
10
4.4994878
20
52.2769
11
4.4994878
21
53.5924898
0
LINE
8
DEFAULT_255_1_388
10
4.4994878
20
53.5924898
11
4.6738757
21
53.5924898
0
LINE
8
DEFAULT_255_1_388
10
4.6738757
20
53.5924898
11
5.3379956
21
52.5741727
0
LINE
8
DEFAULT_255_1_388
10
5.3379956
20
52.5741727
11
5.3379956
21
53.5924898
0
LINE
8
DEFAULT_255_1_388
10
5.3379956
20
53.5924898
11
5.5105764
21
53.5924898
0
LINE
8
DEFAULT_255_1_388
10
6.324688
20
53.5988148
11
6.324688
21
52.2769
0
LINE
8
DEFAULT_255_1_388
10
6.324688
20
52.2769
11
6.156625
21
52.2769
0
LINE
8
DEFAULT_255_1_388
10
6.156625
20
52.2769
11
6.156625
21
53.390995
0
LINE
8
DEFAULT_255_1_388
10
6.156625
20
53.390995
11
5.8195955
21
53.2672066
0
LINE
8
DEFAULT_255_1_388
10
5.8195955
20
53.2672066
11
5.8195955
21
53.4190055
0
LINE
8
DEFAULT_255_1_388
10
5.8195955
20
53.4190055
11
6.2984846
21
53.5988148
0
LINE
8
DEFAULT_255_1_388
10
6.2984846
20
53.5988148
11
6.324688
21
53.5988148
0
LINE
8
DEFAULT_255_1_388
10
7.6764204
20
52.4133382
11
7.6764204
21
52.2769
0
LINE
8
DEFAULT_255_1_388
10
7.6764204
20
52.2769
11
6.8144199
21
52.2769
0
LINE
8
DEFAULT_255_1_388
10
6.8144199
20
52.2769
11
6.8144199
21
52.3970741
0
LINE
8
DEFAULT_255_1_388
10
6.8144199
20
52.3970741
11
7.2698164
21
52.9030702
0
LINE
8
DEFAULT_255_1_388
10
6.9562795
20
53.2048607
11
6.7891201
21
53.2048607
0
LINE
8
DEFAULT_255_1_388
10
7.3683049
20
52.795546
11
7.0159148
21
52.4133382
0
LINE
8
DEFAULT_255_1_388
10
7.0159148
20
52.4133382
11
7.6764204
21
52.4133382
0
ARC
8
DEFAULT_255_1_388
10
5.7522224
20
54.2450983
40
2.0258655
50
318.5132526
51
320.7829045
0
ARC
8
DEFAULT_255_1_388
10
6.3470181
20
53.7609929
40
1.2589638
50
320.7372878
51
323.9739031
0
ARC
8
DEFAULT_255_1_388
10
6.7879112
20
53.4415554
40
0.7145141
50
323.8962701
51
328.64194
0
ARC
8
DEFAULT_255_1_388
10
7.018137
20
53.2995545
40
0.4440242
50
328.8294576
51
331.7891185
0
ARC
8
DEFAULT_255_1_388
10
7.130369
20
53.2416374
40
0.3177517
50
331.4254512
51
352.9365785
0
ARC
8
DEFAULT_255_1_388
10
7.145669
20
53.238205
40
0.3021496
50
353.2257659
51
0.0166158
0
ARC
8
DEFAULT_255_1_388
10
7.169345
20
53.2407894
40
0.2784847
50
359.486299
51
15.9343185
0
ARC
8
DEFAULT_255_1_388
10
7.2263717
20
53.2561269
40
0.2194403
50
16.1712913
51
43.5286088
0
ARC
8
DEFAULT_255_1_388
10
7.2350662
20
53.2648191
40
0.2071504
50
43.4417391
51
83.1661095
0
ARC
8
DEFAULT_255_1_388
10
7.2199823
20
53.1819316
40
0.2912888
50
82.160179
51
90.1505708
0
ARC
8
DEFAULT_255_1_388
10
7.2164305
20
53.1215279
40
0.3517025
50
89.5460741
51
102.5418361
0
ARC
8
DEFAULT_255_1_388
10
7.1891025
20
53.2374933
40
0.2325748
50
102.1738499
51
129.206123
0
ARC
8
DEFAULT_255_1_388
10
7.1802478
20
53.2514664
40
0.2161591
50
129.72865
51
135.753947
0
ARC
8
DEFAULT_255_1_388
10
7.193896
20
53.2405728
40
0.2335433
50
136.1757367
51
166.3673339
0
ARC
8
DEFAULT_255_1_388
10
7.3071649
20
53.2102148
40
0.3507873
50
165.9090694
51
178.8684636
0
ARC
8
DEFAULT_255_1_388
10
7.404742
20
53.2049263
40
0.4484624
50
178.4391136
51
180.0083808
0
ARC
8
DEFAULT_255_1_388
10
7.2468122
20
53.2093197
40
0.4577138
50
163.2878482
51
180.5581842
0
ARC
8
DEFAULT_255_1_388
10
7.1566163
20
53.2341393
40
0.3641968
50
133.4540601
51
162.947111
0
ARC
8
DEFAULT_255_1_388
10
7.1767044
20
53.2127789
40
0.3935189
50
100.7869829
51
133.4382499
0
ARC
8
DEFAULT_255_1_388
10
7.2158289
20
53.0385399
40
0.5720313
50
89.660664
51
101.3702276
0
ARC
8
DEFAULT_255_1_388
10
7.2232898
20
53.0454263
40
0.5651495
50
78.2172678
51
90.412935
0
ARC
8
DEFAULT_255_1_388
10
7.2632364
20
53.2281511
40
0.378122
50
55.9269121
51
78.4888449
0
ARC
8
DEFAULT_255_1_388
10
7.2853079
20
53.2662187
40
0.3342379
50
47.929771
51
55.4049217
0
ARC
8
DEFAULT_255_1_388
10
7.296761
20
53.2778618
40
0.3179217
50
4.334829
51
48.0560205
0
ARC
8
DEFAULT_255_1_388
10
7.1735411
20
53.2587487
40
0.442341
50
359.9251713
51
5.5971671
0
ARC
8
DEFAULT_255_1_388
10
7.2217566
20
53.2650728
40
0.3941854
50
337.8914027
51
358.9967534
0
ARC
8
DEFAULT_255_1_388
10
6.9165136
20
53.3828295
40
0.7213271
50
326.9132501
51
338.3508308
0
ARC
8
DEFAULT_255_1_388
10
6.4681248
20
53.6702105
40
1.2538973
50
319.6471833
51
327.0959558
0
ARC
8
DEFAULT_255_1_388
10
6.0367906
20
54.026005
40
1.8129975
50
317.2588228
51
319.9045804
0
LINE
8
DEFAULT_255_1_388
10
8.3495759
20
53.3665987
11
8.3495759
21
52.9825838
0
LINE
8
DEFAULT_255_1_388
10
8.3495759
20
52.9825838
11
8.7164231
21
52.9825838
0
LINE
8
DEFAULT_255_1_388
10
8.7164231
20
52.9825838
11
8.7164231
21
52.8244601
0
LINE
8
DEFAULT_255_1_388
10
8.7164231
20
52.8244601
11
8.3495759
21
52.8244601
0
LINE
8
DEFAULT_255_1_388
10
8.3495759
20
52.8244601
11
8.3495759
21
52.4088204
0
LINE
8
DEFAULT_255_1_388
10
8.3495759
20
52.4088204
11
8.1815129
21
52.4088204
0
LINE
8
DEFAULT_255_1_388
10
8.1815129
20
52.4088204
11
8.1815129
21
52.8244601
0
LINE
8
DEFAULT_255_1_388
10
8.1815129
20
52.8244601
11
7.8146658
21
52.8244601
0
LINE
8
DEFAULT_255_1_388
10
7.8146658
20
52.8244601
11
7.8146658
21
52.9825838
0
LINE
8
DEFAULT_255_1_388
10
7.8146658
20
52.9825838
11
8.1815129
21
52.9825838
0
LINE
8
DEFAULT_255_1_388
10
8.1815129
20
52.9825838
11
8.1815129
21
53.3665987
0
LINE
8
DEFAULT_255_1_388
10
8.1815129
20
53.3665987
11
8.3495759
21
53.3665987
0
LINE
8
DEFAULT_255_1_388
10
4.3188367
20
58.8841898
11
4.3188367
21
57.5686
0
LINE
8
DEFAULT_255_1_388
10
4.3188367
20
57.5686
11
4.1453523
21
57.5686
0
LINE
8
DEFAULT_255_1_388
10
4.1453523
20
57.5686
11
4.1453523
21
58.8841898
0
LINE
8
DEFAULT_255_1_388
10
4.1453523
20
58.8841898
11
4.3188367
21
58.8841898
0
LINE
8
DEFAULT_255_1_388
10
5.6470764
20
58.8841898
11
5.6470764
21
57.5686
0
LINE
8
DEFAULT_255_1_388
10
5.6470764
20
57.5686
11
5.4726885
21
57.5686
0
LINE
8
DEFAULT_255_1_388
10
5.4726885
20
57.5686
11
4.8103757
21
58.5823993
0
LINE
8
DEFAULT_255_1_388
10
4.8103757
20
58.5823993
11
4.8103757
21
57.5686
0
LINE
8
DEFAULT_255_1_388
10
4.8103757
20
57.5686
11
4.6359878
21
57.5686
0
LINE
8
DEFAULT_255_1_388
10
4.6359878
20
57.5686
11
4.6359878
21
58.8841898
0
LINE
8
DEFAULT_255_1_388
10
4.6359878
20
58.8841898
11
4.8103757
21
58.8841898
0
LINE
8
DEFAULT_255_1_388
10
4.8103757
20
58.8841898
11
5.4744956
21
57.8658727
0
LINE
8
DEFAULT_255_1_388
10
5.4744956
20
57.8658727
11
5.4744956
21
58.8841898
0
LINE
8
DEFAULT_255_1_388
10
5.4744956
20
58.8841898
11
5.6470764
21
58.8841898
0
LINE
8
DEFAULT_255_1_388
10
6.461188
20
58.8905148
11
6.461188
21
57.5686
0
LINE
8
DEFAULT_255_1_388
10
6.461188
20
57.5686
11
6.293125
21
57.5686
0
LINE
8
DEFAULT_255_1_388
10
6.293125
20
57.5686
11
6.293125
21
58.682695
0
LINE
8
DEFAULT_255_1_388
10
6.293125
20
58.682695
11
5.9560955
21
58.5589066
0
LINE
8
DEFAULT_255_1_388
10
5.9560955
20
58.5589066
11
5.9560955
21
58.7107055
0
LINE
8
DEFAULT_255_1_388
10
5.9560955
20
58.7107055
11
6.4349846
21
58.8905148
0
LINE
8
DEFAULT_255_1_388
10
6.4349846
20
58.8905148
11
6.461188
21
58.8905148
0
LINE
8
DEFAULT_255_1_388
10
7.5002871
20
58.8905148
11
7.5002871
21
57.5686
0
LINE
8
DEFAULT_255_1_388
10
7.5002871
20
57.5686
11
7.3322241
21
57.5686
0
LINE
8
DEFAULT_255_1_388
10
7.3322241
20
57.5686
11
7.3322241
21
58.682695
0
LINE
8
DEFAULT_255_1_388
10
7.3322241
20
58.682695
11
6.9951946
21
58.5589066
0
LINE
8
DEFAULT_255_1_388
10
6.9951946
20
58.5589066
11
6.9951946
21
58.7107055
0
LINE
8
DEFAULT_255_1_388
10
6.9951946
20
58.7107055
11
7.4740837
21
58.8905148
0
LINE
8
DEFAULT_255_1_388
10
7.4740837
20
58.8905148
11
7.5002871
21
58.8905148
0
LINE
8
DEFAULT_255_1_388
10
8.3550591
20
58.1956737
11
8.3550591
21
58.0592355
0
LINE
8
DEFAULT_255_1_388
10
8.3550591
20
58.0592355
11
7.9141196
21
58.0592355
0
LINE
8
DEFAULT_255_1_388
10
7.9141196
20
58.0592355
11
7.9141196
21
58.1956737
0
LINE
8
DEFAULT_255_1_388
10
7.9141196
20
58.1956737
11
8.3550591
21
58.1956737
0
LINE
8
DEFAULT_255_1_388
10
4.1823367
20
64.1757898
11
4.1823367
21
62.8602
0
LINE
8
DEFAULT_255_1_388
10
4.1823367
20
62.8602
11
4.0088523
21
62.8602
0
LINE
8
DEFAULT_255_1_388
10
4.0088523
20
62.8602
11
4.0088523
21
64.1757898
0
LINE
8
DEFAULT_255_1_388
10
4.0088523
20
64.1757898
11
4.1823367
21
64.1757898
0
LINE
8
DEFAULT_255_1_388
10
5.5105764
20
64.1757898
11
5.5105764
21
62.8602
0
LINE
8
DEFAULT_255_1_388
10
5.5105764
20
62.8602
11
5.3361885
21
62.8602
0
LINE
8
DEFAULT_255_1_388
10
5.3361885
20
62.8602
11
4.6738757
21
63.8739993
0
LINE
8
DEFAULT_255_1_388
10
4.6738757
20
63.8739993
11
4.6738757
21
62.8602
0
LINE
8
DEFAULT_255_1_388
10
4.6738757
20
62.8602
11
4.4994878
21
62.8602
0
LINE
8
DEFAULT_255_1_388
10
4.4994878
20
62.8602
11
4.4994878
21
64.1757898
0
LINE
8
DEFAULT_255_1_388
10
4.4994878
20
64.1757898
11
4.6738757
21
64.1757898
0
LINE
8
DEFAULT_255_1_388
10
4.6738757
20
64.1757898
11
5.3379956
21
63.1574727
0
LINE
8
DEFAULT_255_1_388
10
5.3379956
20
63.1574727
11
5.3379956
21
64.1757898
0
LINE
8
DEFAULT_255_1_388
10
5.3379956
20
64.1757898
11
5.5105764
21
64.1757898
0
LINE
8
DEFAULT_255_1_388
10
6.324688
20
64.1821148
11
6.324688
21
62.8602
0
LINE
8
DEFAULT_255_1_388
10
6.324688
20
62.8602
11
6.156625
21
62.8602
0
LINE
8
DEFAULT_255_1_388
10
6.156625
20
62.8602
11
6.156625
21
63.974295
0
LINE
8
DEFAULT_255_1_388
10
6.156625
20
63.974295
11
5.8195955
21
63.8505066
0
LINE
8
DEFAULT_255_1_388
10
5.8195955
20
63.8505066
11
5.8195955
21
64.0023055
0
LINE
8
DEFAULT_255_1_388
10
5.8195955
20
64.0023055
11
6.2984846
21
64.1821148
0
LINE
8
DEFAULT_255_1_388
10
6.2984846
20
64.1821148
11
6.324688
21
64.1821148
0
LINE
8
DEFAULT_255_1_388
10
7.3637871
20
64.1821148
11
7.3637871
21
62.8602
0
LINE
8
DEFAULT_255_1_388
10
7.3637871
20
62.8602
11
7.1957241
21
62.8602
0
LINE
8
DEFAULT_255_1_388
10
7.1957241
20
62.8602
11
7.1957241
21
63.974295
0
LINE
8
DEFAULT_255_1_388
10
7.1957241
20
63.974295
11
6.8586946
21
63.8505066
0
LINE
8
DEFAULT_255_1_388
10
6.8586946
20
63.8505066
11
6.8586946
21
64.0023055
0
LINE
8
DEFAULT_255_1_388
10
6.8586946
20
64.0023055
11
7.3375837
21
64.1821148
0
LINE
8
DEFAULT_255_1_388
10
7.3375837
20
64.1821148
11
7.3637871
21
64.1821148
0
LINE
8
DEFAULT_255_1_388
10
8.3495759
20
63.9498987
11
8.3495759
21
63.5658838
0
LINE
8
DEFAULT_255_1_388
10
8.3495759
20
63.5658838
11
8.7164231
21
63.5658838
0
LINE
8
DEFAULT_255_1_388
10
8.7164231
20
63.5658838
11
8.7164231
21
63.4077601
0
LINE
8
DEFAULT_255_1_388
10
8.7164231
20
63.4077601
11
8.3495759
21
63.4077601
0
LINE
8
DEFAULT_255_1_388
10
8.3495759
20
63.4077601
11
8.3495759
21
62.9921204
0
LINE
8
DEFAULT_255_1_388
10
8.3495759
20
62.9921204
11
8.1815129
21
62.9921204
0
LINE
8
DEFAULT_255_1_388
10
8.1815129
20
62.9921204
11
8.1815129
21
63.4077601
0
LINE
8
DEFAULT_255_1_388
10
8.1815129
20
63.4077601
11
7.8146658
21
63.4077601
0
LINE
8
DEFAULT_255_1_388
10
7.8146658
20
63.4077601
11
7.8146658
21
63.5658838
0
LINE
8
DEFAULT_255_1_388
10
7.8146658
20
63.5658838
11
8.1815129
21
63.5658838
0
LINE
8
DEFAULT_255_1_388
10
8.1815129
20
63.5658838
11
8.1815129
21
63.9498987
0
LINE
8
DEFAULT_255_1_388
10
8.1815129
20
63.9498987
11
8.3495759
21
63.9498987
0
LINE
8
DEFAULT_255_1_388
10
4.3188367
20
69.4674898
11
4.3188367
21
68.1519
0
LINE
8
DEFAULT_255_1_388
10
4.3188367
20
68.1519
11
4.1453523
21
68.1519
0
LINE
8
DEFAULT_255_1_388
10
4.1453523
20
68.1519
11
4.1453523
21
69.4674898
0
LINE
8
DEFAULT_255_1_388
10
4.1453523
20
69.4674898
11
4.3188367
21
69.4674898
0
LINE
8
DEFAULT_255_1_388
10
5.6470764
20
69.4674898
11
5.6470764
21
68.1519
0
LINE
8
DEFAULT_255_1_388
10
5.6470764
20
68.1519
11
5.4726885
21
68.1519
0
LINE
8
DEFAULT_255_1_388
10
5.4726885
20
68.1519
11
4.8103757
21
69.1656993
0
LINE
8
DEFAULT_255_1_388
10
4.8103757
20
69.1656993
11
4.8103757
21
68.1519
0
LINE
8
DEFAULT_255_1_388
10
4.8103757
20
68.1519
11
4.6359878
21
68.1519
0
LINE
8
DEFAULT_255_1_388
10
4.6359878
20
68.1519
11
4.6359878
21
69.4674898
0
LINE
8
DEFAULT_255_1_388
10
4.6359878
20
69.4674898
11
4.8103757
21
69.4674898
0
LINE
8
DEFAULT_255_1_388
10
4.8103757
20
69.4674898
11
5.4744956
21
68.4491727
0
LINE
8
DEFAULT_255_1_388
10
5.4744956
20
68.4491727
11
5.4744956
21
69.4674898
0
LINE
8
DEFAULT_255_1_388
10
5.4744956
20
69.4674898
11
5.6470764
21
69.4674898
0
LINE
8
DEFAULT_255_1_388
10
6.461188
20
69.4738148
11
6.461188
21
68.1519
0
LINE
8
DEFAULT_255_1_388
10
6.461188
20
68.1519
11
6.293125
21
68.1519
0
LINE
8
DEFAULT_255_1_388
10
6.293125
20
68.1519
11
6.293125
21
69.265995
0
LINE
8
DEFAULT_255_1_388
10
6.293125
20
69.265995
11
5.9560955
21
69.1422066
0
LINE
8
DEFAULT_255_1_388
10
5.9560955
20
69.1422066
11
5.9560955
21
69.2940055
0
LINE
8
DEFAULT_255_1_388
10
5.9560955
20
69.2940055
11
6.4349846
21
69.4738148
0
LINE
8
DEFAULT_255_1_388
10
6.4349846
20
69.4738148
11
6.461188
21
69.4738148
0
LINE
8
DEFAULT_255_1_388
10
7.7758743
20
68.929869
11
7.7758743
21
68.7130135
0
LINE
8
DEFAULT_255_1_388
10
6.9454985
20
68.6904244
11
6.9454985
21
68.9136048
0
LINE
8
DEFAULT_255_1_388
10
7.6087148
20
68.6678353
11
7.6087148
21
68.9416153
0
LINE
8
DEFAULT_255_1_388
10
7.112658
20
68.9542652
11
7.112658
21
68.6868102
0
ARC
8
DEFAULT_255_1_388
10
6.3981077
20
68.7075118
40
1.3777776
50
353.8440855
51
0.2287917
0
ARC
8
DEFAULT_255_1_388
10
6.9200094
20
68.6492414
40
0.852639
50
344.4934746
51
353.9763743
0
ARC
8
DEFAULT_255_1_388
10
7.2566901
20
68.5535191
40
0.5026273
50
329.2803599
51
344.7473406
0
ARC
8
DEFAULT_255_1_388
10
7.3682397
20
68.4923038
40
0.3754848
50
324.9361395
51
328.6153007
0
ARC
8
DEFAULT_255_1_388
10
7.4108047
20
68.4625586
40
0.3235566
50
280.5801797
51
324.9173226
0
ARC
8
DEFAULT_255_1_388
10
7.3656675
20
68.6505236
40
0.5167077
50
269.5979457
51
281.6732777
0
ARC
8
DEFAULT_255_1_388
10
7.3575579
20
68.6370113
40
0.5032026
50
256.6228565
51
270.5105488
0
ARC
8
DEFAULT_255_1_388
10
7.3123322
20
68.4628345
40
0.3233092
50
215.8618351
51
257.2787793
0
ARC
8
DEFAULT_255_1_388
10
7.4272029
20
68.5399106
40
0.4615831
50
197.9695203
51
215.2622745
0
ARC
8
DEFAULT_255_1_388
10
7.7067704
20
68.6342641
40
0.7566307
50
187.8816486
51
198.2346584
0
ARC
8
DEFAULT_255_1_388
10
8.1520943
20
68.6985453
40
1.2065653
50
180.8977266
51
188.0054894
0
ARC
8
DEFAULT_255_1_388
10
8.4571156
20
68.71004
40
1.5117443
50
180.7434591
51
181.152202
0
ARC
8
DEFAULT_255_1_388
10
8.2896152
20
68.9190371
40
1.3441277
50
173.7674302
51
180.2315596
0
ARC
8
DEFAULT_255_1_388
10
7.7814021
20
68.9764779
40
0.8326847
50
164.3058537
51
173.9000553
0
ARC
8
DEFAULT_255_1_388
10
7.4538021
20
69.0708652
40
0.4917711
50
148.7922028
51
164.5682288
0
ARC
8
DEFAULT_255_1_388
10
7.3468759
20
69.1305457
40
0.3694204
50
144.5883979
51
148.1161588
0
ARC
8
DEFAULT_255_1_388
10
7.3081504
20
69.1575667
40
0.322202
50
101.6440149
51
144.5142619
0
ARC
8
DEFAULT_255_1_388
10
7.3559696
20
68.9675337
40
0.5180451
50
89.528284
51
102.5820197
0
ARC
8
DEFAULT_255_1_388
10
7.3648688
20
68.9631376
40
0.5224441
50
77.0437914
51
90.508231
0
ARC
8
DEFAULT_255_1_388
10
7.4100942
20
69.1479272
40
0.3322297
50
48.2777708
51
77.4996087
0
ARC
8
DEFAULT_255_1_388
10
7.4182682
20
69.1624557
40
0.315966
50
36.3141586
51
47.6307332
0
ARC
8
DEFAULT_255_1_388
10
7.3205404
20
69.0966159
40
0.4337313
50
18.2931065
51
35.6770203
0
ARC
8
DEFAULT_255_1_388
10
7.0344245
20
68.9984107
40
0.7362203
50
8.0246996
51
18.5605636
0
ARC
8
DEFAULT_255_1_388
10
6.56606
20
68.9292432
40
1.2096583
50
1.127539
51
8.1718423
0
ARC
8
DEFAULT_255_1_388
10
6.2011734
20
68.9149374
40
1.5747719
50
0.5432713
51
1.38669
0
ARC
8
DEFAULT_255_1_388
10
6.4069112
20
68.9456163
40
1.2018103
50
359.8092569
51
4.9408001
0
ARC
8
DEFAULT_255_1_388
10
6.8805694
20
68.98789
40
0.7262727
50
4.8364937
51
12.2906017
0
ARC
8
DEFAULT_255_1_388
10
7.1905158
20
69.0569485
40
0.4087324
50
12.0806994
51
23.8171225
0
ARC
8
DEFAULT_255_1_388
10
7.3225554
20
69.1128508
40
0.2653719
50
24.2874621
51
31.3934353
0
ARC
8
DEFAULT_255_1_388
10
7.381599
20
69.1514822
40
0.1948607
50
30.7407708
51
82.4658033
0
ARC
8
DEFAULT_255_1_388
10
7.3613651
20
69.0521017
40
0.2961198
50
81.1057101
51
90.2187368
0
ARC
8
DEFAULT_255_1_388
10
7.3573463
20
69.0811421
40
0.2670929
50
89.380395
51
105.6763916
0
ARC
8
DEFAULT_255_1_388
10
7.3367185
20
69.156132
40
0.1893189
50
105.7980655
51
149.7387869
0
ARC
8
DEFAULT_255_1_388
10
7.4564325
20
69.0841719
40
0.3289892
50
149.4208441
51
163.628295
0
ARC
8
DEFAULT_255_1_388
10
7.6916555
20
69.0124345
40
0.5749004
50
163.3764549
51
172.141138
0
ARC
8
DEFAULT_255_1_388
10
8.0629276
20
68.9592582
40
0.9499585
50
172.0258462
51
178.0705453
0
ARC
8
DEFAULT_255_1_388
10
8.4050829
20
68.9430682
40
1.2924734
50
177.8639301
51
179.5036263
0
ARC
8
DEFAULT_255_1_388
10
8.2831848
20
68.6827151
40
1.170534
50
179.7995545
51
185.246089
0
ARC
8
DEFAULT_255_1_388
10
7.8283441
20
68.6396404
40
0.7136613
50
185.1411911
51
193.0082205
0
ARC
8
DEFAULT_255_1_388
10
7.5309701
20
68.5693441
40
0.4080987
50
192.7897338
51
205.2507384
0
ARC
8
DEFAULT_255_1_388
10
7.4131911
20
68.5167538
40
0.2791522
50
205.8001921
51
211.2545876
0
ARC
8
DEFAULT_255_1_388
10
7.354345
20
68.4773132
40
0.2084074
50
210.3789935
51
238.4007996
0
ARC
8
DEFAULT_255_1_388
10
7.3521536
20
68.4825786
40
0.2117943
50
239.6521916
51
265.9793852
0
ARC
8
DEFAULT_255_1_388
10
7.3617385
20
68.5582358
40
0.2879689
50
265.1324455
51
270.0603288
0
ARC
8
DEFAULT_255_1_388
10
7.3649762
20
68.5217418
40
0.2514919
50
269.3314378
51
287.2180039
0
ARC
8
DEFAULT_255_1_388
10
7.3804845
20
68.4651291
40
0.1928357
50
287.7957942
51
329.0808983
0
ARC
8
DEFAULT_255_1_388
10
7.2727602
20
68.5323651
40
0.319808
50
328.6635261
51
343.3325043
0
ARC
8
DEFAULT_255_1_388
10
7.028306
20
68.6085195
40
0.5758408
50
343.0498092
51
351.9392499
0
ARC
8
DEFAULT_255_1_388
10
6.6382382
20
68.6660205
40
0.9701202
50
351.8071632
51
357.7957897
0
ARC
8
DEFAULT_255_1_388
10
6.2747859
20
68.6848724
40
1.3340376
50
357.5870923
51
359.2682493
0
LINE
8
DEFAULT_255_1_388
10
8.3550591
20
68.7789737
11
8.3550591
21
68.6425355
0
LINE
8
DEFAULT_255_1_388
10
8.3550591
20
68.6425355
11
7.9141196
21
68.6425355
0
LINE
8
DEFAULT_255_1_388
10
7.9141196
20
68.6425355
11
7.9141196
21
68.7789737
0
LINE
8
DEFAULT_255_1_388
10
7.9141196
20
68.7789737
11
8.3550591
21
68.7789737
0
LINE
8
DEFAULT_255_1_388
10
4.1823367
20
74.7591898
11
4.1823367
21
73.4436
0
LINE
8
DEFAULT_255_1_388
10
4.1823367
20
73.4436
11
4.0088523
21
73.4436
0
LINE
8
DEFAULT_255_1_388
10
4.0088523
20
73.4436
11
4.0088523
21
74.7591898
0
LINE
8
DEFAULT_255_1_388
10
4.0088523
20
74.7591898
11
4.1823367
21
74.7591898
0
LINE
8
DEFAULT_255_1_388
10
5.5105764
20
74.7591898
11
5.5105764
21
73.4436
0
LINE
8
DEFAULT_255_1_388
10
5.5105764
20
73.4436
11
5.3361885
21
73.4436
0
LINE
8
DEFAULT_255_1_388
10
5.3361885
20
73.4436
11
4.6738757
21
74.4573993
0
LINE
8
DEFAULT_255_1_388
10
4.6738757
20
74.4573993
11
4.6738757
21
73.4436
0
LINE
8
DEFAULT_255_1_388
10
4.6738757
20
73.4436
11
4.4994878
21
73.4436
0
LINE
8
DEFAULT_255_1_388
10
4.4994878
20
73.4436
11
4.4994878
21
74.7591898
0
LINE
8
DEFAULT_255_1_388
10
4.4994878
20
74.7591898
11
4.6738757
21
74.7591898
0
LINE
8
DEFAULT_255_1_388
10
4.6738757
20
74.7591898
11
5.3379956
21
73.7408727
0
LINE
8
DEFAULT_255_1_388
10
5.3379956
20
73.7408727
11
5.3379956
21
74.7591898
0
LINE
8
DEFAULT_255_1_388
10
5.3379956
20
74.7591898
11
5.5105764
21
74.7591898
0
LINE
8
DEFAULT_255_1_388
10
6.324688
20
74.7655148
11
6.324688
21
73.4436
0
LINE
8
DEFAULT_255_1_388
10
6.324688
20
73.4436
11
6.156625
21
73.4436
0
LINE
8
DEFAULT_255_1_388
10
6.156625
20
73.4436
11
6.156625
21
74.557695
0
LINE
8
DEFAULT_255_1_388
10
6.156625
20
74.557695
11
5.8195955
21
74.4339066
0
LINE
8
DEFAULT_255_1_388
10
5.8195955
20
74.4339066
11
5.8195955
21
74.5857055
0
LINE
8
DEFAULT_255_1_388
10
5.8195955
20
74.5857055
11
6.2984846
21
74.7655148
0
LINE
8
DEFAULT_255_1_388
10
6.2984846
20
74.7655148
11
6.324688
21
74.7655148
0
LINE
8
DEFAULT_255_1_388
10
7.6393743
20
74.221569
11
7.6393743
21
74.0047135
0
LINE
8
DEFAULT_255_1_388
10
6.8089985
20
73.9821244
11
6.8089985
21
74.2053048
0
LINE
8
DEFAULT_255_1_388
10
7.4722148
20
73.9595353
11
7.4722148
21
74.2333153
0
LINE
8
DEFAULT_255_1_388
10
6.976158
20
74.2459652
11
6.976158
21
73.9785102
0
ARC
8
DEFAULT_255_1_388
10
6.2616077
20
73.9992118
40
1.3777776
50
353.8440855
51
0.2287917
0
ARC
8
DEFAULT_255_1_388
10
6.7835094
20
73.9409414
40
0.852639
50
344.4934746
51
353.9763743
0
ARC
8
DEFAULT_255_1_388
10
7.1201901
20
73.8452191
40
0.5026273
50
329.2803599
51
344.7473406
0
ARC
8
DEFAULT_255_1_388
10
7.2317397
20
73.7840038
40
0.3754848
50
324.9361395
51
328.6153007
0
ARC
8
DEFAULT_255_1_388
10
7.2743047
20
73.7542586
40
0.3235566
50
280.5801797
51
324.9173226
0
ARC
8
DEFAULT_255_1_388
10
7.2291675
20
73.9422236
40
0.5167077
50
269.5979457
51
281.6732777
0
ARC
8
DEFAULT_255_1_388
10
7.2210579
20
73.9287113
40
0.5032026
50
256.6228565
51
270.5105488
0
ARC
8
DEFAULT_255_1_388
10
7.1758322
20
73.7545345
40
0.3233092
50
215.8618351
51
257.2787793
0
ARC
8
DEFAULT_255_1_388
10
7.2907029
20
73.8316106
40
0.4615831
50
197.9695203
51
215.2622745
0
ARC
8
DEFAULT_255_1_388
10
7.5702704
20
73.9259641
40
0.7566307
50
187.8816486
51
198.2346584
0
ARC
8
DEFAULT_255_1_388
10
8.0155943
20
73.9902453
40
1.2065653
50
180.8977266
51
188.0054894
0
ARC
8
DEFAULT_255_1_388
10
8.3206156
20
74.00174
40
1.5117443
50
180.7434591
51
181.152202
0
ARC
8
DEFAULT_255_1_388
10
8.1531152
20
74.2107371
40
1.3441277
50
173.7674302
51
180.2315596
0
ARC
8
DEFAULT_255_1_388
10
7.6449021
20
74.2681779
40
0.8326847
50
164.3058537
51
173.9000553
0
ARC
8
DEFAULT_255_1_388
10
7.3173021
20
74.3625652
40
0.4917711
50
148.7922028
51
164.5682288
0
ARC
8
DEFAULT_255_1_388
10
7.2103759
20
74.4222457
40
0.3694204
50
144.5883979
51
148.1161588
0
ARC
8
DEFAULT_255_1_388
10
7.1716504
20
74.4492667
40
0.322202
50
101.6440149
51
144.5142619
0
ARC
8
DEFAULT_255_1_388
10
7.2194696
20
74.2592337
40
0.5180451
50
89.528284
51
102.5820197
0
ARC
8
DEFAULT_255_1_388
10
7.2283688
20
74.2548376
40
0.5224441
50
77.0437914
51
90.508231
0
ARC
8
DEFAULT_255_1_388
10
7.2735942
20
74.4396272
40
0.3322297
50
48.2777708
51
77.4996087
0
ARC
8
DEFAULT_255_1_388
10
7.2817682
20
74.4541557
40
0.315966
50
36.3141586
51
47.6307332
0
ARC
8
DEFAULT_255_1_388
10
7.1840404
20
74.3883159
40
0.4337313
50
18.2931065
51
35.6770203
0
ARC
8
DEFAULT_255_1_388
10
6.8979245
20
74.2901107
40
0.7362203
50
8.0246996
51
18.5605636
0
ARC
8
DEFAULT_255_1_388
10
6.42956
20
74.2209432
40
1.2096583
50
1.127539
51
8.1718423
0
ARC
8
DEFAULT_255_1_388
10
6.0646734
20
74.2066374
40
1.5747719
50
0.5432713
51
1.38669
0
ARC
8
DEFAULT_255_1_388
10
6.2704112
20
74.2373163
40
1.2018103
50
359.8092569
51
4.9408001
0
ARC
8
DEFAULT_255_1_388
10
6.7440694
20
74.27959
40
0.7262727
50
4.8364937
51
12.2906017
0
ARC
8
DEFAULT_255_1_388
10
7.0540158
20
74.3486485
40
0.4087324
50
12.0806994
51
23.8171225
0
ARC
8
DEFAULT_255_1_388
10
7.1860554
20
74.4045508
40
0.2653719
50
24.2874621
51
31.3934353
0
ARC
8
DEFAULT_255_1_388
10
7.245099
20
74.4431822
40
0.1948607
50
30.7407708
51
82.4658033
0
ARC
8
DEFAULT_255_1_388
10
7.2248651
20
74.3438017
40
0.2961198
50
81.1057101
51
90.2187368
0
ARC
8
DEFAULT_255_1_388
10
7.2208463
20
74.3728421
40
0.2670929
50
89.380395
51
105.6763916
0
ARC
8
DEFAULT_255_1_388
10
7.2002185
20
74.447832
40
0.1893189
50
105.7980655
51
149.7387869
0
ARC
8
DEFAULT_255_1_388
10
7.3199325
20
74.3758719
40
0.3289892
50
149.4208441
51
163.628295
0
ARC
8
DEFAULT_255_1_388
10
7.5551555
20
74.3041345
40
0.5749004
50
163.3764549
51
172.141138
0
ARC
8
DEFAULT_255_1_388
10
7.9264276
20
74.2509582
40
0.9499585
50
172.0258462
51
178.0705453
0
ARC
8
DEFAULT_255_1_388
10
8.2685829
20
74.2347682
40
1.2924734
50
177.8639301
51
179.5036263
0
ARC
8
DEFAULT_255_1_388
10
8.1466848
20
73.9744151
40
1.170534
50
179.7995545
51
185.246089
0
ARC
8
DEFAULT_255_1_388
10
7.6918441
20
73.9313404
40
0.7136613
50
185.1411911
51
193.0082205
0
ARC
8
DEFAULT_255_1_388
10
7.3944701
20
73.8610441
40
0.4080987
50
192.7897338
51
205.2507384
0
ARC
8
DEFAULT_255_1_388
10
7.2766911
20
73.8084538
40
0.2791522
50
205.8001921
51
211.2545876
0
ARC
8
DEFAULT_255_1_388
10
7.217845
20
73.7690132
40
0.2084074
50
210.3789935
51
238.4007996
0
ARC
8
DEFAULT_255_1_388
10
7.2156536
20
73.7742786
40
0.2117943
50
239.6521916
51
265.9793852
0
ARC
8
DEFAULT_255_1_388
10
7.2252385
20
73.8499358
40
0.2879689
50
265.1324455
51
270.0603288
0
ARC
8
DEFAULT_255_1_388
10
7.2284762
20
73.8134418
40
0.2514919
50
269.3314378
51
287.2180039
0
ARC
8
DEFAULT_255_1_388
10
7.2439845
20
73.7568291
40
0.1928357
50
287.7957942
51
329.0808983
0
ARC
8
DEFAULT_255_1_388
10
7.1362602
20
73.8240651
40
0.319808
50
328.6635261
51
343.3325043
0
ARC
8
DEFAULT_255_1_388
10
6.891806
20
73.9002195
40
0.5758408
50
343.0498092
51
351.9392499
0
ARC
8
DEFAULT_255_1_388
10
6.5017382
20
73.9577205
40
0.9701202
50
351.8071632
51
357.7957897
0
ARC
8
DEFAULT_255_1_388
10
6.1382859
20
73.9765724
40
1.3340376
50
357.5870923
51
359.2682493
0
LINE
8
DEFAULT_255_1_388
10
8.3495759
20
74.5332987
11
8.3495759
21
74.1492838
0
LINE
8
DEFAULT_255_1_388
10
8.3495759
20
74.1492838
11
8.7164231
21
74.1492838
0
LINE
8
DEFAULT_255_1_388
10
8.7164231
20
74.1492838
11
8.7164231
21
73.9911601
0
LINE
8
DEFAULT_255_1_388
10
8.7164231
20
73.9911601
11
8.3495759
21
73.9911601
0
LINE
8
DEFAULT_255_1_388
10
8.3495759
20
73.9911601
11
8.3495759
21
73.5755204
0
LINE
8
DEFAULT_255_1_388
10
8.3495759
20
73.5755204
11
8.1815129
21
73.5755204
0
LINE
8
DEFAULT_255_1_388
10
8.1815129
20
73.5755204
11
8.1815129
21
73.9911601
0
LINE
8
DEFAULT_255_1_388
10
8.1815129
20
73.9911601
11
7.8146658
21
73.9911601
0
LINE
8
DEFAULT_255_1_388
10
7.8146658
20
73.9911601
11
7.8146658
21
74.1492838
0
LINE
8
DEFAULT_255_1_388
10
7.8146658
20
74.1492838
11
8.1815129
21
74.1492838
0
LINE
8
DEFAULT_255_1_388
10
8.1815129
20
74.1492838
11
8.1815129
21
74.5332987
0
LINE
8
DEFAULT_255_1_388
10
8.1815129
20
74.5332987
11
8.3495759
21
74.5332987
0
LINE
8
DEFAULT_255_1_388
10
4.3190367
20
80.0507898
11
4.3190367
21
78.7352
0
LINE
8
DEFAULT_255_1_388
10
4.3190367
20
78.7352
11
4.1455523
21
78.7352
0
LINE
8
DEFAULT_255_1_388
10
4.1455523
20
78.7352
11
4.1455523
21
80.0507898
0
LINE
8
DEFAULT_255_1_388
10
4.1455523
20
80.0507898
11
4.3190367
21
80.0507898
0
LINE
8
DEFAULT_255_1_388
10
5.6472764
20
80.0507898
11
5.6472764
21
78.7352
0
LINE
8
DEFAULT_255_1_388
10
5.6472764
20
78.7352
11
5.4728885
21
78.7352
0
LINE
8
DEFAULT_255_1_388
10
5.4728885
20
78.7352
11
4.8105757
21
79.7489993
0
LINE
8
DEFAULT_255_1_388
10
4.8105757
20
79.7489993
11
4.8105757
21
78.7352
0
LINE
8
DEFAULT_255_1_388
10
4.8105757
20
78.7352
11
4.6361878
21
78.7352
0
LINE
8
DEFAULT_255_1_388
10
4.6361878
20
78.7352
11
4.6361878
21
80.0507898
0
LINE
8
DEFAULT_255_1_388
10
4.6361878
20
80.0507898
11
4.8105757
21
80.0507898
0
LINE
8
DEFAULT_255_1_388
10
4.8105757
20
80.0507898
11
5.4746956
21
79.0324727
0
LINE
8
DEFAULT_255_1_388
10
5.4746956
20
79.0324727
11
5.4746956
21
80.0507898
0
LINE
8
DEFAULT_255_1_388
10
5.4746956
20
80.0507898
11
5.6472764
21
80.0507898
0
LINE
8
DEFAULT_255_1_388
10
6.720711
20
79.5249153
11
6.720711
21
79.4761229
0
LINE
8
DEFAULT_255_1_388
10
6.110805
20
78.7342964
11
6.0782767
21
78.7342964
0
LINE
8
DEFAULT_255_1_388
10
6.0782767
20
78.7342964
11
6.0782767
21
78.8752525
0
LINE
8
DEFAULT_255_1_388
10
6.0782767
20
78.8752525
11
6.1135157
21
78.8752525
0
LINE
8
DEFAULT_255_1_388
10
6.5535516
20
79.492387
11
6.5535516
21
79.5592508
0
ARC
8
DEFAULT_255_1_388
10
6.2392608
20
79.5762877
40
0.4089973
50
297.4036461
51
320.0168133
0
ARC
8
DEFAULT_255_1_388
10
6.2718788
20
79.5136072
40
0.3383378
50
270.2631886
51
297.3852322
0
ARC
8
DEFAULT_255_1_388
10
6.2680464
20
79.5673343
40
0.3920983
50
269.9969069
51
270.7871389
0
ARC
8
DEFAULT_255_1_388
10
6.2651787
20
79.5655737
40
0.3903482
50
254.5997295
51
270.4178147
0
ARC
8
DEFAULT_255_1_388
10
6.2491319
20
79.5020693
40
0.3248657
50
236.4717231
51
254.3539376
0
ARC
8
DEFAULT_255_1_388
10
6.266705
20
79.5256999
40
0.3542746
50
208.4727261
51
236.2134628
0
ARC
8
DEFAULT_255_1_388
10
6.3385814
20
79.5696676
40
0.4384402
50
204.3450776
51
209.0455365
0
ARC
8
DEFAULT_255_1_388
10
6.415019
20
79.60208
40
0.5214459
50
183.9375459
51
204.1275509
0
ARC
8
DEFAULT_255_1_388
10
6.5172496
20
79.6130863
40
0.6242037
50
179.9652726
51
184.3010611
0
ARC
8
DEFAULT_255_1_388
10
6.4902041
20
79.6168004
40
0.5971675
50
166.7585952
51
180.3200491
0
ARC
8
DEFAULT_255_1_388
10
6.3949849
20
79.6374979
40
0.4997418
50
154.6954866
51
166.5679151
0
ARC
8
DEFAULT_255_1_388
10
6.2990089
20
79.6858411
40
0.3923208
50
136.3325251
51
155.0871367
0
ARC
8
DEFAULT_255_1_388
10
6.2674009
20
79.7129271
40
0.3507618
50
121.2365985
51
135.9680081
0
ARC
8
DEFAULT_255_1_388
10
6.2832073
20
79.6836541
40
0.3839917
50
96.8454764
51
120.9881329
0
ARC
8
DEFAULT_255_1_388
10
6.299588
20
79.5783942
40
0.4904679
50
89.887204
51
97.2797758
0
ARC
8
DEFAULT_255_1_388
10
6.3054852
20
79.6501652
40
0.418725
50
70.6505767
51
90.6748382
0
ARC
8
DEFAULT_255_1_388
10
6.3202549
20
79.7079091
40
0.3593866
50
36.7493297
51
69.8220487
0
ARC
8
DEFAULT_255_1_388
10
6.2078896
20
79.6203446
40
0.5018201
50
15.3958155
51
37.0841102
0
ARC
8
DEFAULT_255_1_388
10
5.9683181
20
79.5505111
40
0.7513436
50
3.9487796
51
15.6798517
0
ARC
8
DEFAULT_255_1_388
10
5.6981823
20
79.526181
40
1.0225293
50
359.9290791
51
4.266464
0
ARC
8
DEFAULT_255_1_388
10
5.180074
20
79.4686372
40
1.5406551
50
352.8365702
51
0.2783851
0
ARC
8
DEFAULT_255_1_388
10
5.7748971
20
79.3913664
40
0.9408425
50
341.8359339
51
352.9884057
0
ARC
8
DEFAULT_255_1_388
10
6.1369958
20
79.2693144
40
0.5587481
50
322.8579243
51
342.1527461
0
ARC
8
DEFAULT_255_1_388
10
6.234165
20
79.203035
40
0.4413099
50
319.3348471
51
322.100194
0
ARC
8
DEFAULT_255_1_388
10
6.1993582
20
79.2379814
40
0.4904992
50
285.954114
51
318.8878716
0
ARC
8
DEFAULT_255_1_388
10
6.1176019
20
79.4978865
40
0.7628991
50
272.9280841
51
286.4924389
0
ARC
8
DEFAULT_255_1_388
10
6.0962323
20
79.751324
40
1.017132
50
270.8209173
51
273.4010121
0
ARC
8
DEFAULT_255_1_388
10
6.1062346
20
79.5465073
40
0.6712943
50
270.6214576
51
281.4062333
0
ARC
8
DEFAULT_255_1_388
10
6.1546071
20
79.315225
40
0.4350167
50
281.1852583
51
299.0622058
0
ARC
8
DEFAULT_255_1_388
10
6.1966316
20
79.2341138
40
0.3437146
50
299.5068171
51
313.1200142
0
ARC
8
DEFAULT_255_1_388
10
6.1991053
20
79.2251959
40
0.3355418
50
313.8525725
51
338.5989631
0
ARC
8
DEFAULT_255_1_388
10
6.0164181
20
79.3002576
40
0.5330317
50
338.2523315
51
351.2431701
0
ARC
8
DEFAULT_255_1_388
10
5.7451932
20
79.3463494
40
0.8081235
50
350.940933
51
357.6690137
0
ARC
8
DEFAULT_255_1_388
10
6.2953812
20
79.5716048
40
0.2581236
50
269.9447107
51
306.8249644
0
ARC
8
DEFAULT_255_1_388
10
6.2687114
20
79.619206
40
0.3122948
50
305.5071046
51
327.0773808
0
ARC
8
DEFAULT_255_1_388
10
6.2820166
20
79.6085445
40
0.2953369
50
327.4106457
51
336.8396801
0
ARC
8
DEFAULT_255_1_388
10
5.9339879
20
79.5628932
40
0.6195743
50
359.663158
51
10.1176387
0
ARC
8
DEFAULT_255_1_388
10
6.1312642
20
79.5993922
40
0.4189561
50
9.9431549
51
26.7699242
0
ARC
8
DEFAULT_255_1_388
10
6.1984628
20
79.6303796
40
0.3450125
50
27.2018067
51
34.6833639
0
ARC
8
DEFAULT_255_1_388
10
6.2535241
20
79.671756
40
0.2762035
50
34.124913
51
50.30709
0
ARC
8
DEFAULT_255_1_388
10
6.3037724
20
79.7318741
40
0.1978518
50
50.3850304
51
90.6705051
0
ARC
8
DEFAULT_255_1_388
10
6.2985118
20
79.6976074
40
0.2321235
50
89.2729817
51
111.9140267
0
ARC
8
DEFAULT_255_1_388
10
6.2963205
20
79.7134308
40
0.2166604
50
112.9381864
51
142.5320936
0
ARC
8
DEFAULT_255_1_388
10
6.3577694
20
79.6635392
40
0.2957902
50
142.1024021
51
166.3835244
0
ARC
8
DEFAULT_255_1_388
10
6.4906664
20
79.6292213
40
0.4330361
50
166.1100968
51
178.6653563
0
ARC
8
DEFAULT_255_1_388
10
6.608859
20
79.6226061
40
0.5513642
50
178.2641888
51
180.010994
0
ARC
8
DEFAULT_255_1_388
10
6.5183091
20
79.6194136
40
0.4608248
50
179.6162225
51
191.8786013
0
ARC
8
DEFAULT_255_1_388
10
6.3810401
20
79.589059
40
0.3202502
50
191.6192934
51
215.2970746
0
ARC
8
DEFAULT_255_1_388
10
6.3571056
20
79.5747963
40
0.2924827
50
215.7258926
51
216.5355437
0
ARC
8
DEFAULT_255_1_388
10
6.2982677
20
79.5274919
40
0.2170661
50
215.7486606
51
239.9728403
0
ARC
8
DEFAULT_255_1_388
10
6.2903842
20
79.5217838
40
0.208217
50
241.065081
51
269.280972
0
ARC
8
DEFAULT_255_1_388
10
6.2951001
20
79.5773327
40
0.2638514
50
268.4083352
51
270.0069622
0
LINE
8
DEFAULT_255_1_388
10
7.31616
20
79.3622737
11
7.31616
21
79.2258355
0
LINE
8
DEFAULT_255_1_388
10
7.31616
20
79.2258355
11
6.8752205
21
79.2258355
0
LINE
8
DEFAULT_255_1_388
10
6.8752205
20
79.2258355
11
6.8752205
21
79.3622737
0
LINE
8
DEFAULT_255_1_388
10
6.8752205
20
79.3622737
11
7.31616
21
79.3622737
0
LINE
8
DEFAULT_255_1_388
10
4.1826367
20
85.3424898
11
4.1826367
21
84.0269
0
LINE
8
DEFAULT_255_1_388
10
4.1826367
20
84.0269
11
4.0091523
21
84.0269
0
LINE
8
DEFAULT_255_1_388
10
4.0091523
20
84.0269
11
4.0091523
21
85.3424898
0
LINE
8
DEFAULT_255_1_388
10
4.0091523
20
85.3424898
11
4.1826367
21
85.3424898
0
LINE
8
DEFAULT_255_1_388
10
5.5108764
20
85.3424898
11
5.5108764
21
84.0269
0
LINE
8
DEFAULT_255_1_388
10
5.5108764
20
84.0269
11
5.3364885
21
84.0269
0
LINE
8
DEFAULT_255_1_388
10
5.3364885
20
84.0269
11
4.6741757
21
85.0406993
0
LINE
8
DEFAULT_255_1_388
10
4.6741757
20
85.0406993
11
4.6741757
21
84.0269
0
LINE
8
DEFAULT_255_1_388
10
4.6741757
20
84.0269
11
4.4997878
21
84.0269
0
LINE
8
DEFAULT_255_1_388
10
4.4997878
20
84.0269
11
4.4997878
21
85.3424898
0
LINE
8
DEFAULT_255_1_388
10
4.4997878
20
85.3424898
11
4.6741757
21
85.3424898
0
LINE
8
DEFAULT_255_1_388
10
4.6741757
20
85.3424898
11
5.3382956
21
84.3241727
0
LINE
8
DEFAULT_255_1_388
10
5.3382956
20
84.3241727
11
5.3382956
21
85.3424898
0
LINE
8
DEFAULT_255_1_388
10
5.3382956
20
85.3424898
11
5.5108764
21
85.3424898
0
LINE
8
DEFAULT_255_1_388
10
6.584311
20
84.8166153
11
6.584311
21
84.7678229
0
LINE
8
DEFAULT_255_1_388
10
5.974405
20
84.0259964
11
5.9418767
21
84.0259964
0
LINE
8
DEFAULT_255_1_388
10
5.9418767
20
84.0259964
11
5.9418767
21
84.1669525
0
LINE
8
DEFAULT_255_1_388
10
5.9418767
20
84.1669525
11
5.9771157
21
84.1669525
0
LINE
8
DEFAULT_255_1_388
10
6.4171516
20
84.784087
11
6.4171516
21
84.8509508
0
ARC
8
DEFAULT_255_1_388
10
6.1028608
20
84.8679877
40
0.4089973
50
297.4036461
51
320.0168133
0
ARC
8
DEFAULT_255_1_388
10
6.1354788
20
84.8053072
40
0.3383378
50
270.2631886
51
297.3852322
0
ARC
8
DEFAULT_255_1_388
10
6.1316464
20
84.8590343
40
0.3920983
50
269.9969069
51
270.7871389
0
ARC
8
DEFAULT_255_1_388
10
6.1287787
20
84.8572737
40
0.3903482
50
254.5997295
51
270.4178147
0
ARC
8
DEFAULT_255_1_388
10
6.1127319
20
84.7937693
40
0.3248657
50
236.4717231
51
254.3539376
0
ARC
8
DEFAULT_255_1_388
10
6.130305
20
84.8173999
40
0.3542746
50
208.4727261
51
236.2134628
0
ARC
8
DEFAULT_255_1_388
10
6.2021814
20
84.8613676
40
0.4384402
50
204.3450776
51
209.0455365
0
ARC
8
DEFAULT_255_1_388
10
6.278619
20
84.89378
40
0.5214459
50
183.9375459
51
204.1275509
0
ARC
8
DEFAULT_255_1_388
10
6.3808496
20
84.9047863
40
0.6242037
50
179.9652726
51
184.3010611
0
ARC
8
DEFAULT_255_1_388
10
6.3538041
20
84.9085004
40
0.5971675
50
166.7585952
51
180.3200491
0
ARC
8
DEFAULT_255_1_388
10
6.2585849
20
84.9291979
40
0.4997418
50
154.6954866
51
166.5679151
0
ARC
8
DEFAULT_255_1_388
10
6.1626089
20
84.9775411
40
0.3923208
50
136.3325251
51
155.0871367
0
ARC
8
DEFAULT_255_1_388
10
6.1310009
20
85.0046271
40
0.3507618
50
121.2365985
51
135.9680081
0
ARC
8
DEFAULT_255_1_388
10
6.1468073
20
84.9753541
40
0.3839917
50
96.8454764
51
120.9881329
0
ARC
8
DEFAULT_255_1_388
10
6.163188
20
84.8700942
40
0.4904679
50
89.887204
51
97.2797758
0
ARC
8
DEFAULT_255_1_388
10
6.1690852
20
84.9418652
40
0.418725
50
70.6505767
51
90.6748382
0
ARC
8
DEFAULT_255_1_388
10
6.1838549
20
84.9996091
40
0.3593866
50
36.7493297
51
69.8220487
0
ARC
8
DEFAULT_255_1_388
10
6.0714896
20
84.9120446
40
0.5018201
50
15.3958155
51
37.0841102
0
ARC
8
DEFAULT_255_1_388
10
5.8319181
20
84.8422111
40
0.7513436
50
3.9487796
51
15.6798517
0
ARC
8
DEFAULT_255_1_388
10
5.5617823
20
84.817881
40
1.0225293
50
359.9290791
51
4.266464
0
ARC
8
DEFAULT_255_1_388
10
5.043674
20
84.7603372
40
1.5406551
50
352.8365702
51
0.2783851
0
ARC
8
DEFAULT_255_1_388
10
5.6384971
20
84.6830664
40
0.9408425
50
341.8359339
51
352.9884057
0
ARC
8
DEFAULT_255_1_388
10
6.0005958
20
84.5610144
40
0.5587481
50
322.8579243
51
342.1527461
0
ARC
8
DEFAULT_255_1_388
10
6.097765
20
84.494735
40
0.4413099
50
319.3348471
51
322.100194
0
ARC
8
DEFAULT_255_1_388
10
6.0629582
20
84.5296814
40
0.4904992
50
285.954114
51
318.8878716
0
ARC
8
DEFAULT_255_1_388
10
5.9812019
20
84.7895865
40
0.7628991
50
272.9280841
51
286.4924389
0
ARC
8
DEFAULT_255_1_388
10
5.9598323
20
85.043024
40
1.017132
50
270.8209173
51
273.4010121
0
ARC
8
DEFAULT_255_1_388
10
5.9698346
20
84.8382073
40
0.6712943
50
270.6214576
51
281.4062333
0
ARC
8
DEFAULT_255_1_388
10
6.0182071
20
84.606925
40
0.4350167
50
281.1852583
51
299.0622058
0
ARC
8
DEFAULT_255_1_388
10
6.0602316
20
84.5258138
40
0.3437146
50
299.5068171
51
313.1200142
0
ARC
8
DEFAULT_255_1_388
10
6.0627053
20
84.5168959
40
0.3355418
50
313.8525725
51
338.5989631
0
ARC
8
DEFAULT_255_1_388
10
5.8800181
20
84.5919576
40
0.5330317
50
338.2523315
51
351.2431701
0
ARC
8
DEFAULT_255_1_388
10
5.6087932
20
84.6380494
40
0.8081235
50
350.940933
51
357.6690137
0
ARC
8
DEFAULT_255_1_388
10
6.1589812
20
84.8633048
40
0.2581236
50
269.9447107
51
306.8249644
0
ARC
8
DEFAULT_255_1_388
10
6.1323114
20
84.910906
40
0.3122948
50
305.5071046
51
327.0773808
0
ARC
8
DEFAULT_255_1_388
10
6.1456166
20
84.9002445
40
0.2953369
50
327.4106457
51
336.8396801
0
ARC
8
DEFAULT_255_1_388
10
5.7975879
20
84.8545932
40
0.6195743
50
359.663158
51
10.1176387
0
ARC
8
DEFAULT_255_1_388
10
5.9948642
20
84.8910922
40
0.4189561
50
9.9431549
51
26.7699242
0
ARC
8
DEFAULT_255_1_388
10
6.0620628
20
84.9220796
40
0.3450125
50
27.2018067
51
34.6833639
0
ARC
8
DEFAULT_255_1_388
10
6.1171241
20
84.963456
40
0.2762035
50
34.124913
51
50.30709
0
ARC
8
DEFAULT_255_1_388
10
6.1673724
20
85.0235741
40
0.1978518
50
50.3850304
51
90.6705051
0
ARC
8
DEFAULT_255_1_388
10
6.1621118
20
84.9893074
40
0.2321235
50
89.2729817
51
111.9140267
0
ARC
8
DEFAULT_255_1_388
10
6.1599205
20
85.0051308
40
0.2166604
50
112.9381864
51
142.5320936
0
ARC
8
DEFAULT_255_1_388
10
6.2213694
20
84.9552392
40
0.2957902
50
142.1024021
51
166.3835244
0
ARC
8
DEFAULT_255_1_388
10
6.3542664
20
84.9209213
40
0.4330361
50
166.1100968
51
178.6653563
0
ARC
8
DEFAULT_255_1_388
10
6.472459
20
84.9143061
40
0.5513642
50
178.2641888
51
180.010994
0
ARC
8
DEFAULT_255_1_388
10
6.3819091
20
84.9111136
40
0.4608248
50
179.6162225
51
191.8786013
0
ARC
8
DEFAULT_255_1_388
10
6.2446401
20
84.880759
40
0.3202502
50
191.6192934
51
215.2970746
0
ARC
8
DEFAULT_255_1_388
10
6.2207056
20
84.8664963
40
0.2924827
50
215.7258926
51
216.5355437
0
ARC
8
DEFAULT_255_1_388
10
6.1618677
20
84.8191919
40
0.2170661
50
215.7486606
51
239.9728403
0
ARC
8
DEFAULT_255_1_388
10
6.1539842
20
84.8134838
40
0.208217
50
241.065081
51
269.280972
0
ARC
8
DEFAULT_255_1_388
10
6.1587001
20
84.8690327
40
0.2638514
50
268.4083352
51
270.0069622
0
LINE
8
DEFAULT_255_1_388
10
7.3107768
20
85.1165987
11
7.3107768
21
84.7325838
0
LINE
8
DEFAULT_255_1_388
10
7.3107768
20
84.7325838
11
7.677624
21
84.7325838
0
LINE
8
DEFAULT_255_1_388
10
7.677624
20
84.7325838
11
7.677624
21
84.5744601
0
LINE
8
DEFAULT_255_1_388
10
7.677624
20
84.5744601
11
7.3107768
21
84.5744601
0
LINE
8
DEFAULT_255_1_388
10
7.3107768
20
84.5744601
11
7.3107768
21
84.1588204
0
LINE
8
DEFAULT_255_1_388
10
7.3107768
20
84.1588204
11
7.1427138
21
84.1588204
0
LINE
8
DEFAULT_255_1_388
10
7.1427138
20
84.1588204
11
7.1427138
21
84.5744601
0
LINE
8
DEFAULT_255_1_388
10
7.1427138
20
84.5744601
11
6.7758667
21
84.5744601
0
LINE
8
DEFAULT_255_1_388
10
6.7758667
20
84.5744601
11
6.7758667
21
84.7325838
0
LINE
8
DEFAULT_255_1_388
10
6.7758667
20
84.7325838
11
7.1427138
21
84.7325838
0
LINE
8
DEFAULT_255_1_388
10
7.1427138
20
84.7325838
11
7.1427138
21
85.1165987
0
LINE
8
DEFAULT_255_1_388
10
7.1427138
20
85.1165987
11
7.3107768
21
85.1165987
0
LINE
8
DEFAULT_255_1_388
10
4.3190367
20
90.6341898
11
4.3190367
21
89.3186
0
LINE
8
DEFAULT_255_1_388
10
4.3190367
20
89.3186
11
4.1455523
21
89.3186
0
LINE
8
DEFAULT_255_1_388
10
4.1455523
20
89.3186
11
4.1455523
21
90.6341898
0
LINE
8
DEFAULT_255_1_388
10
4.1455523
20
90.6341898
11
4.3190367
21
90.6341898
0
LINE
8
DEFAULT_255_1_388
10
5.6472764
20
90.6341898
11
5.6472764
21
89.3186
0
LINE
8
DEFAULT_255_1_388
10
5.6472764
20
89.3186
11
5.4728885
21
89.3186
0
LINE
8
DEFAULT_255_1_388
10
5.4728885
20
89.3186
11
4.8105757
21
90.3323993
0
LINE
8
DEFAULT_255_1_388
10
4.8105757
20
90.3323993
11
4.8105757
21
89.3186
0
LINE
8
DEFAULT_255_1_388
10
4.8105757
20
89.3186
11
4.6361878
21
89.3186
0
LINE
8
DEFAULT_255_1_388
10
4.6361878
20
89.3186
11
4.6361878
21
90.6341898
0
LINE
8
DEFAULT_255_1_388
10
4.6361878
20
90.6341898
11
4.8105757
21
90.6341898
0
LINE
8
DEFAULT_255_1_388
10
4.8105757
20
90.6341898
11
5.4746956
21
89.6158727
0
LINE
8
DEFAULT_255_1_388
10
5.4746956
20
89.6158727
11
5.4746956
21
90.6341898
0
LINE
8
DEFAULT_255_1_388
10
5.4746956
20
90.6341898
11
5.6472764
21
90.6341898
0
ARC
8
DEFAULT_255_1_388
10
6.3923713
20
90.287972
40
0.3175098
50
338.8762533
51
0.5167111
0
ARC
8
DEFAULT_255_1_388
10
6.4113307
20
90.28286
40
0.2979894
50
325.8415285
51
338.4793574
0
ARC
8
DEFAULT_255_1_388
10
6.3673941
20
90.3133242
40
0.351452
50
296.7587686
51
325.7536481
0
ARC
8
DEFAULT_255_1_388
10
6.3345568
20
90.3687363
40
0.4157374
50
296.0927901
51
297.3613472
0
ARC
8
DEFAULT_255_1_388
10
6.3639764
20
89.6304593
40
0.395855
50
47.9007294
51
67.1948823
0
ARC
8
DEFAULT_255_1_388
10
6.3860406
20
89.6581599
40
0.360516
50
35.2363914
51
47.551141
0
ARC
8
DEFAULT_255_1_388
10
6.415481
20
89.6778093
40
0.3251343
50
359.2759765
51
35.4014143
0
ARC
8
DEFAULT_255_1_388
10
6.3316736
20
89.6695787
40
0.4089365
50
343.1293083
51
0.5775513
0
ARC
8
DEFAULT_255_1_388
10
6.413185
20
89.6471336
40
0.3244269
50
310.8496669
51
342.7449331
0
ARC
8
DEFAULT_255_1_388
10
6.3661724
20
89.7007913
40
0.3957651
50
281.5472888
51
310.9170406
0
ARC
8
DEFAULT_255_1_388
10
6.3260599
20
89.8754814
40
0.5749654
50
269.619248
51
281.9789564
0
ARC
8
DEFAULT_255_1_388
10
6.3179377
20
89.8755776
40
0.5750649
50
257.4585678
51
270.4285689
0
ARC
8
DEFAULT_255_1_388
10
6.2750897
20
89.6951741
40
0.389671
50
228.7554326
51
257.8484789
0
ARC
8
DEFAULT_255_1_388
10
6.2402382
20
89.6532228
40
0.335154
50
184.0104975
51
228.5071184
0
ARC
8
DEFAULT_255_1_388
10
6.3710775
20
89.673143
40
0.4671891
50
179.9315832
51
185.3253753
0
ARC
8
DEFAULT_255_1_388
10
6.2387287
20
89.6773592
40
0.33486
50
145.6796023
51
180.6259786
0
ARC
8
DEFAULT_255_1_388
10
6.2571053
20
89.6645271
40
0.3572723
50
115.5537685
51
145.6415986
0
ARC
8
DEFAULT_255_1_388
10
6.2954097
20
89.5959087
40
0.4357296
50
113.243307
51
116.2057839
0
ARC
8
DEFAULT_255_1_388
10
6.2782749
20
90.3156379
40
0.3549126
50
222.9549744
51
244.1370481
0
ARC
8
DEFAULT_255_1_388
10
6.2645392
20
90.3002378
40
0.3343711
50
213.3436887
51
222.6274467
0
ARC
8
DEFAULT_255_1_388
10
6.2429461
20
90.2855653
40
0.3082678
50
180.431584
51
213.271499
0
ARC
8
DEFAULT_255_1_388
10
6.306446
20
90.2908296
40
0.3718363
50
179.9991191
51
181.1690594
0
ARC
8
DEFAULT_255_1_388
10
6.3536916
20
90.2947072
40
0.4190996
50
164.6186169
51
180.529336
0
ARC
8
DEFAULT_255_1_388
10
6.2526565
20
90.321878
40
0.3144772
50
132.2455553
51
164.5090724
0
ARC
8
DEFAULT_255_1_388
10
6.2849544
20
90.285307
40
0.3632644
50
100.7053914
51
132.1386381
0
ARC
8
DEFAULT_255_1_388
10
6.3192605
20
90.1303118
40
0.5219578
50
89.6730358
51
101.2451698
0
ARC
8
DEFAULT_255_1_388
10
6.3262596
20
90.1499648
40
0.5023124
50
76.287748
51
90.4586006
0
ARC
8
DEFAULT_255_1_388
10
6.3607098
20
90.2874671
40
0.3605639
50
47.8240511
51
76.4266241
0
ARC
8
DEFAULT_255_1_388
10
6.3857482
20
90.3167599
40
0.3220463
50
6.9168387
51
47.6262497
0
ARC
8
DEFAULT_255_1_388
10
6.2522935
20
90.2921004
40
0.4575765
50
359.8415968
51
7.9697453
0
ARC
8
DEFAULT_255_1_388
10
6.2907205
20
89.6800519
40
0.2827228
50
359.445363
51
16.9256873
0
ARC
8
DEFAULT_255_1_388
10
6.3434639
20
89.6945781
40
0.2280396
50
17.2920767
51
45.4630727
0
ARC
8
DEFAULT_255_1_388
10
6.3373774
20
89.6893324
40
0.2360485
50
45.30305
51
83.1920945
0
ARC
8
DEFAULT_255_1_388
10
6.3212519
20
89.5991473
40
0.3275527
50
82.2612665
51
90.1434275
0
ARC
8
DEFAULT_255_1_388
10
6.3177795
20
89.6253869
40
0.3013237
50
89.4956434
51
104.8580688
0
ARC
8
DEFAULT_255_1_388
10
6.2978985
20
89.7007455
40
0.2233867
50
104.8856641
51
135.244616
0
ARC
8
DEFAULT_255_1_388
10
6.3034974
20
89.6957352
40
0.2308906
50
135.3399546
51
172.1044062
0
ARC
8
DEFAULT_255_1_388
10
6.3942498
20
89.6783667
40
0.3232034
50
171.2645637
51
180.186429
0
ARC
8
DEFAULT_255_1_388
10
6.3752503
20
89.6747426
40
0.304213
50
179.5154935
51
193.6464289
0
ARC
8
DEFAULT_255_1_388
10
6.2834179
20
89.6513473
40
0.209456
50
193.3540274
51
225.8258581
0
ARC
8
DEFAULT_255_1_388
10
6.2880051
20
89.6593076
40
0.2183738
50
226.4180634
51
255.8552336
0
ARC
8
DEFAULT_255_1_388
10
6.3168518
20
89.7646521
40
0.3275812
50
255.4654104
51
268.7987425
0
ARC
8
DEFAULT_255_1_388
10
6.3221694
20
89.8588545
40
0.4218877
50
268.3449238
51
270.0094605
0
ARC
8
DEFAULT_255_1_388
10
6.3247927
20
89.7820094
40
0.3450519
50
269.5759586
51
282.0820163
0
ARC
8
DEFAULT_255_1_388
10
6.3500964
20
89.6701363
40
0.2303642
50
281.752014
51
306.6056188
0
ARC
8
DEFAULT_255_1_388
10
6.3611772
20
89.6519802
40
0.2091906
50
307.1346085
51
314.027845
0
ARC
8
DEFAULT_255_1_388
10
6.3571284
20
89.6549459
40
0.2141385
50
314.2552483
51
350.1694025
0
ARC
8
DEFAULT_255_1_388
10
6.2613521
20
89.6757175
40
0.312082
50
349.4140529
51
0.2933014
0
ARC
8
DEFAULT_255_1_388
10
6.3198798
20
90.2560924
40
0.2588377
50
89.477747
51
105.729729
0
ARC
8
DEFAULT_255_1_388
10
6.3045718
20
90.3129367
40
0.1999733
50
105.9233417
51
135.1660906
0
ARC
8
DEFAULT_255_1_388
10
6.3068749
20
90.3113412
40
0.2027322
50
135.3052302
51
168.9883645
0
ARC
8
DEFAULT_255_1_388
10
6.3999765
20
90.2899996
40
0.2982129
50
168.3801673
51
180.3602268
0
ARC
8
DEFAULT_255_1_388
10
6.3742882
20
90.2857622
40
0.2725291
50
179.5033122
51
194.9125571
0
ARC
8
DEFAULT_255_1_388
10
6.3084289
20
90.2684427
40
0.204431
50
194.9720816
51
224.194444
0
ARC
8
DEFAULT_255_1_388
10
6.3052654
20
90.2658635
40
0.2003651
50
224.2962453
51
262.015664
0
ARC
8
DEFAULT_255_1_388
10
6.3212658
20
90.3481315
40
0.2840925
50
261.1245923
51
270.1962896
0
ARC
8
DEFAULT_255_1_388
10
6.3246139
20
90.3270859
40
0.2630559
50
269.4827276
51
285.0987215
0
ARC
8
DEFAULT_255_1_388
10
6.3419575
20
90.2620175
40
0.1957162
50
285.1585357
51
315.9484501
0
ARC
8
DEFAULT_255_1_388
10
6.3319449
20
90.2712315
40
0.2093195
50
316.0413965
51
351.916092
0
ARC
8
DEFAULT_255_1_388
10
6.2494823
20
90.2871323
40
0.2932279
50
351.105835
51
0.1939062
0
ARC
8
DEFAULT_255_1_388
10
6.2790457
20
90.2905224
40
0.2636739
50
359.4789618
51
16.0678224
0
ARC
8
DEFAULT_255_1_388
10
6.3325929
20
90.3049721
40
0.2082215
50
16.3252067
51
44.7913869
0
ARC
8
DEFAULT_255_1_388
10
6.3305991
20
90.305032
40
0.2095992
50
44.3957814
51
88.2499162
0
ARC
8
DEFAULT_255_1_388
10
6.3223326
20
90.2362006
40
0.2787189
50
86.9833854
51
90.0192215
0
LINE
8
DEFAULT_255_1_388
10
7.31616
20
89.9456737
11
7.31616
21
89.8092355
0
LINE
8
DEFAULT_255_1_388
10
7.31616
20
89.8092355
11
6.8752205
21
89.8092355
0
LINE
8
DEFAULT_255_1_388
10
6.8752205
20
89.8092355
11
6.8752205
21
89.9456737
0
LINE
8
DEFAULT_255_1_388
10
6.8752205
20
89.9456737
11
7.31616
21
89.9456737
0
LINE
8
DEFAULT_255_1_388
10
4.1826367
20
95.9257898
11
4.1826367
21
94.6102
0
LINE
8
DEFAULT_255_1_388
10
4.1826367
20
94.6102
11
4.0091523
21
94.6102
0
LINE
8
DEFAULT_255_1_388
10
4.0091523
20
94.6102
11
4.0091523
21
95.9257898
0
LINE
8
DEFAULT_255_1_388
10
4.0091523
20
95.9257898
11
4.1826367
21
95.9257898
0
LINE
8
DEFAULT_255_1_388
10
5.5108764
20
95.9257898
11
5.5108764
21
94.6102
0
LINE
8
DEFAULT_255_1_388
10
5.5108764
20
94.6102
11
5.3364885
21
94.6102
0
LINE
8
DEFAULT_255_1_388
10
5.3364885
20
94.6102
11
4.6741757
21
95.6239993
0
LINE
8
DEFAULT_255_1_388
10
4.6741757
20
95.6239993
11
4.6741757
21
94.6102
0
LINE
8
DEFAULT_255_1_388
10
4.6741757
20
94.6102
11
4.4997878
21
94.6102
0
LINE
8
DEFAULT_255_1_388
10
4.4997878
20
94.6102
11
4.4997878
21
95.9257898
0
LINE
8
DEFAULT_255_1_388
10
4.4997878
20
95.9257898
11
4.6741757
21
95.9257898
0
LINE
8
DEFAULT_255_1_388
10
4.6741757
20
95.9257898
11
5.3382956
21
94.9074727
0
LINE
8
DEFAULT_255_1_388
10
5.3382956
20
94.9074727
11
5.3382956
21
95.9257898
0
LINE
8
DEFAULT_255_1_388
10
5.3382956
20
95.9257898
11
5.5108764
21
95.9257898
0
ARC
8
DEFAULT_255_1_388
10
6.2559713
20
95.579572
40
0.3175098
50
338.8762533
51
0.5167111
0
ARC
8
DEFAULT_255_1_388
10
6.2749307
20
95.57446
40
0.2979894
50
325.8415285
51
338.4793574
0
ARC
8
DEFAULT_255_1_388
10
6.2309941
20
95.6049242
40
0.351452
50
296.7587686
51
325.7536481
0
ARC
8
DEFAULT_255_1_388
10
6.1981568
20
95.6603363
40
0.4157374
50
296.0927901
51
297.3613472
0
ARC
8
DEFAULT_255_1_388
10
6.2275764
20
94.9220593
40
0.395855
50
47.9007294
51
67.1948823
0
ARC
8
DEFAULT_255_1_388
10
6.2496406
20
94.9497599
40
0.360516
50
35.2363914
51
47.551141
0
ARC
8
DEFAULT_255_1_388
10
6.279081
20
94.9694093
40
0.3251343
50
359.2759765
51
35.4014143
0
ARC
8
DEFAULT_255_1_388
10
6.1952736
20
94.9611787
40
0.4089365
50
343.1293083
51
0.5775513
0
ARC
8
DEFAULT_255_1_388
10
6.276785
20
94.9387336
40
0.3244269
50
310.8496669
51
342.7449331
0
ARC
8
DEFAULT_255_1_388
10
6.2297724
20
94.9923913
40
0.3957651
50
281.5472888
51
310.9170406
0
ARC
8
DEFAULT_255_1_388
10
6.1896599
20
95.1670814
40
0.5749654
50
269.619248
51
281.9789564
0
ARC
8
DEFAULT_255_1_388
10
6.1815377
20
95.1671776
40
0.5750649
50
257.4585678
51
270.4285689
0
ARC
8
DEFAULT_255_1_388
10
6.1386897
20
94.9867741
40
0.389671
50
228.7554326
51
257.8484789
0
ARC
8
DEFAULT_255_1_388
10
6.1038382
20
94.9448228
40
0.335154
50
184.0104975
51
228.5071184
0
ARC
8
DEFAULT_255_1_388
10
6.2346775
20
94.964743
40
0.4671891
50
179.9315832
51
185.3253753
0
ARC
8
DEFAULT_255_1_388
10
6.1023287
20
94.9689592
40
0.33486
50
145.6796023
51
180.6259786
0
ARC
8
DEFAULT_255_1_388
10
6.1207053
20
94.9561271
40
0.3572723
50
115.5537685
51
145.6415986
0
ARC
8
DEFAULT_255_1_388
10
6.1590097
20
94.8875087
40
0.4357296
50
113.243307
51
116.2057839
0
ARC
8
DEFAULT_255_1_388
10
6.1418749
20
95.6072379
40
0.3549126
50
222.9549744
51
244.1370481
0
ARC
8
DEFAULT_255_1_388
10
6.1281392
20
95.5918378
40
0.3343711
50
213.3436887
51
222.6274467
0
ARC
8
DEFAULT_255_1_388
10
6.1065461
20
95.5771653
40
0.3082678
50
180.431584
51
213.271499
0
ARC
8
DEFAULT_255_1_388
10
6.170046
20
95.5824296
40
0.3718363
50
179.9991191
51
181.1690594
0
ARC
8
DEFAULT_255_1_388
10
6.2172916
20
95.5863072
40
0.4190996
50
164.6186169
51
180.529336
0
ARC
8
DEFAULT_255_1_388
10
6.1162565
20
95.613478
40
0.3144772
50
132.2455553
51
164.5090724
0
ARC
8
DEFAULT_255_1_388
10
6.1485544
20
95.576907
40
0.3632644
50
100.7053914
51
132.1386381
0
ARC
8
DEFAULT_255_1_388
10
6.1828605
20
95.4219118
40
0.5219578
50
89.6730358
51
101.2451698
0
ARC
8
DEFAULT_255_1_388
10
6.1898596
20
95.4415648
40
0.5023124
50
76.287748
51
90.4586006
0
ARC
8
DEFAULT_255_1_388
10
6.2243098
20
95.5790671
40
0.3605639
50
47.8240511
51
76.4266241
0
ARC
8
DEFAULT_255_1_388
10
6.2493482
20
95.6083599
40
0.3220463
50
6.9168387
51
47.6262497
0
ARC
8
DEFAULT_255_1_388
10
6.1158935
20
95.5837004
40
0.4575765
50
359.8415968
51
7.9697453
0
ARC
8
DEFAULT_255_1_388
10
6.1543205
20
94.9716519
40
0.2827228
50
359.445363
51
16.9256873
0
ARC
8
DEFAULT_255_1_388
10
6.2070639
20
94.9861781
40
0.2280396
50
17.2920767
51
45.4630727
0
ARC
8
DEFAULT_255_1_388
10
6.2009774
20
94.9809324
40
0.2360485
50
45.30305
51
83.1920945
0
ARC
8
DEFAULT_255_1_388
10
6.1848519
20
94.8907473
40
0.3275527
50
82.2612665
51
90.1434275
0
ARC
8
DEFAULT_255_1_388
10
6.1813795
20
94.9169869
40
0.3013237
50
89.4956434
51
104.8580688
0
ARC
8
DEFAULT_255_1_388
10
6.1614985
20
94.9923455
40
0.2233867
50
104.8856641
51
135.244616
0
ARC
8
DEFAULT_255_1_388
10
6.1670974
20
94.9873352
40
0.2308906
50
135.3399546
51
172.1044062
0
ARC
8
DEFAULT_255_1_388
10
6.2578498
20
94.9699667
40
0.3232034
50
171.2645637
51
180.186429
0
ARC
8
DEFAULT_255_1_388
10
6.2388503
20
94.9663426
40
0.304213
50
179.5154935
51
193.6464289
0
ARC
8
DEFAULT_255_1_388
10
6.1470179
20
94.9429473
40
0.209456
50
193.3540274
51
225.8258581
0
ARC
8
DEFAULT_255_1_388
10
6.1516051
20
94.9509076
40
0.2183738
50
226.4180634
51
255.8552336
0
ARC
8
DEFAULT_255_1_388
10
6.1804518
20
95.0562521
40
0.3275812
50
255.4654104
51
268.7987425
0
ARC
8
DEFAULT_255_1_388
10
6.1857694
20
95.1504545
40
0.4218877
50
268.3449238
51
270.0094605
0
ARC
8
DEFAULT_255_1_388
10
6.1883927
20
95.0736094
40
0.3450519
50
269.5759586
51
282.0820163
0
ARC
8
DEFAULT_255_1_388
10
6.2136964
20
94.9617363
40
0.2303642
50
281.752014
51
306.6056188
0
ARC
8
DEFAULT_255_1_388
10
6.2247772
20
94.9435802
40
0.2091906
50
307.1346085
51
314.027845
0
ARC
8
DEFAULT_255_1_388
10
6.2207284
20
94.9465459
40
0.2141385
50
314.2552483
51
350.1694025
0
ARC
8
DEFAULT_255_1_388
10
6.1249521
20
94.9673175
40
0.312082
50
349.4140529
51
0.2933014
0
ARC
8
DEFAULT_255_1_388
10
6.1834798
20
95.5476924
40
0.2588377
50
89.477747
51
105.729729
0
ARC
8
DEFAULT_255_1_388
10
6.1681718
20
95.6045367
40
0.1999733
50
105.9233417
51
135.1660906
0
ARC
8
DEFAULT_255_1_388
10
6.1704749
20
95.6029412
40
0.2027322
50
135.3052302
51
168.9883645
0
ARC
8
DEFAULT_255_1_388
10
6.2635765
20
95.5815996
40
0.2982129
50
168.3801673
51
180.3602268
0
ARC
8
DEFAULT_255_1_388
10
6.2378882
20
95.5773622
40
0.2725291
50
179.5033122
51
194.9125571
0
ARC
8
DEFAULT_255_1_388
10
6.1720289
20
95.5600427
40
0.204431
50
194.9720816
51
224.194444
0
ARC
8
DEFAULT_255_1_388
10
6.1688654
20
95.5574635
40
0.2003651
50
224.2962453
51
262.015664
0
ARC
8
DEFAULT_255_1_388
10
6.1848658
20
95.6397315
40
0.2840925
50
261.1245923
51
270.1962896
0
ARC
8
DEFAULT_255_1_388
10
6.1882139
20
95.6186859
40
0.2630559
50
269.4827276
51
285.0987215
0
ARC
8
DEFAULT_255_1_388
10
6.2055575
20
95.5536175
40
0.1957162
50
285.1585357
51
315.9484501
0
ARC
8
DEFAULT_255_1_388
10
6.1955449
20
95.5628315
40
0.2093195
50
316.0413965
51
351.916092
0
ARC
8
DEFAULT_255_1_388
10
6.1130823
20
95.5787323
40
0.2932279
50
351.105835
51
0.1939062
0
ARC
8
DEFAULT_255_1_388
10
6.1426457
20
95.5821224
40
0.2636739
50
359.4789618
51
16.0678224
0
ARC
8
DEFAULT_255_1_388
10
6.1961929
20
95.5965721
40
0.2082215
50
16.3252067
51
44.7913869
0
ARC
8
DEFAULT_255_1_388
10
6.1941991
20
95.596632
40
0.2095992
50
44.3957814
51
88.2499162
0
ARC
8
DEFAULT_255_1_388
10
6.1859326
20
95.5278006
40
0.2787189
50
86.9833854
51
90.0192215
0
LINE
8
DEFAULT_255_1_388
10
7.3107768
20
95.6998987
11
7.3107768
21
95.3158838
0
LINE
8
DEFAULT_255_1_388
10
7.3107768
20
95.3158838
11
7.677624
21
95.3158838
0
LINE
8
DEFAULT_255_1_388
10
7.677624
20
95.3158838
11
7.677624
21
95.1577601
0
LINE
8
DEFAULT_255_1_388
10
7.677624
20
95.1577601
11
7.3107768
21
95.1577601
0
LINE
8
DEFAULT_255_1_388
10
7.3107768
20
95.1577601
11
7.3107768
21
94.7421204
0
LINE
8
DEFAULT_255_1_388
10
7.3107768
20
94.7421204
11
7.1427138
21
94.7421204
0
LINE
8
DEFAULT_255_1_388
10
7.1427138
20
94.7421204
11
7.1427138
21
95.1577601
0
LINE
8
DEFAULT_255_1_388
10
7.1427138
20
95.1577601
11
6.7758667
21
95.1577601
0
LINE
8
DEFAULT_255_1_388
10
6.7758667
20
95.1577601
11
6.7758667
21
95.3158838
0
LINE
8
DEFAULT_255_1_388
10
6.7758667
20
95.3158838
11
7.1427138
21
95.3158838
0
LINE
8
DEFAULT_255_1_388
10
7.1427138
20
95.3158838
11
7.1427138
21
95.6998987
0
LINE
8
DEFAULT_255_1_388
10
7.1427138
20
95.6998987
11
7.3107768
21
95.6998987
0
LINE
8
DEFAULT_255_1_388
10
4.3190367
20
101.2174898
11
4.3190367
21
99.9019
0
LINE
8
DEFAULT_255_1_388
10
4.3190367
20
99.9019
11
4.1455523
21
99.9019
0
LINE
8
DEFAULT_255_1_388
10
4.1455523
20
99.9019
11
4.1455523
21
101.2174898
0
LINE
8
DEFAULT_255_1_388
10
4.1455523
20
101.2174898
11
4.3190367
21
101.2174898
0
LINE
8
DEFAULT_255_1_388
10
5.6472764
20
101.2174898
11
5.6472764
21
99.9019
0
LINE
8
DEFAULT_255_1_388
10
5.6472764
20
99.9019
11
5.4728885
21
99.9019
0
LINE
8
DEFAULT_255_1_388
10
5.4728885
20
99.9019
11
4.8105757
21
100.9156993
0
LINE
8
DEFAULT_255_1_388
10
4.8105757
20
100.9156993
11
4.8105757
21
99.9019
0
LINE
8
DEFAULT_255_1_388
10
4.8105757
20
99.9019
11
4.6361878
21
99.9019
0
LINE
8
DEFAULT_255_1_388
10
4.6361878
20
99.9019
11
4.6361878
21
101.2174898
0
LINE
8
DEFAULT_255_1_388
10
4.6361878
20
101.2174898
11
4.8105757
21
101.2174898
0
LINE
8
DEFAULT_255_1_388
10
4.8105757
20
101.2174898
11
5.4746956
21
100.1991727
0
LINE
8
DEFAULT_255_1_388
10
5.4746956
20
100.1991727
11
5.4746956
21
101.2174898
0
LINE
8
DEFAULT_255_1_388
10
5.4746956
20
101.2174898
11
5.6472764
21
101.2174898
0
LINE
8
DEFAULT_255_1_388
10
6.7613714
20
101.2174898
11
6.7613714
21
101.1235191
0
LINE
8
DEFAULT_255_1_388
10
6.7613714
20
101.1235191
11
6.216522
21
99.9019
0
LINE
8
DEFAULT_255_1_388
10
6.216522
20
99.9019
11
6.0412305
21
99.9019
0
LINE
8
DEFAULT_255_1_388
10
6.0412305
20
99.9019
11
6.5842728
21
101.080148
0
LINE
8
DEFAULT_255_1_388
10
6.5842728
20
101.080148
11
5.872264
21
101.080148
0
LINE
8
DEFAULT_255_1_388
10
5.872264
20
101.080148
11
5.872264
21
101.2174898
0
LINE
8
DEFAULT_255_1_388
10
5.872264
20
101.2174898
11
6.7613714
21
101.2174898
0
LINE
8
DEFAULT_255_1_388
10
7.31616
20
100.5289737
11
7.31616
21
100.3925355
0
LINE
8
DEFAULT_255_1_388
10
7.31616
20
100.3925355
11
6.8752205
21
100.3925355
0
LINE
8
DEFAULT_255_1_388
10
6.8752205
20
100.3925355
11
6.8752205
21
100.5289737
0
LINE
8
DEFAULT_255_1_388
10
6.8752205
20
100.5289737
11
7.31616
21
100.5289737
0
LINE
8
DEFAULT_255_1_388
10
4.1826367
20
106.5091898
11
4.1826367
21
105.1936
0
LINE
8
DEFAULT_255_1_388
10
4.1826367
20
105.1936
11
4.0091523
21
105.1936
0
LINE
8
DEFAULT_255_1_388
10
4.0091523
20
105.1936
11
4.0091523
21
106.5091898
0
LINE
8
DEFAULT_255_1_388
10
4.0091523
20
106.5091898
11
4.1826367
21
106.5091898
0
LINE
8
DEFAULT_255_1_388
10
5.5108764
20
106.5091898
11
5.5108764
21
105.1936
0
LINE
8
DEFAULT_255_1_388
10
5.5108764
20
105.1936
11
5.3364885
21
105.1936
0
LINE
8
DEFAULT_255_1_388
10
5.3364885
20
105.1936
11
4.6741757
21
106.2073993
0
LINE
8
DEFAULT_255_1_388
10
4.6741757
20
106.2073993
11
4.6741757
21
105.1936
0
LINE
8
DEFAULT_255_1_388
10
4.6741757
20
105.1936
11
4.4997878
21
105.1936
0
LINE
8
DEFAULT_255_1_388
10
4.4997878
20
105.1936
11
4.4997878
21
106.5091898
0
LINE
8
DEFAULT_255_1_388
10
4.4997878
20
106.5091898
11
4.6741757
21
106.5091898
0
LINE
8
DEFAULT_255_1_388
10
4.6741757
20
106.5091898
11
5.3382956
21
105.4908727
0
LINE
8
DEFAULT_255_1_388
10
5.3382956
20
105.4908727
11
5.3382956
21
106.5091898
0
LINE
8
DEFAULT_255_1_388
10
5.3382956
20
106.5091898
11
5.5108764
21
106.5091898
0
LINE
8
DEFAULT_255_1_388
10
6.6249714
20
106.5091898
11
6.6249714
21
106.4152191
0
LINE
8
DEFAULT_255_1_388
10
6.6249714
20
106.4152191
11
6.080122
21
105.1936
0
LINE
8
DEFAULT_255_1_388
10
6.080122
20
105.1936
11
5.9048305
21
105.1936
0
LINE
8
DEFAULT_255_1_388
10
5.9048305
20
105.1936
11
6.4478728
21
106.371848
0
LINE
8
DEFAULT_255_1_388
10
6.4478728
20
106.371848
11
5.735864
21
106.371848
0
LINE
8
DEFAULT_255_1_388
10
5.735864
20
106.371848
11
5.735864
21
106.5091898
0
LINE
8
DEFAULT_255_1_388
10
5.735864
20
106.5091898
11
6.6249714
21
106.5091898
0
LINE
8
DEFAULT_255_1_388
10
7.3107768
20
106.2832987
11
7.3107768
21
105.8992838
0
LINE
8
DEFAULT_255_1_388
10
7.3107768
20
105.8992838
11
7.677624
21
105.8992838
0
LINE
8
DEFAULT_255_1_388
10
7.677624
20
105.8992838
11
7.677624
21
105.7411601
0
LINE
8
DEFAULT_255_1_388
10
7.677624
20
105.7411601
11
7.3107768
21
105.7411601
0
LINE
8
DEFAULT_255_1_388
10
7.3107768
20
105.7411601
11
7.3107768
21
105.3255204
0
LINE
8
DEFAULT_255_1_388
10
7.3107768
20
105.3255204
11
7.1427138
21
105.3255204
0
LINE
8
DEFAULT_255_1_388
10
7.1427138
20
105.3255204
11
7.1427138
21
105.7411601
0
LINE
8
DEFAULT_255_1_388
10
7.1427138
20
105.7411601
11
6.7758667
21
105.7411601
0
LINE
8
DEFAULT_255_1_388
10
6.7758667
20
105.7411601
11
6.7758667
21
105.8992838
0
LINE
8
DEFAULT_255_1_388
10
6.7758667
20
105.8992838
11
7.1427138
21
105.8992838
0
LINE
8
DEFAULT_255_1_388
10
7.1427138
20
105.8992838
11
7.1427138
21
106.2832987
0
LINE
8
DEFAULT_255_1_388
10
7.1427138
20
106.2832987
11
7.3107768
21
106.2832987
0
LINE
8
DEFAULT_255_1_388
10
4.3190367
20
111.8007898
11
4.3190367
21
110.4852
0
LINE
8
DEFAULT_255_1_388
10
4.3190367
20
110.4852
11
4.1455523
21
110.4852
0
LINE
8
DEFAULT_255_1_388
10
4.1455523
20
110.4852
11
4.1455523
21
111.8007898
0
LINE
8
DEFAULT_255_1_388
10
4.1455523
20
111.8007898
11
4.3190367
21
111.8007898
0
LINE
8
DEFAULT_255_1_388
10
5.6472764
20
111.8007898
11
5.6472764
21
110.4852
0
LINE
8
DEFAULT_255_1_388
10
5.6472764
20
110.4852
11
5.4728885
21
110.4852
0
LINE
8
DEFAULT_255_1_388
10
5.4728885
20
110.4852
11
4.8105757
21
111.4989993
0
LINE
8
DEFAULT_255_1_388
10
4.8105757
20
111.4989993
11
4.8105757
21
110.4852
0
LINE
8
DEFAULT_255_1_388
10
4.8105757
20
110.4852
11
4.6361878
21
110.4852
0
LINE
8
DEFAULT_255_1_388
10
4.6361878
20
110.4852
11
4.6361878
21
111.8007898
0
LINE
8
DEFAULT_255_1_388
10
4.6361878
20
111.8007898
11
4.8105757
21
111.8007898
0
LINE
8
DEFAULT_255_1_388
10
4.8105757
20
111.8007898
11
5.4746956
21
110.7824727
0
LINE
8
DEFAULT_255_1_388
10
5.4746956
20
110.7824727
11
5.4746956
21
111.8007898
0
LINE
8
DEFAULT_255_1_388
10
5.4746956
20
111.8007898
11
5.6472764
21
111.8007898
0
LINE
8
DEFAULT_255_1_388
10
6.538191
20
111.8016934
11
6.5680086
21
111.8016934
0
LINE
8
DEFAULT_255_1_388
10
6.5680086
20
111.8016934
11
6.5680086
21
111.6598338
0
LINE
8
DEFAULT_255_1_388
10
6.5680086
20
111.6598338
11
6.5372874
21
111.6598338
0
LINE
8
DEFAULT_255_1_388
10
5.92196
20
110.9857747
11
5.92196
21
111.0499278
0
LINE
8
DEFAULT_255_1_388
10
6.090023
20
111.0282422
11
6.090023
21
110.9667999
0
ARC
8
DEFAULT_255_1_388
10
6.5431766
20
111.0975826
40
0.562282
50
90.6001079
51
104.5146616
0
ARC
8
DEFAULT_255_1_388
10
6.4994725
20
111.26011
40
0.3939917
50
104.2855758
51
133.8630124
0
ARC
8
DEFAULT_255_1_388
10
6.5178978
20
111.2479243
40
0.4155734
50
134.5304124
51
161.6210222
0
ARC
8
DEFAULT_255_1_388
10
6.703891
20
111.1823421
40
0.6127682
50
161.2850533
51
174.2074364
0
ARC
8
DEFAULT_255_1_388
10
6.8628477
20
111.1604437
40
0.7731446
50
173.7817938
51
174.9251711
0
ARC
8
DEFAULT_255_1_388
10
6.350267
20
111.004927
40
0.3412588
50
95.8332067
51
138.995412
0
ARC
8
DEFAULT_255_1_388
10
6.3753951
20
110.8610695
40
0.4870358
50
89.8755506
51
97.0540979
0
ARC
8
DEFAULT_255_1_388
10
6.380734
20
110.9550841
40
0.3930432
50
71.6407016
51
90.6240821
0
ARC
8
DEFAULT_255_1_388
10
6.3976733
20
111.0174433
40
0.3285421
50
39.6368051
51
71.0190743
0
ARC
8
DEFAULT_255_1_388
10
6.3260641
20
110.9555586
40
0.4231706
50
10.6588054
51
39.9044509
0
ARC
8
DEFAULT_255_1_388
10
6.1519186
20
110.9177223
40
0.60133
50
359.6827842
51
11.1326896
0
ARC
8
DEFAULT_255_1_388
10
6.1474522
20
110.9097715
40
0.6058047
50
347.2485908
51
0.4371098
0
ARC
8
DEFAULT_255_1_388
10
6.3350308
20
110.8646379
40
0.4128987
50
318.1408565
51
347.6118497
0
ARC
8
DEFAULT_255_1_388
10
6.3715904
20
110.8345903
40
0.3656244
50
275.6342406
51
317.824739
0
ARC
8
DEFAULT_255_1_388
10
6.3467425
20
110.9807827
40
0.513655
50
269.8872513
51
276.7916069
0
ARC
8
DEFAULT_255_1_388
10
6.3405618
20
110.8654181
40
0.398323
50
246.9139443
51
270.7436787
0
ARC
8
DEFAULT_255_1_388
10
6.3412814
20
110.8494044
40
0.3839368
50
218.1665534
51
245.8780431
0
ARC
8
DEFAULT_255_1_388
10
6.4402186
20
110.9321903
40
0.5128958
50
191.4115343
51
218.6077624
0
ARC
8
DEFAULT_255_1_388
10
6.6582502
20
110.9810777
40
0.7363054
50
179.6344971
51
191.7836758
0
ARC
8
DEFAULT_255_1_388
10
7.2862377
20
111.0574495
40
1.3642984
50
171.4523743
51
180.3158856
0
ARC
8
DEFAULT_255_1_388
10
6.7918104
20
111.1343895
40
0.8639311
50
157.9802296
51
171.6246761
0
ARC
8
DEFAULT_255_1_388
10
6.5427454
20
111.2337038
40
0.5958004
50
141.4299236
51
157.8541251
0
ARC
8
DEFAULT_255_1_388
10
6.4705538
20
111.2847746
40
0.5075416
50
102.871586
51
140.8564533
0
ARC
8
DEFAULT_255_1_388
10
6.543409
20
111.0102943
40
0.7914163
50
90.377773
51
103.5868422
0
ARC
8
DEFAULT_255_1_388
10
6.3478612
20
110.9422543
40
0.2667015
50
89.8751238
51
126.2072139
0
ARC
8
DEFAULT_255_1_388
10
6.3530083
20
110.9248847
40
0.2838229
50
124.9742447
51
144.8960197
0
ARC
8
DEFAULT_255_1_388
10
6.3332328
20
110.9409981
40
0.2583845
50
145.2974778
51
160.2660922
0
ARC
8
DEFAULT_255_1_388
10
6.6788816
20
110.9632151
40
0.5888695
50
179.6512124
51
190.285571
0
ARC
8
DEFAULT_255_1_388
10
6.4883296
20
110.9272968
40
0.3949683
50
190.0944895
51
207.5099647
0
ARC
8
DEFAULT_255_1_388
10
6.4246877
20
110.8970177
40
0.3245464
50
207.9585471
51
216.325377
0
ARC
8
DEFAULT_255_1_388
10
6.3864515
20
110.8655712
40
0.2751259
50
215.7661336
51
232.5457193
0
ARC
8
DEFAULT_255_1_388
10
6.343363
20
110.8108273
40
0.2054668
50
232.8005815
51
270.6605497
0
ARC
8
DEFAULT_255_1_388
10
6.3485055
20
110.8517853
40
0.2464268
50
269.3550767
51
288.474612
0
ARC
8
DEFAULT_255_1_388
10
6.3589562
20
110.8124721
40
0.2058436
50
289.1831976
51
322.9685307
0
ARC
8
DEFAULT_255_1_388
10
6.2901663
20
110.8667279
40
0.2934408
50
322.6007085
51
346.5183319
0
ARC
8
DEFAULT_255_1_388
10
6.1599419
20
110.8999434
40
0.4278249
50
346.2584622
51
358.7739592
0
ARC
8
DEFAULT_255_1_388
10
6.0447995
20
110.9061829
40
0.5430876
50
358.3757628
51
0.0082477
0
ARC
8
DEFAULT_255_1_388
10
6.1304813
20
110.9092856
40
0.4574157
50
359.6211417
51
11.28403
0
ARC
8
DEFAULT_255_1_388
10
6.2741419
20
110.9392535
40
0.3106708
50
11.0483152
51
31.8145585
0
ARC
8
DEFAULT_255_1_388
10
6.3089125
20
110.9581045
40
0.2711963
50
32.3028554
51
38.0820598
0
ARC
8
DEFAULT_255_1_388
10
6.3562358
20
111.0009717
40
0.2075566
50
36.8249851
51
85.741667
0
ARC
8
DEFAULT_255_1_388
10
6.348677
20
110.9446065
40
0.2643487
50
85.0150021
51
90.050843
0
LINE
8
DEFAULT_255_1_388
10
7.31616
20
111.1122737
11
7.31616
21
110.9758355
0
LINE
8
DEFAULT_255_1_388
10
7.31616
20
110.9758355
11
6.8752205
21
110.9758355
0
LINE
8
DEFAULT_255_1_388
10
6.8752205
20
110.9758355
11
6.8752205
21
111.1122737
0
LINE
8
DEFAULT_255_1_388
10
6.8752205
20
111.1122737
11
7.31616
21
111.1122737
0
LINE
8
DEFAULT_255_1_388
10
4.1826367
20
117.0924898
11
4.1826367
21
115.7769
0
LINE
8
DEFAULT_255_1_388
10
4.1826367
20
115.7769
11
4.0091523
21
115.7769
0
LINE
8
DEFAULT_255_1_388
10
4.0091523
20
115.7769
11
4.0091523
21
117.0924898
0
LINE
8
DEFAULT_255_1_388
10
4.0091523
20
117.0924898
11
4.1826367
21
117.0924898
0
LINE
8
DEFAULT_255_1_388
10
5.5108764
20
117.0924898
11
5.5108764
21
115.7769
0
LINE
8
DEFAULT_255_1_388
10
5.5108764
20
115.7769
11
5.3364885
21
115.7769
0
LINE
8
DEFAULT_255_1_388
10
5.3364885
20
115.7769
11
4.6741757
21
116.7906993
0
LINE
8
DEFAULT_255_1_388
10
4.6741757
20
116.7906993
11
4.6741757
21
115.7769
0
LINE
8
DEFAULT_255_1_388
10
4.6741757
20
115.7769
11
4.4997878
21
115.7769
0
LINE
8
DEFAULT_255_1_388
10
4.4997878
20
115.7769
11
4.4997878
21
117.0924898
0
LINE
8
DEFAULT_255_1_388
10
4.4997878
20
117.0924898
11
4.6741757
21
117.0924898
0
LINE
8
DEFAULT_255_1_388
10
4.6741757
20
117.0924898
11
5.3382956
21
116.0741727
0
LINE
8
DEFAULT_255_1_388
10
5.3382956
20
116.0741727
11
5.3382956
21
117.0924898
0
LINE
8
DEFAULT_255_1_388
10
5.3382956
20
117.0924898
11
5.5108764
21
117.0924898
0
LINE
8
DEFAULT_255_1_388
10
6.401791
20
117.0933934
11
6.4316086
21
117.0933934
0
LINE
8
DEFAULT_255_1_388
10
6.4316086
20
117.0933934
11
6.4316086
21
116.9515338
0
LINE
8
DEFAULT_255_1_388
10
6.4316086
20
116.9515338
11
6.4008874
21
116.9515338
0
LINE
8
DEFAULT_255_1_388
10
5.78556
20
116.2774747
11
5.78556
21
116.3416278
0
LINE
8
DEFAULT_255_1_388
10
5.953623
20
116.3199422
11
5.953623
21
116.2584999
0
ARC
8
DEFAULT_255_1_388
10
6.4067766
20
116.3892826
40
0.562282
50
90.6001079
51
104.5146616
0
ARC
8
DEFAULT_255_1_388
10
6.3630725
20
116.55181
40
0.3939917
50
104.2855758
51
133.8630124
0
ARC
8
DEFAULT_255_1_388
10
6.3814978
20
116.5396243
40
0.4155734
50
134.5304124
51
161.6210222
0
ARC
8
DEFAULT_255_1_388
10
6.567491
20
116.4740421
40
0.6127682
50
161.2850533
51
174.2074364
0
ARC
8
DEFAULT_255_1_388
10
6.7264477
20
116.4521437
40
0.7731446
50
173.7817938
51
174.9251711
0
ARC
8
DEFAULT_255_1_388
10
6.213867
20
116.296627
40
0.3412588
50
95.8332067
51
138.995412
0
ARC
8
DEFAULT_255_1_388
10
6.2389951
20
116.1527695
40
0.4870358
50
89.8755506
51
97.0540979
0
ARC
8
DEFAULT_255_1_388
10
6.244334
20
116.2467841
40
0.3930432
50
71.6407016
51
90.6240821
0
ARC
8
DEFAULT_255_1_388
10
6.2612733
20
116.3091433
40
0.3285421
50
39.6368051
51
71.0190743
0
ARC
8
DEFAULT_255_1_388
10
6.1896641
20
116.2472586
40
0.4231706
50
10.6588054
51
39.9044509
0
ARC
8
DEFAULT_255_1_388
10
6.0155186
20
116.2094223
40
0.60133
50
359.6827842
51
11.1326896
0
ARC
8
DEFAULT_255_1_388
10
6.0110522
20
116.2014715
40
0.6058047
50
347.2485908
51
0.4371098
0
ARC
8
DEFAULT_255_1_388
10
6.1986308
20
116.1563379
40
0.4128987
50
318.1408565
51
347.6118497
0
ARC
8
DEFAULT_255_1_388
10
6.2351904
20
116.1262903
40
0.3656244
50
275.6342406
51
317.824739
0
ARC
8
DEFAULT_255_1_388
10
6.2103425
20
116.2724827
40
0.513655
50
269.8872513
51
276.7916069
0
ARC
8
DEFAULT_255_1_388
10
6.2041618
20
116.1571181
40
0.398323
50
246.9139443
51
270.7436787
0
ARC
8
DEFAULT_255_1_388
10
6.2048814
20
116.1411044
40
0.3839368
50
218.1665534
51
245.8780431
0
ARC
8
DEFAULT_255_1_388
10
6.3038186
20
116.2238903
40
0.5128958
50
191.4115343
51
218.6077624
0
ARC
8
DEFAULT_255_1_388
10
6.5218502
20
116.2727777
40
0.7363054
50
179.6344971
51
191.7836758
0
ARC
8
DEFAULT_255_1_388
10
7.1498377
20
116.3491495
40
1.3642984
50
171.4523743
51
180.3158856
0
ARC
8
DEFAULT_255_1_388
10
6.6554104
20
116.4260895
40
0.8639311
50
157.9802296
51
171.6246761
0
ARC
8
DEFAULT_255_1_388
10
6.4063454
20
116.5254038
40
0.5958004
50
141.4299236
51
157.8541251
0
ARC
8
DEFAULT_255_1_388
10
6.3341538
20
116.5764746
40
0.5075416
50
102.871586
51
140.8564533
0
ARC
8
DEFAULT_255_1_388
10
6.407009
20
116.3019943
40
0.7914163
50
90.377773
51
103.5868422
0
ARC
8
DEFAULT_255_1_388
10
6.2114612
20
116.2339543
40
0.2667015
50
89.8751238
51
126.2072139
0
ARC
8
DEFAULT_255_1_388
10
6.2166083
20
116.2165847
40
0.2838229
50
124.9742447
51
144.8960197
0
ARC
8
DEFAULT_255_1_388
10
6.1968328
20
116.2326981
40
0.2583845
50
145.2974778
51
160.2660922
0
ARC
8
DEFAULT_255_1_388
10
6.5424816
20
116.2549151
40
0.5888695
50
179.6512124
51
190.285571
0
ARC
8
DEFAULT_255_1_388
10
6.3519296
20
116.2189968
40
0.3949683
50
190.0944895
51
207.5099647
0
ARC
8
DEFAULT_255_1_388
10
6.2882877
20
116.1887177
40
0.3245464
50
207.9585471
51
216.325377
0
ARC
8
DEFAULT_255_1_388
10
6.2500515
20
116.1572712
40
0.2751259
50
215.7661336
51
232.5457193
0
ARC
8
DEFAULT_255_1_388
10
6.206963
20
116.1025273
40
0.2054668
50
232.8005815
51
270.6605497
0
ARC
8
DEFAULT_255_1_388
10
6.2121055
20
116.1434853
40
0.2464268
50
269.3550767
51
288.474612
0
ARC
8
DEFAULT_255_1_388
10
6.2225562
20
116.1041721
40
0.2058436
50
289.1831976
51
322.9685307
0
ARC
8
DEFAULT_255_1_388
10
6.1537663
20
116.1584279
40
0.2934408
50
322.6007085
51
346.5183319
0
ARC
8
DEFAULT_255_1_388
10
6.0235419
20
116.1916434
40
0.4278249
50
346.2584622
51
358.7739592
0
ARC
8
DEFAULT_255_1_388
10
5.9083995
20
116.1978829
40
0.5430876
50
358.3757628
51
0.0082477
0
ARC
8
DEFAULT_255_1_388
10
5.9940813
20
116.2009856
40
0.4574157
50
359.6211417
51
11.28403
0
ARC
8
DEFAULT_255_1_388
10
6.1377419
20
116.2309535
40
0.3106708
50
11.0483152
51
31.8145585
0
ARC
8
DEFAULT_255_1_388
10
6.1725125
20
116.2498045
40
0.2711963
50
32.3028554
51
38.0820598
0
ARC
8
DEFAULT_255_1_388
10
6.2198358
20
116.2926717
40
0.2075566
50
36.8249851
51
85.741667
0
ARC
8
DEFAULT_255_1_388
10
6.212277
20
116.2363065
40
0.2643487
50
85.0150021
51
90.050843
0
LINE
8
DEFAULT_255_1_388
10
7.3107768
20
116.8665987
11
7.3107768
21
116.4825838
0
LINE
8
DEFAULT_255_1_388
10
7.3107768
20
116.4825838
11
7.677624
21
116.4825838
0
LINE
8
DEFAULT_255_1_388
10
7.677624
20
116.4825838
11
7.677624
21
116.3244601
0
LINE
8
DEFAULT_255_1_388
10
7.677624
20
116.3244601
11
7.3107768
21
116.3244601
0
LINE
8
DEFAULT_255_1_388
10
7.3107768
20
116.3244601
11
7.3107768
21
115.9088204
0
LINE
8
DEFAULT_255_1_388
10
7.3107768
20
115.9088204
11
7.1427138
21
115.9088204
0
LINE
8
DEFAULT_255_1_388
10
7.1427138
20
115.9088204
11
7.1427138
21
116.3244601
0
LINE
8
DEFAULT_255_1_388
10
7.1427138
20
116.3244601
11
6.7758667
21
116.3244601
0
LINE
8
DEFAULT_255_1_388
10
6.7758667
20
116.3244601
11
6.7758667
21
116.4825838
0
LINE
8
DEFAULT_255_1_388
10
6.7758667
20
116.4825838
11
7.1427138
21
116.4825838
0
LINE
8
DEFAULT_255_1_388
10
7.1427138
20
116.4825838
11
7.1427138
21
116.8665987
0
LINE
8
DEFAULT_255_1_388
10
7.1427138
20
116.8665987
11
7.3107768
21
116.8665987
0
LINE
8
DEFAULT_255_1_388
10
4.3190367
20
122.3841898
11
4.3190367
21
121.0686
0
LINE
8
DEFAULT_255_1_388
10
4.3190367
20
121.0686
11
4.1455523
21
121.0686
0
LINE
8
DEFAULT_255_1_388
10
4.1455523
20
121.0686
11
4.1455523
21
122.3841898
0
LINE
8
DEFAULT_255_1_388
10
4.1455523
20
122.3841898
11
4.3190367
21
122.3841898
0
LINE
8
DEFAULT_255_1_388
10
5.6472764
20
122.3841898
11
5.6472764
21
121.0686
0
LINE
8
DEFAULT_255_1_388
10
5.6472764
20
121.0686
11
5.4728885
21
121.0686
0
LINE
8
DEFAULT_255_1_388
10
5.4728885
20
121.0686
11
4.8105757
21
122.0823993
0
LINE
8
DEFAULT_255_1_388
10
4.8105757
20
122.0823993
11
4.8105757
21
121.0686
0
LINE
8
DEFAULT_255_1_388
10
4.8105757
20
121.0686
11
4.6361878
21
121.0686
0
LINE
8
DEFAULT_255_1_388
10
4.6361878
20
121.0686
11
4.6361878
21
122.3841898
0
LINE
8
DEFAULT_255_1_388
10
4.6361878
20
122.3841898
11
4.8105757
21
122.3841898
0
LINE
8
DEFAULT_255_1_388
10
4.8105757
20
122.3841898
11
5.4746956
21
121.3658727
0
LINE
8
DEFAULT_255_1_388
10
5.4746956
20
121.3658727
11
5.4746956
21
122.3841898
0
LINE
8
DEFAULT_255_1_388
10
5.4746956
20
122.3841898
11
5.6472764
21
122.3841898
0
LINE
8
DEFAULT_255_1_388
10
6.1225513
20
121.6938666
11
5.9888238
21
121.7282021
0
LINE
8
DEFAULT_255_1_388
10
5.9888238
20
121.7282021
11
6.0556875
21
122.3841898
0
LINE
8
DEFAULT_255_1_388
10
6.0556875
20
122.3841898
11
6.7297466
21
122.3841898
0
LINE
8
DEFAULT_255_1_388
10
6.7297466
20
122.3841898
11
6.7297466
21
122.2296803
0
LINE
8
DEFAULT_255_1_388
10
6.7297466
20
122.2296803
11
6.1975472
21
122.2296803
0
LINE
8
DEFAULT_255_1_388
10
6.1975472
20
122.2296803
11
6.1577903
21
121.8709652
0
LINE
8
DEFAULT_255_1_388
10
5.9418384
20
121.4146652
11
6.0999622
21
121.4146652
0
LINE
8
DEFAULT_255_1_388
10
6.166826
20
121.7300092
11
6.1225513
21
121.6938666
0
ARC
8
DEFAULT_255_1_388
10
6.3664517
20
121.5132241
40
0.4141476
50
93.7181681
51
120.253934
0
ARC
8
DEFAULT_255_1_388
10
6.3770569
20
121.4223284
40
0.5055616
50
89.9660471
51
94.2495185
0
ARC
8
DEFAULT_255_1_388
10
6.3816391
20
121.4886154
40
0.4392953
50
73.8045384
51
90.5585736
0
ARC
8
DEFAULT_255_1_388
10
6.4080649
20
121.585152
40
0.3392225
50
41.3071072
51
73.543002
0
ARC
8
DEFAULT_255_1_388
10
6.3612469
20
121.5448461
40
0.4009977
50
13.5075837
51
41.2174839
0
ARC
8
DEFAULT_255_1_388
10
6.1765566
20
121.4964907
40
0.5918864
50
1.1330171
51
13.8830737
0
ARC
8
DEFAULT_255_1_388
10
6.0169212
20
121.4879522
40
0.7516787
50
359.9925091
51
1.5431298
0
ARC
8
DEFAULT_255_1_388
10
6.1613827
20
121.4833027
40
0.6072343
50
347.8572712
51
0.4294349
0
ARC
8
DEFAULT_255_1_388
10
6.3582961
20
121.4386898
40
0.4053482
50
323.6727442
51
348.1674594
0
ARC
8
DEFAULT_255_1_388
10
6.3913926
20
121.4185175
40
0.3667495
50
316.8171818
51
323.1486802
0
ARC
8
DEFAULT_255_1_388
10
6.398305
20
121.4143612
40
0.358869
50
281.839603
51
316.5458142
0
ARC
8
DEFAULT_255_1_388
10
6.3560337
20
121.5893363
40
0.5388223
50
269.5770964
51
282.4214641
0
ARC
8
DEFAULT_255_1_388
10
6.3480258
20
121.565293
40
0.5147801
50
256.2425863
51
270.4486481
0
ARC
8
DEFAULT_255_1_388
10
6.3143786
20
121.4303124
40
0.3756708
50
228.9024379
51
256.33135
0
ARC
8
DEFAULT_255_1_388
10
6.3060766
20
121.4172054
40
0.360344
50
193.7536029
51
228.5272638
0
ARC
8
DEFAULT_255_1_388
10
6.4453331
20
121.4580463
40
0.5053599
50
184.9244437
51
194.4976052
0
ARC
8
DEFAULT_255_1_388
10
6.4669972
20
121.4620722
40
0.3700839
50
187.3596909
51
198.6733728
0
ARC
8
DEFAULT_255_1_388
10
6.3489216
20
121.4211373
40
0.2451195
50
198.4453795
51
217.7945479
0
ARC
8
DEFAULT_255_1_388
10
6.3156388
20
121.3975563
40
0.2043754
50
218.2887146
51
228.5613203
0
ARC
8
DEFAULT_255_1_388
10
6.3266395
20
121.4123902
40
0.2227819
50
228.9652423
51
258.1237049
0
ARC
8
DEFAULT_255_1_388
10
6.3497832
20
121.5114964
40
0.3245374
50
257.7260585
51
270.4013717
0
ARC
8
DEFAULT_255_1_388
10
6.354833
20
121.4614255
40
0.2744726
50
269.4204315
51
286.420998
0
ARC
8
DEFAULT_255_1_388
10
6.3715386
20
121.4007705
40
0.2115721
50
286.7250065
51
320.6004665
0
ARC
8
DEFAULT_255_1_388
10
6.3284302
20
121.4357527
40
0.2670878
50
320.6712228
51
344.5440474
0
ARC
8
DEFAULT_255_1_388
10
6.1983015
20
121.4739394
40
0.4026927
50
344.241448
51
356.735803
0
ARC
8
DEFAULT_255_1_388
10
6.0579323
20
121.4855656
40
0.5435085
50
356.3547471
51
0.0507222
0
ARC
8
DEFAULT_255_1_388
10
6.2081588
20
121.4890812
40
0.3932934
50
359.5579289
51
12.9534322
0
ARC
8
DEFAULT_255_1_388
10
6.3268428
20
121.5178586
40
0.2711827
50
12.6489751
51
41.608121
0
ARC
8
DEFAULT_255_1_388
10
6.3527588
20
121.5398946
40
0.2371737
50
41.7851122
51
85.9892156
0
ARC
8
DEFAULT_255_1_388
10
6.3388898
20
121.4483738
40
0.3295244
50
84.6965848
51
90.0672125
0
ARC
8
DEFAULT_255_1_388
10
6.3362465
20
121.3732118
40
0.4046926
50
89.6804991
51
99.161352
0
ARC
8
DEFAULT_255_1_388
10
6.3131474
20
121.5112848
40
0.2647044
50
98.9836248
51
113.8905702
0
ARC
8
DEFAULT_255_1_388
10
6.2873149
20
121.5722118
40
0.1985386
50
114.195234
51
127.3641866
0
LINE
8
DEFAULT_255_1_388
10
7.31616
20
121.6956737
11
7.31616
21
121.5592355
0
LINE
8
DEFAULT_255_1_388
10
7.31616
20
121.5592355
11
6.8752205
21
121.5592355
0
LINE
8
DEFAULT_255_1_388
10
6.8752205
20
121.5592355
11
6.8752205
21
121.6956737
0
LINE
8
DEFAULT_255_1_388
10
6.8752205
20
121.6956737
11
7.31616
21
121.6956737
0
LINE
8
DEFAULT_255_1_388
10
4.1826367
20
127.6757898
11
4.1826367
21
126.3602
0
LINE
8
DEFAULT_255_1_388
10
4.1826367
20
126.3602
11
4.0091523
21
126.3602
0
LINE
8
DEFAULT_255_1_388
10
4.0091523
20
126.3602
11
4.0091523
21
127.6757898
0
LINE
8
DEFAULT_255_1_388
10
4.0091523
20
127.6757898
11
4.1826367
21
127.6757898
0
LINE
8
DEFAULT_255_1_388
10
5.5108764
20
127.6757898
11
5.5108764
21
126.3602
0
LINE
8
DEFAULT_255_1_388
10
5.5108764
20
126.3602
11
5.3364885
21
126.3602
0
LINE
8
DEFAULT_255_1_388
10
5.3364885
20
126.3602
11
4.6741757
21
127.3739993
0
LINE
8
DEFAULT_255_1_388
10
4.6741757
20
127.3739993
11
4.6741757
21
126.3602
0
LINE
8
DEFAULT_255_1_388
10
4.6741757
20
126.3602
11
4.4997878
21
126.3602
0
LINE
8
DEFAULT_255_1_388
10
4.4997878
20
126.3602
11
4.4997878
21
127.6757898
0
LINE
8
DEFAULT_255_1_388
10
4.4997878
20
127.6757898
11
4.6741757
21
127.6757898
0
LINE
8
DEFAULT_255_1_388
10
4.6741757
20
127.6757898
11
5.3382956
21
126.6574727
0
LINE
8
DEFAULT_255_1_388
10
5.3382956
20
126.6574727
11
5.3382956
21
127.6757898
0
LINE
8
DEFAULT_255_1_388
10
5.3382956
20
127.6757898
11
5.5108764
21
127.6757898
0
LINE
8
DEFAULT_255_1_388
10
5.9861513
20
126.9854666
11
5.8524238
21
127.0198021
0
LINE
8
DEFAULT_255_1_388
10
5.8524238
20
127.0198021
11
5.9192875
21
127.6757898
0
LINE
8
DEFAULT_255_1_388
10
5.9192875
20
127.6757898
11
6.5933466
21
127.6757898
0
LINE
8
DEFAULT_255_1_388
10
6.5933466
20
127.6757898
11
6.5933466
21
127.5212803
0
LINE
8
DEFAULT_255_1_388
10
6.5933466
20
127.5212803
11
6.0611472
21
127.5212803
0
LINE
8
DEFAULT_255_1_388
10
6.0611472
20
127.5212803
11
6.0213903
21
127.1625652
0
LINE
8
DEFAULT_255_1_388
10
5.8054384
20
126.7062652
11
5.9635622
21
126.7062652
0
LINE
8
DEFAULT_255_1_388
10
6.030426
20
127.0216092
11
5.9861513
21
126.9854666
0
ARC
8
DEFAULT_255_1_388
10
6.2300517
20
126.8048241
40
0.4141476
50
93.7181681
51
120.253934
0
ARC
8
DEFAULT_255_1_388
10
6.2406569
20
126.7139284
40
0.5055616
50
89.9660471
51
94.2495185
0
ARC
8
DEFAULT_255_1_388
10
6.2452391
20
126.7802154
40
0.4392953
50
73.8045384
51
90.5585736
0
ARC
8
DEFAULT_255_1_388
10
6.2716649
20
126.876752
40
0.3392225
50
41.3071072
51
73.543002
0
ARC
8
DEFAULT_255_1_388
10
6.2248469
20
126.8364461
40
0.4009977
50
13.5075837
51
41.2174839
0
ARC
8
DEFAULT_255_1_388
10
6.0401566
20
126.7880907
40
0.5918864
50
1.1330171
51
13.8830737
0
ARC
8
DEFAULT_255_1_388
10
5.8805212
20
126.7795522
40
0.7516787
50
359.9925091
51
1.5431298
0
ARC
8
DEFAULT_255_1_388
10
6.0249827
20
126.7749027
40
0.6072343
50
347.8572712
51
0.4294349
0
ARC
8
DEFAULT_255_1_388
10
6.2218961
20
126.7302898
40
0.4053482
50
323.6727442
51
348.1674594
0
ARC
8
DEFAULT_255_1_388
10
6.2549926
20
126.7101175
40
0.3667495
50
316.8171818
51
323.1486802
0
ARC
8
DEFAULT_255_1_388
10
6.261905
20
126.7059612
40
0.358869
50
281.839603
51
316.5458142
0
ARC
8
DEFAULT_255_1_388
10
6.2196337
20
126.8809363
40
0.5388223
50
269.5770964
51
282.4214641
0
ARC
8
DEFAULT_255_1_388
10
6.2116258
20
126.856893
40
0.5147801
50
256.2425863
51
270.4486481
0
ARC
8
DEFAULT_255_1_388
10
6.1779786
20
126.7219124
40
0.3756708
50
228.9024379
51
256.33135
0
ARC
8
DEFAULT_255_1_388
10
6.1696766
20
126.7088054
40
0.360344
50
193.7536029
51
228.5272638
0
ARC
8
DEFAULT_255_1_388
10
6.3089331
20
126.7496463
40
0.5053599
50
184.9244437
51
194.4976052
0
ARC
8
DEFAULT_255_1_388
10
6.3305972
20
126.7536722
40
0.3700839
50
187.3596909
51
198.6733728
0
ARC
8
DEFAULT_255_1_388
10
6.2125216
20
126.7127373
40
0.2451195
50
198.4453795
51
217.7945479
0
ARC
8
DEFAULT_255_1_388
10
6.1792388
20
126.6891563
40
0.2043754
50
218.2887146
51
228.5613203
0
ARC
8
DEFAULT_255_1_388
10
6.1902395
20
126.7039902
40
0.2227819
50
228.9652423
51
258.1237049
0
ARC
8
DEFAULT_255_1_388
10
6.2133832
20
126.8030964
40
0.3245374
50
257.7260585
51
270.4013717
0
ARC
8
DEFAULT_255_1_388
10
6.218433
20
126.7530255
40
0.2744726
50
269.4204315
51
286.420998
0
ARC
8
DEFAULT_255_1_388
10
6.2351386
20
126.6923705
40
0.2115721
50
286.7250065
51
320.6004665
0
ARC
8
DEFAULT_255_1_388
10
6.1920302
20
126.7273527
40
0.2670878
50
320.6712228
51
344.5440474
0
ARC
8
DEFAULT_255_1_388
10
6.0619015
20
126.7655394
40
0.4026927
50
344.241448
51
356.735803
0
ARC
8
DEFAULT_255_1_388
10
5.9215323
20
126.7771656
40
0.5435085
50
356.3547471
51
0.0507222
0
ARC
8
DEFAULT_255_1_388
10
6.0717588
20
126.7806812
40
0.3932934
50
359.5579289
51
12.9534322
0
ARC
8
DEFAULT_255_1_388
10
6.1904428
20
126.8094586
40
0.2711827
50
12.6489751
51
41.608121
0
ARC
8
DEFAULT_255_1_388
10
6.2163588
20
126.8314946
40
0.2371737
50
41.7851122
51
85.9892156
0
ARC
8
DEFAULT_255_1_388
10
6.2024898
20
126.7399738
40
0.3295244
50
84.6965848
51
90.0672125
0
ARC
8
DEFAULT_255_1_388
10
6.1998465
20
126.6648118
40
0.4046926
50
89.6804991
51
99.161352
0
ARC
8
DEFAULT_255_1_388
10
6.1767474
20
126.8028848
40
0.2647044
50
98.9836248
51
113.8905702
0
ARC
8
DEFAULT_255_1_388
10
6.1509149
20
126.8638118
40
0.1985386
50
114.195234
51
127.3641866
0
LINE
8
DEFAULT_255_1_388
10
7.3107768
20
127.4498987
11
7.3107768
21
127.0658838
0
LINE
8
DEFAULT_255_1_388
10
7.3107768
20
127.0658838
11
7.677624
21
127.0658838
0
LINE
8
DEFAULT_255_1_388
10
7.677624
20
127.0658838
11
7.677624
21
126.9077601
0
LINE
8
DEFAULT_255_1_388
10
7.677624
20
126.9077601
11
7.3107768
21
126.9077601
0
LINE
8
DEFAULT_255_1_388
10
7.3107768
20
126.9077601
11
7.3107768
21
126.4921204
0
LINE
8
DEFAULT_255_1_388
10
7.3107768
20
126.4921204
11
7.1427138
21
126.4921204
0
LINE
8
DEFAULT_255_1_388
10
7.1427138
20
126.4921204
11
7.1427138
21
126.9077601
0
LINE
8
DEFAULT_255_1_388
10
7.1427138
20
126.9077601
11
6.7758667
21
126.9077601
0
LINE
8
DEFAULT_255_1_388
10
6.7758667
20
126.9077601
11
6.7758667
21
127.0658838
0
LINE
8
DEFAULT_255_1_388
10
6.7758667
20
127.0658838
11
7.1427138
21
127.0658838
0
LINE
8
DEFAULT_255_1_388
10
7.1427138
20
127.0658838
11
7.1427138
21
127.4498987
0
LINE
8
DEFAULT_255_1_388
10
7.1427138
20
127.4498987
11
7.3107768
21
127.4498987
0
LINE
8
DEFAULT_255_1_388
10
4.3190367
20
132.9674898
11
4.3190367
21
131.6519
0
LINE
8
DEFAULT_255_1_388
10
4.3190367
20
131.6519
11
4.1455523
21
131.6519
0
LINE
8
DEFAULT_255_1_388
10
4.1455523
20
131.6519
11
4.1455523
21
132.9674898
0
LINE
8
DEFAULT_255_1_388
10
4.1455523
20
132.9674898
11
4.3190367
21
132.9674898
0
LINE
8
DEFAULT_255_1_388
10
5.6472764
20
132.9674898
11
5.6472764
21
131.6519
0
LINE
8
DEFAULT_255_1_388
10
5.6472764
20
131.6519
11
5.4728885
21
131.6519
0
LINE
8
DEFAULT_255_1_388
10
5.4728885
20
131.6519
11
4.8105757
21
132.6656993
0
LINE
8
DEFAULT_255_1_388
10
4.8105757
20
132.6656993
11
4.8105757
21
131.6519
0
LINE
8
DEFAULT_255_1_388
10
4.8105757
20
131.6519
11
4.6361878
21
131.6519
0
LINE
8
DEFAULT_255_1_388
10
4.6361878
20
131.6519
11
4.6361878
21
132.9674898
0
LINE
8
DEFAULT_255_1_388
10
4.6361878
20
132.9674898
11
4.8105757
21
132.9674898
0
LINE
8
DEFAULT_255_1_388
10
4.8105757
20
132.9674898
11
5.4746956
21
131.9491727
0
LINE
8
DEFAULT_255_1_388
10
5.4746956
20
131.9491727
11
5.4746956
21
132.9674898
0
LINE
8
DEFAULT_255_1_388
10
5.4746956
20
132.9674898
11
5.6472764
21
132.9674898
0
LINE
8
DEFAULT_255_1_388
10
6.1550796
20
132.2545775
11
6.1550796
21
132.3910157
0
LINE
8
DEFAULT_255_1_388
10
6.1550796
20
132.3910157
11
6.2806751
21
132.3910157
0
LINE
8
DEFAULT_255_1_388
10
6.0665303
20
132.6223282
11
5.8993709
21
132.6223282
0
LINE
8
DEFAULT_255_1_388
10
5.8876246
20
131.9988688
11
6.0556875
21
131.9988688
0
LINE
8
DEFAULT_255_1_388
10
6.2806751
20
132.2545775
11
6.1550796
21
132.2545775
0
ARC
8
DEFAULT_255_1_388
10
6.2773977
20
132.7726922
40
0.3816905
50
270.491971
51
281.8953028
0
ARC
8
DEFAULT_255_1_388
10
6.3045404
20
132.6487199
40
0.2547877
50
281.6690378
51
301.2943765
0
ARC
8
DEFAULT_255_1_388
10
6.3236856
20
132.6136926
40
0.2149197
50
301.7834992
51
311.754567
0
ARC
8
DEFAULT_255_1_388
10
6.3339897
20
132.602265
40
0.1995326
50
311.7325027
51
354.2803031
0
ARC
8
DEFAULT_255_1_388
10
6.2522313
20
132.616328
40
0.2823461
50
353.0941646
51
0.1174696
0
ARC
8
DEFAULT_255_1_388
10
6.2003871
20
132.6216874
40
0.3342238
50
359.1804452
51
15.0452323
0
ARC
8
DEFAULT_255_1_388
10
6.3517929
20
132.6658546
40
0.1765747
50
13.957816
51
77.6713812
0
ARC
8
DEFAULT_255_1_388
10
6.3083165
20
132.5100464
40
0.3381982
50
76.111571
51
90.7028736
0
ARC
8
DEFAULT_255_1_388
10
6.3016577
20
132.540825
40
0.3074046
50
89.5321574
51
103.5319393
0
ARC
8
DEFAULT_255_1_388
10
6.2790961
20
132.6307443
40
0.2147041
50
103.2930114
51
133.5619756
0
ARC
8
DEFAULT_255_1_388
10
6.2740902
20
132.6374351
40
0.2064084
50
133.8349761
51
173.5343225
0
ARC
8
DEFAULT_255_1_388
10
6.355456
20
132.6230144
40
0.2889266
50
172.5097183
51
180.1360699
0
ARC
8
DEFAULT_255_1_388
10
6.2484324
20
132.626888
40
0.3490913
50
155.3483706
51
180.7484035
0
ARC
8
DEFAULT_255_1_388
10
6.2429299
20
132.6236519
40
0.3454798
50
131.5745177
51
154.4799474
0
ARC
8
DEFAULT_255_1_388
10
6.2781582
20
132.5880422
40
0.3955058
50
96.9874487
51
131.9690874
0
ARC
8
DEFAULT_255_1_388
10
6.3028475
20
132.4479407
40
0.537622
50
89.8592909
51
97.7827481
0
ARC
8
DEFAULT_255_1_388
10
6.3082584
20
132.418436
40
0.5671399
50
78.3654493
51
90.4132586
0
ARC
8
DEFAULT_255_1_388
10
6.3485225
20
132.6050918
40
0.3762034
50
56.6229818
51
78.6387103
0
ARC
8
DEFAULT_255_1_388
10
6.3727054
20
132.6473846
40
0.3275964
50
47.0254604
51
56.085558
0
ARC
8
DEFAULT_255_1_388
10
6.3749305
20
132.6518189
40
0.3228382
50
10.9207523
51
46.777927
0
ARC
8
DEFAULT_255_1_388
10
6.2214899
20
132.6163401
40
0.4802559
50
359.6364235
51
11.6087615
0
ARC
8
DEFAULT_255_1_388
10
6.4279065
20
132.6146404
40
0.273833
50
332.3549969
51
359.7179765
0
ARC
8
DEFAULT_255_1_388
10
6.3547465
20
132.6493285
40
0.3547505
50
325.2332381
51
332.8746682
0
ARC
8
DEFAULT_255_1_388
10
6.3719048
20
132.6373763
40
0.3338396
50
292.9803892
51
325.2391113
0
ARC
8
DEFAULT_255_1_388
10
6.3408244
20
132.6978679
40
0.4016959
50
292.542178
51
293.6931461
0
ARC
8
DEFAULT_255_1_388
10
6.3851816
20
131.9713036
40
0.372079
50
57.643292
51
72.8626085
0
ARC
8
DEFAULT_255_1_388
10
6.425065
20
132.0359273
40
0.2961455
50
36.7246661
51
57.4701329
0
ARC
8
DEFAULT_255_1_388
10
6.4237807
20
132.037347
40
0.2963321
50
8.054535
51
36.3561529
0
ARC
8
DEFAULT_255_1_388
10
6.326748
20
132.0199073
40
0.3948682
50
359.8316595
51
8.5873361
0
ARC
8
DEFAULT_255_1_388
10
6.2844954
20
132.014497
40
0.4371398
50
343.9831631
51
0.557075
0
ARC
8
DEFAULT_255_1_388
10
6.3842004
20
131.9871963
40
0.3337749
50
311.6358204
51
343.7652116
0
ARC
8
DEFAULT_255_1_388
10
6.3416257
20
132.0351955
40
0.3979351
50
279.7829743
51
311.625622
0
ARC
8
DEFAULT_255_1_388
10
6.3077392
20
132.1968642
40
0.5630417
50
269.7285092
51
280.3857694
0
ARC
8
DEFAULT_255_1_388
10
6.3007705
20
132.1922241
40
0.5584119
50
256.6827433
51
270.4412869
0
ARC
8
DEFAULT_255_1_388
10
6.2626692
20
132.0364698
40
0.3980715
50
229.4223821
51
256.8554507
0
ARC
8
DEFAULT_255_1_388
10
6.2160245
20
131.9839683
40
0.3278564
50
181.8183354
51
229.6455015
0
ARC
8
DEFAULT_255_1_388
10
6.3329855
20
131.9986825
40
0.4453611
50
179.9760419
51
183.2330638
0
ARC
8
DEFAULT_255_1_388
10
6.3136407
20
131.9963781
40
0.2579652
50
179.4467996
51
196.2871626
0
ARC
8
DEFAULT_255_1_388
10
6.2587861
20
131.9813709
40
0.2011057
50
196.5661293
51
227.7059371
0
ARC
8
DEFAULT_255_1_388
10
6.2772468
20
132.0020155
40
0.2287994
50
227.7653015
51
257.8763321
0
ARC
8
DEFAULT_255_1_388
10
6.3025551
20
132.1080961
40
0.3378385
50
257.4583525
51
270.4267406
0
ARC
8
DEFAULT_255_1_388
10
6.3076801
20
132.140723
40
0.3704652
50
269.5965319
51
280.8788143
0
ARC
8
DEFAULT_255_1_388
10
6.3335029
20
132.0117529
40
0.2389415
50
280.6347277
51
299.8594068
0
ARC
8
DEFAULT_255_1_388
10
6.3549798
20
131.9709736
40
0.19289
50
300.3575552
51
314.5515667
0
ARC
8
DEFAULT_255_1_388
10
6.3456474
20
131.9778025
40
0.204312
50
315.0730962
51
345.0429362
0
ARC
8
DEFAULT_255_1_388
10
6.2417982
20
132.0080539
40
0.31246
50
344.598526
51
357.9270698
0
ARC
8
DEFAULT_255_1_388
10
6.1408286
20
132.0149705
40
0.4136265
50
357.4755098
51
0.0224936
0
ARC
8
DEFAULT_255_1_388
10
6.2561164
20
132.0177099
40
0.2983498
50
359.5051035
51
13.4236939
0
ARC
8
DEFAULT_255_1_388
10
6.3536254
20
132.0426637
40
0.1977186
50
12.9497905
51
48.7550905
0
ARC
8
DEFAULT_255_1_388
10
6.3331176
20
132.0146373
40
0.2323321
50
49.509109
51
72.1832965
0
ARC
8
DEFAULT_255_1_388
10
6.2928644
20
131.8951632
40
0.358397
50
71.9008458
51
84.3555134
0
ARC
8
DEFAULT_255_1_388
10
6.2747039
20
131.7419712
40
0.512641
50
84.019632
51
89.3326067
0
LINE
8
DEFAULT_255_1_388
10
7.31616
20
132.2789737
11
7.31616
21
132.1425355
0
LINE
8
DEFAULT_255_1_388
10
7.31616
20
132.1425355
11
6.8752205
21
132.1425355
0
LINE
8
DEFAULT_255_1_388
10
6.8752205
20
132.1425355
11
6.8752205
21
132.2789737
0
LINE
8
DEFAULT_255_1_388
10
6.8752205
20
132.2789737
11
7.31616
21
132.2789737
0
LINE
8
DEFAULT_255_1_388
10
4.1826367
20
138.2591898
11
4.1826367
21
136.9436
0
LINE
8
DEFAULT_255_1_388
10
4.1826367
20
136.9436
11
4.0091523
21
136.9436
0
LINE
8
DEFAULT_255_1_388
10
4.0091523
20
136.9436
11
4.0091523
21
138.2591898
0
LINE
8
DEFAULT_255_1_388
10
4.0091523
20
138.2591898
11
4.1826367
21
138.2591898
0
LINE
8
DEFAULT_255_1_388
10
5.5108764
20
138.2591898
11
5.5108764
21
136.9436
0
LINE
8
DEFAULT_255_1_388
10
5.5108764
20
136.9436
11
5.3364885
21
136.9436
0
LINE
8
DEFAULT_255_1_388
10
5.3364885
20
136.9436
11
4.6741757
21
137.9573993
0
LINE
8
DEFAULT_255_1_388
10
4.6741757
20
137.9573993
11
4.6741757
21
136.9436
0
LINE
8
DEFAULT_255_1_388
10
4.6741757
20
136.9436
11
4.4997878
21
136.9436
0
LINE
8
DEFAULT_255_1_388
10
4.4997878
20
136.9436
11
4.4997878
21
138.2591898
0
LINE
8
DEFAULT_255_1_388
10
4.4997878
20
138.2591898
11
4.6741757
21
138.2591898
0
LINE
8
DEFAULT_255_1_388
10
4.6741757
20
138.2591898
11
5.3382956
21
137.2408727
0
LINE
8
DEFAULT_255_1_388
10
5.3382956
20
137.2408727
11
5.3382956
21
138.2591898
0
LINE
8
DEFAULT_255_1_388
10
5.3382956
20
138.2591898
11
5.5108764
21
138.2591898
0
LINE
8
DEFAULT_255_1_388
10
6.0186796
20
137.5462775
11
6.0186796
21
137.6827157
0
LINE
8
DEFAULT_255_1_388
10
6.0186796
20
137.6827157
11
6.1442751
21
137.6827157
0
LINE
8
DEFAULT_255_1_388
10
5.9301303
20
137.9140282
11
5.7629709
21
137.9140282
0
LINE
8
DEFAULT_255_1_388
10
5.7512246
20
137.2905688
11
5.9192875
21
137.2905688
0
LINE
8
DEFAULT_255_1_388
10
6.1442751
20
137.5462775
11
6.0186796
21
137.5462775
0
ARC
8
DEFAULT_255_1_388
10
6.1409977
20
138.0643922
40
0.3816905
50
270.491971
51
281.8953028
0
ARC
8
DEFAULT_255_1_388
10
6.1681404
20
137.9404199
40
0.2547877
50
281.6690378
51
301.2943765
0
ARC
8
DEFAULT_255_1_388
10
6.1872856
20
137.9053926
40
0.2149197
50
301.7834992
51
311.754567
0
ARC
8
DEFAULT_255_1_388
10
6.1975897
20
137.893965
40
0.1995326
50
311.7325027
51
354.2803031
0
ARC
8
DEFAULT_255_1_388
10
6.1158313
20
137.908028
40
0.2823461
50
353.0941646
51
0.1174696
0
ARC
8
DEFAULT_255_1_388
10
6.0639871
20
137.9133874
40
0.3342238
50
359.1804452
51
15.0452323
0
ARC
8
DEFAULT_255_1_388
10
6.2153929
20
137.9575546
40
0.1765747
50
13.957816
51
77.6713812
0
ARC
8
DEFAULT_255_1_388
10
6.1719165
20
137.8017464
40
0.3381982
50
76.111571
51
90.7028736
0
ARC
8
DEFAULT_255_1_388
10
6.1652577
20
137.832525
40
0.3074046
50
89.5321574
51
103.5319393
0
ARC
8
DEFAULT_255_1_388
10
6.1426961
20
137.9224443
40
0.2147041
50
103.2930114
51
133.5619756
0
ARC
8
DEFAULT_255_1_388
10
6.1376902
20
137.9291351
40
0.2064084
50
133.8349761
51
173.5343225
0
ARC
8
DEFAULT_255_1_388
10
6.219056
20
137.9147144
40
0.2889266
50
172.5097183
51
180.1360699
0
ARC
8
DEFAULT_255_1_388
10
6.1120324
20
137.918588
40
0.3490913
50
155.3483706
51
180.7484035
0
ARC
8
DEFAULT_255_1_388
10
6.1065299
20
137.9153519
40
0.3454798
50
131.5745177
51
154.4799474
0
ARC
8
DEFAULT_255_1_388
10
6.1417582
20
137.8797422
40
0.3955058
50
96.9874487
51
131.9690874
0
ARC
8
DEFAULT_255_1_388
10
6.1664475
20
137.7396407
40
0.537622
50
89.8592909
51
97.7827481
0
ARC
8
DEFAULT_255_1_388
10
6.1718584
20
137.710136
40
0.5671399
50
78.3654493
51
90.4132586
0
ARC
8
DEFAULT_255_1_388
10
6.2121225
20
137.8967918
40
0.3762034
50
56.6229818
51
78.6387103
0
ARC
8
DEFAULT_255_1_388
10
6.2363054
20
137.9390846
40
0.3275964
50
47.0254604
51
56.085558
0
ARC
8
DEFAULT_255_1_388
10
6.2385305
20
137.9435189
40
0.3228382
50
10.9207523
51
46.777927
0
ARC
8
DEFAULT_255_1_388
10
6.0850899
20
137.9080401
40
0.4802559
50
359.6364235
51
11.6087615
0
ARC
8
DEFAULT_255_1_388
10
6.2915065
20
137.9063404
40
0.273833
50
332.3549969
51
359.7179765
0
ARC
8
DEFAULT_255_1_388
10
6.2183465
20
137.9410285
40
0.3547505
50
325.2332381
51
332.8746682
0
ARC
8
DEFAULT_255_1_388
10
6.2355048
20
137.9290763
40
0.3338396
50
292.9803892
51
325.2391113
0
ARC
8
DEFAULT_255_1_388
10
6.2044244
20
137.9895679
40
0.4016959
50
292.542178
51
293.6931461
0
ARC
8
DEFAULT_255_1_388
10
6.2487816
20
137.2630036
40
0.372079
50
57.643292
51
72.8626085
0
ARC
8
DEFAULT_255_1_388
10
6.288665
20
137.3276273
40
0.2961455
50
36.7246661
51
57.4701329
0
ARC
8
DEFAULT_255_1_388
10
6.2873807
20
137.329047
40
0.2963321
50
8.054535
51
36.3561529
0
ARC
8
DEFAULT_255_1_388
10
6.190348
20
137.3116073
40
0.3948682
50
359.8316595
51
8.5873361
0
ARC
8
DEFAULT_255_1_388
10
6.1480954
20
137.306197
40
0.4371398
50
343.9831631
51
0.557075
0
ARC
8
DEFAULT_255_1_388
10
6.2478004
20
137.2788963
40
0.3337749
50
311.6358204
51
343.7652116
0
ARC
8
DEFAULT_255_1_388
10
6.2052257
20
137.3268955
40
0.3979351
50
279.7829743
51
311.625622
0
ARC
8
DEFAULT_255_1_388
10
6.1713392
20
137.4885642
40
0.5630417
50
269.7285092
51
280.3857694
0
ARC
8
DEFAULT_255_1_388
10
6.1643705
20
137.4839241
40
0.5584119
50
256.6827433
51
270.4412869
0
ARC
8
DEFAULT_255_1_388
10
6.1262692
20
137.3281698
40
0.3980715
50
229.4223821
51
256.8554507
0
ARC
8
DEFAULT_255_1_388
10
6.0796245
20
137.2756683
40
0.3278564
50
181.8183354
51
229.6455015
0
ARC
8
DEFAULT_255_1_388
10
6.1965855
20
137.2903825
40
0.4453611
50
179.9760419
51
183.2330638
0
ARC
8
DEFAULT_255_1_388
10
6.1772407
20
137.2880781
40
0.2579652
50
179.4467996
51
196.2871626
0
ARC
8
DEFAULT_255_1_388
10
6.1223861
20
137.2730709
40
0.2011057
50
196.5661293
51
227.7059371
0
ARC
8
DEFAULT_255_1_388
10
6.1408468
20
137.2937155
40
0.2287994
50
227.7653015
51
257.8763321
0
ARC
8
DEFAULT_255_1_388
10
6.1661551
20
137.3997961
40
0.3378385
50
257.4583525
51
270.4267406
0
ARC
8
DEFAULT_255_1_388
10
6.1712801
20
137.432423
40
0.3704652
50
269.5965319
51
280.8788143
0
ARC
8
DEFAULT_255_1_388
10
6.1971029
20
137.3034529
40
0.2389415
50
280.6347277
51
299.8594068
0
ARC
8
DEFAULT_255_1_388
10
6.2185798
20
137.2626736
40
0.19289
50
300.3575552
51
314.5515667
0
ARC
8
DEFAULT_255_1_388
10
6.2092474
20
137.2695025
40
0.204312
50
315.0730962
51
345.0429362
0
ARC
8
DEFAULT_255_1_388
10
6.1053982
20
137.2997539
40
0.31246
50
344.598526
51
357.9270698
0
ARC
8
DEFAULT_255_1_388
10
6.0044286
20
137.3066705
40
0.4136265
50
357.4755098
51
0.0224936
0
ARC
8
DEFAULT_255_1_388
10
6.1197164
20
137.3094099
40
0.2983498
50
359.5051035
51
13.4236939
0
ARC
8
DEFAULT_255_1_388
10
6.2172254
20
137.3343637
40
0.1977186
50
12.9497905
51
48.7550905
0
ARC
8
DEFAULT_255_1_388
10
6.1967176
20
137.3063373
40
0.2323321
50
49.509109
51
72.1832965
0
ARC
8
DEFAULT_255_1_388
10
6.1564644
20
137.1868632
40
0.358397
50
71.9008458
51
84.3555134
0
ARC
8
DEFAULT_255_1_388
10
6.1383039
20
137.0336712
40
0.512641
50
84.019632
51
89.3326067
0
LINE
8
DEFAULT_255_1_388
10
7.3107768
20
138.0332987
11
7.3107768
21
137.6492838
0
LINE
8
DEFAULT_255_1_388
10
7.3107768
20
137.6492838
11
7.677624
21
137.6492838
0
LINE
8
DEFAULT_255_1_388
10
7.677624
20
137.6492838
11
7.677624
21
137.4911601
0
LINE
8
DEFAULT_255_1_388
10
7.677624
20
137.4911601
11
7.3107768
21
137.4911601
0
LINE
8
DEFAULT_255_1_388
10
7.3107768
20
137.4911601
11
7.3107768
21
137.0755204
0
LINE
8
DEFAULT_255_1_388
10
7.3107768
20
137.0755204
11
7.1427138
21
137.0755204
0
LINE
8
DEFAULT_255_1_388
10
7.1427138
20
137.0755204
11
7.1427138
21
137.4911601
0
LINE
8
DEFAULT_255_1_388
10
7.1427138
20
137.4911601
11
6.7758667
21
137.4911601
0
LINE
8
DEFAULT_255_1_388
10
6.7758667
20
137.4911601
11
6.7758667
21
137.6492838
0
LINE
8
DEFAULT_255_1_388
10
6.7758667
20
137.6492838
11
7.1427138
21
137.6492838
0
LINE
8
DEFAULT_255_1_388
10
7.1427138
20
137.6492838
11
7.1427138
21
138.0332987
0
LINE
8
DEFAULT_255_1_388
10
7.1427138
20
138.0332987
11
7.3107768
21
138.0332987
0
LINE
8
DEFAULT_255_1_388
10
4.3190367
20
143.5507898
11
4.3190367
21
142.2352
0
LINE
8
DEFAULT_255_1_388
10
4.3190367
20
142.2352
11
4.1455523
21
142.2352
0
LINE
8
DEFAULT_255_1_388
10
4.1455523
20
142.2352
11
4.1455523
21
143.5507898
0
LINE
8
DEFAULT_255_1_388
10
4.1455523
20
143.5507898
11
4.3190367
21
143.5507898
0
LINE
8
DEFAULT_255_1_388
10
5.6472764
20
143.5507898
11
5.6472764
21
142.2352
0
LINE
8
DEFAULT_255_1_388
10
5.6472764
20
142.2352
11
5.4728885
21
142.2352
0
LINE
8
DEFAULT_255_1_388
10
5.4728885
20
142.2352
11
4.8105757
21
143.2489993
0
LINE
8
DEFAULT_255_1_388
10
4.8105757
20
143.2489993
11
4.8105757
21
142.2352
0
LINE
8
DEFAULT_255_1_388
10
4.8105757
20
142.2352
11
4.6361878
21
142.2352
0
LINE
8
DEFAULT_255_1_388
10
4.6361878
20
142.2352
11
4.6361878
21
143.5507898
0
LINE
8
DEFAULT_255_1_388
10
4.6361878
20
143.5507898
11
4.8105757
21
143.5507898
0
LINE
8
DEFAULT_255_1_388
10
4.8105757
20
143.5507898
11
5.4746956
21
142.5324727
0
LINE
8
DEFAULT_255_1_388
10
5.4746956
20
142.5324727
11
5.4746956
21
143.5507898
0
LINE
8
DEFAULT_255_1_388
10
5.4746956
20
143.5507898
11
5.6472764
21
143.5507898
0
LINE
8
DEFAULT_255_1_388
10
6.7740213
20
142.3716382
11
6.7740213
21
142.2352
0
LINE
8
DEFAULT_255_1_388
10
6.7740213
20
142.2352
11
5.9120208
21
142.2352
0
LINE
8
DEFAULT_255_1_388
10
5.9120208
20
142.2352
11
5.9120208
21
142.3553741
0
LINE
8
DEFAULT_255_1_388
10
5.9120208
20
142.3553741
11
6.3674173
21
142.8613702
0
LINE
8
DEFAULT_255_1_388
10
6.0538804
20
143.1631607
11
5.886721
21
143.1631607
0
LINE
8
DEFAULT_255_1_388
10
6.4659058
20
142.753846
11
6.1135157
21
142.3716382
0
LINE
8
DEFAULT_255_1_388
10
6.1135157
20
142.3716382
11
6.7740213
21
142.3716382
0
ARC
8
DEFAULT_255_1_388
10
4.8498232
20
144.2033983
40
2.0258655
50
318.5132526
51
320.7829045
0
ARC
8
DEFAULT_255_1_388
10
5.4446189
20
143.7192929
40
1.2589638
50
320.7372878
51
323.9739031
0
ARC
8
DEFAULT_255_1_388
10
5.8855121
20
143.3998554
40
0.7145141
50
323.8962701
51
328.64194
0
ARC
8
DEFAULT_255_1_388
10
6.1157379
20
143.2578545
40
0.4440242
50
328.8294576
51
331.7891185
0
ARC
8
DEFAULT_255_1_388
10
6.2279699
20
143.1999374
40
0.3177517
50
331.4254512
51
352.9365785
0
ARC
8
DEFAULT_255_1_388
10
6.2432699
20
143.196505
40
0.3021496
50
353.2257659
51
0.0166158
0
ARC
8
DEFAULT_255_1_388
10
6.2669459
20
143.1990894
40
0.2784847
50
359.486299
51
15.9343185
0
ARC
8
DEFAULT_255_1_388
10
6.3239726
20
143.2144269
40
0.2194403
50
16.1712913
51
43.5286088
0
ARC
8
DEFAULT_255_1_388
10
6.3326671
20
143.2231191
40
0.2071504
50
43.4417391
51
83.1661095
0
ARC
8
DEFAULT_255_1_388
10
6.3175832
20
143.1402316
40
0.2912888
50
82.160179
51
90.1505708
0
ARC
8
DEFAULT_255_1_388
10
6.3140313
20
143.0798279
40
0.3517025
50
89.5460741
51
102.5418361
0
ARC
8
DEFAULT_255_1_388
10
6.2867033
20
143.1957933
40
0.2325748
50
102.1738499
51
129.206123
0
ARC
8
DEFAULT_255_1_388
10
6.2778487
20
143.2097664
40
0.2161591
50
129.72865
51
135.753947
0
ARC
8
DEFAULT_255_1_388
10
6.2914969
20
143.1988728
40
0.2335433
50
136.1757367
51
166.3673339
0
ARC
8
DEFAULT_255_1_388
10
6.4047657
20
143.1685148
40
0.3507873
50
165.9090694
51
178.8684636
0
ARC
8
DEFAULT_255_1_388
10
6.5023429
20
143.1632263
40
0.4484624
50
178.4391136
51
180.0083808
0
ARC
8
DEFAULT_255_1_388
10
6.344413
20
143.1676197
40
0.4577138
50
163.2878482
51
180.5581842
0
ARC
8
DEFAULT_255_1_388
10
6.2542171
20
143.1924393
40
0.3641968
50
133.4540601
51
162.947111
0
ARC
8
DEFAULT_255_1_388
10
6.2743053
20
143.1710789
40
0.3935189
50
100.7869829
51
133.4382499
0
ARC
8
DEFAULT_255_1_388
10
6.3134298
20
142.9968399
40
0.5720313
50
89.660664
51
101.3702276
0
ARC
8
DEFAULT_255_1_388
10
6.3208907
20
143.0037263
40
0.5651495
50
78.2172678
51
90.412935
0
ARC
8
DEFAULT_255_1_388
10
6.3608373
20
143.1864511
40
0.378122
50
55.9269121
51
78.4888449
0
ARC
8
DEFAULT_255_1_388
10
6.3829088
20
143.2245187
40
0.3342379
50
47.929771
51
55.4049217
0
ARC
8
DEFAULT_255_1_388
10
6.3943618
20
143.2361618
40
0.3179217
50
4.334829
51
48.0560205
0
ARC
8
DEFAULT_255_1_388
10
6.271142
20
143.2170487
40
0.442341
50
359.9251713
51
5.5971671
0
ARC
8
DEFAULT_255_1_388
10
6.3193575
20
143.2233728
40
0.3941854
50
337.8914027
51
358.9967534
0
ARC
8
DEFAULT_255_1_388
10
6.0141145
20
143.3411295
40
0.7213271
50
326.9132501
51
338.3508308
0
ARC
8
DEFAULT_255_1_388
10
5.5657257
20
143.6285105
40
1.2538973
50
319.6471833
51
327.0959558
0
ARC
8
DEFAULT_255_1_388
10
5.1343915
20
143.984305
40
1.8129975
50
317.2588228
51
319.9045804
0
LINE
8
DEFAULT_255_1_388
10
7.31616
20
142.8622737
11
7.31616
21
142.7258355
0
LINE
8
DEFAULT_255_1_388
10
7.31616
20
142.7258355
11
6.8752205
21
142.7258355
0
LINE
8
DEFAULT_255_1_388
10
6.8752205
20
142.7258355
11
6.8752205
21
142.8622737
0
LINE
8
DEFAULT_255_1_388
10
6.8752205
20
142.8622737
11
7.31616
21
142.8622737
0
LINE
8
DEFAULT_255_1_388
10
4.1826367
20
148.8424898
11
4.1826367
21
147.5269
0
LINE
8
DEFAULT_255_1_388
10
4.1826367
20
147.5269
11
4.0091523
21
147.5269
0
LINE
8
DEFAULT_255_1_388
10
4.0091523
20
147.5269
11
4.0091523
21
148.8424898
0
LINE
8
DEFAULT_255_1_388
10
4.0091523
20
148.8424898
11
4.1826367
21
148.8424898
0
LINE
8
DEFAULT_255_1_388
10
5.5108764
20
148.8424898
11
5.5108764
21
147.5269
0
LINE
8
DEFAULT_255_1_388
10
5.5108764
20
147.5269
11
5.3364885
21
147.5269
0
LINE
8
DEFAULT_255_1_388
10
5.3364885
20
147.5269
11
4.6741757
21
148.5406993
0
LINE
8
DEFAULT_255_1_388
10
4.6741757
20
148.5406993
11
4.6741757
21
147.5269
0
LINE
8
DEFAULT_255_1_388
10
4.6741757
20
147.5269
11
4.4997878
21
147.5269
0
LINE
8
DEFAULT_255_1_388
10
4.4997878
20
147.5269
11
4.4997878
21
148.8424898
0
LINE
8
DEFAULT_255_1_388
10
4.4997878
20
148.8424898
11
4.6741757
21
148.8424898
0
LINE
8
DEFAULT_255_1_388
10
4.6741757
20
148.8424898
11
5.3382956
21
147.8241727
0
LINE
8
DEFAULT_255_1_388
10
5.3382956
20
147.8241727
11
5.3382956
21
148.8424898
0
LINE
8
DEFAULT_255_1_388
10
5.3382956
20
148.8424898
11
5.5108764
21
148.8424898
0
LINE
8
DEFAULT_255_1_388
10
6.6376213
20
147.6633382
11
6.6376213
21
147.5269
0
LINE
8
DEFAULT_255_1_388
10
6.6376213
20
147.5269
11
5.7756208
21
147.5269
0
LINE
8
DEFAULT_255_1_388
10
5.7756208
20
147.5269
11
5.7756208
21
147.6470741
0
LINE
8
DEFAULT_255_1_388
10
5.7756208
20
147.6470741
11
6.2310173
21
148.1530702
0
LINE
8
DEFAULT_255_1_388
10
5.9174804
20
148.4548607
11
5.750321
21
148.4548607
0
LINE
8
DEFAULT_255_1_388
10
6.3295058
20
148.045546
11
5.9771157
21
147.6633382
0
LINE
8
DEFAULT_255_1_388
10
5.9771157
20
147.6633382
11
6.6376213
21
147.6633382
0
ARC
8
DEFAULT_255_1_388
10
4.7134232
20
149.4950983
40
2.0258655
50
318.5132526
51
320.7829045
0
ARC
8
DEFAULT_255_1_388
10
5.3082189
20
149.0109929
40
1.2589638
50
320.7372878
51
323.9739031
0
ARC
8
DEFAULT_255_1_388
10
5.7491121
20
148.6915554
40
0.7145141
50
323.8962701
51
328.64194
0
ARC
8
DEFAULT_255_1_388
10
5.9793379
20
148.5495545
40
0.4440242
50
328.8294576
51
331.7891185
0
ARC
8
DEFAULT_255_1_388
10
6.0915699
20
148.4916374
40
0.3177517
50
331.4254512
51
352.9365785
0
ARC
8
DEFAULT_255_1_388
10
6.1068699
20
148.488205
40
0.3021496
50
353.2257659
51
0.0166158
0
ARC
8
DEFAULT_255_1_388
10
6.1305459
20
148.4907894
40
0.2784847
50
359.486299
51
15.9343185
0
ARC
8
DEFAULT_255_1_388
10
6.1875726
20
148.5061269
40
0.2194403
50
16.1712913
51
43.5286088
0
ARC
8
DEFAULT_255_1_388
10
6.1962671
20
148.5148191
40
0.2071504
50
43.4417391
51
83.1661095
0
ARC
8
DEFAULT_255_1_388
10
6.1811832
20
148.4319316
40
0.2912888
50
82.160179
51
90.1505708
0
ARC
8
DEFAULT_255_1_388
10
6.1776313
20
148.3715279
40
0.3517025
50
89.5460741
51
102.5418361
0
ARC
8
DEFAULT_255_1_388
10
6.1503033
20
148.4874933
40
0.2325748
50
102.1738499
51
129.206123
0
ARC
8
DEFAULT_255_1_388
10
6.1414487
20
148.5014664
40
0.2161591
50
129.72865
51
135.753947
0
ARC
8
DEFAULT_255_1_388
10
6.1550969
20
148.4905728
40
0.2335433
50
136.1757367
51
166.3673339
0
ARC
8
DEFAULT_255_1_388
10
6.2683657
20
148.4602148
40
0.3507873
50
165.9090694
51
178.8684636
0
ARC
8
DEFAULT_255_1_388
10
6.3659429
20
148.4549263
40
0.4484624
50
178.4391136
51
180.0083808
0
ARC
8
DEFAULT_255_1_388
10
6.208013
20
148.4593197
40
0.4577138
50
163.2878482
51
180.5581842
0
ARC
8
DEFAULT_255_1_388
10
6.1178171
20
148.4841393
40
0.3641968
50
133.4540601
51
162.947111
0
ARC
8
DEFAULT_255_1_388
10
6.1379053
20
148.4627789
40
0.3935189
50
100.7869829
51
133.4382499
0
ARC
8
DEFAULT_255_1_388
10
6.1770298
20
148.2885399
40
0.5720313
50
89.660664
51
101.3702276
0
ARC
8
DEFAULT_255_1_388
10
6.1844907
20
148.2954263
40
0.5651495
50
78.2172678
51
90.412935
0
ARC
8
DEFAULT_255_1_388
10
6.2244373
20
148.4781511
40
0.378122
50
55.9269121
51
78.4888449
0
ARC
8
DEFAULT_255_1_388
10
6.2465088
20
148.5162187
40
0.3342379
50
47.929771
51
55.4049217
0
ARC
8
DEFAULT_255_1_388
10
6.2579618
20
148.5278618
40
0.3179217
50
4.334829
51
48.0560205
0
ARC
8
DEFAULT_255_1_388
10
6.134742
20
148.5087487
40
0.442341
50
359.9251713
51
5.5971671
0
ARC
8
DEFAULT_255_1_388
10
6.1829575
20
148.5150728
40
0.3941854
50
337.8914027
51
358.9967534
0
ARC
8
DEFAULT_255_1_388
10
5.8777145
20
148.6328295
40
0.7213271
50
326.9132501
51
338.3508308
0
ARC
8
DEFAULT_255_1_388
10
5.4293257
20
148.9202105
40
1.2538973
50
319.6471833
51
327.0959558
0
ARC
8
DEFAULT_255_1_388
10
4.9979915
20
149.276005
40
1.8129975
50
317.2588228
51
319.9045804
0
LINE
8
DEFAULT_255_1_388
10
7.3107768
20
148.6165987
11
7.3107768
21
148.2325838
0
LINE
8
DEFAULT_255_1_388
10
7.3107768
20
148.2325838
11
7.677624
21
148.2325838
0
LINE
8
DEFAULT_255_1_388
10
7.677624
20
148.2325838
11
7.677624
21
148.0744601
0
LINE
8
DEFAULT_255_1_388
10
7.677624
20
148.0744601
11
7.3107768
21
148.0744601
0
LINE
8
DEFAULT_255_1_388
10
7.3107768
20
148.0744601
11
7.3107768
21
147.6588204
0
LINE
8
DEFAULT_255_1_388
10
7.3107768
20
147.6588204
11
7.1427138
21
147.6588204
0
LINE
8
DEFAULT_255_1_388
10
7.1427138
20
147.6588204
11
7.1427138
21
148.0744601
0
LINE
8
DEFAULT_255_1_388
10
7.1427138
20
148.0744601
11
6.7758667
21
148.0744601
0
LINE
8
DEFAULT_255_1_388
10
6.7758667
20
148.0744601
11
6.7758667
21
148.2325838
0
LINE
8
DEFAULT_255_1_388
10
6.7758667
20
148.2325838
11
7.1427138
21
148.2325838
0
LINE
8
DEFAULT_255_1_388
10
7.1427138
20
148.2325838
11
7.1427138
21
148.6165987
0
LINE
8
DEFAULT_255_1_388
10
7.1427138
20
148.6165987
11
7.3107768
21
148.6165987
0
LINE
8
DEFAULT_255_1_388
10
4.3190367
20
154.1341898
11
4.3190367
21
152.8186
0
LINE
8
DEFAULT_255_1_388
10
4.3190367
20
152.8186
11
4.1455523
21
152.8186
0
LINE
8
DEFAULT_255_1_388
10
4.1455523
20
152.8186
11
4.1455523
21
154.1341898
0
LINE
8
DEFAULT_255_1_388
10
4.1455523
20
154.1341898
11
4.3190367
21
154.1341898
0
LINE
8
DEFAULT_255_1_388
10
5.6472764
20
154.1341898
11
5.6472764
21
152.8186
0
LINE
8
DEFAULT_255_1_388
10
5.6472764
20
152.8186
11
5.4728885
21
152.8186
0
LINE
8
DEFAULT_255_1_388
10
5.4728885
20
152.8186
11
4.8105757
21
153.8323993
0
LINE
8
DEFAULT_255_1_388
10
4.8105757
20
153.8323993
11
4.8105757
21
152.8186
0
LINE
8
DEFAULT_255_1_388
10
4.8105757
20
152.8186
11
4.6361878
21
152.8186
0
LINE
8
DEFAULT_255_1_388
10
4.6361878
20
152.8186
11
4.6361878
21
154.1341898
0
LINE
8
DEFAULT_255_1_388
10
4.6361878
20
154.1341898
11
4.8105757
21
154.1341898
0
LINE
8
DEFAULT_255_1_388
10
4.8105757
20
154.1341898
11
5.4746956
21
153.1158727
0
LINE
8
DEFAULT_255_1_388
10
5.4746956
20
153.1158727
11
5.4746956
21
154.1341898
0
LINE
8
DEFAULT_255_1_388
10
5.4746956
20
154.1341898
11
5.6472764
21
154.1341898
0
LINE
8
DEFAULT_255_1_388
10
6.461388
20
154.1405148
11
6.461388
21
152.8186
0
LINE
8
DEFAULT_255_1_388
10
6.461388
20
152.8186
11
6.293325
21
152.8186
0
LINE
8
DEFAULT_255_1_388
10
6.293325
20
152.8186
11
6.293325
21
153.932695
0
LINE
8
DEFAULT_255_1_388
10
6.293325
20
153.932695
11
5.9562955
21
153.8089066
0
LINE
8
DEFAULT_255_1_388
10
5.9562955
20
153.8089066
11
5.9562955
21
153.9607055
0
LINE
8
DEFAULT_255_1_388
10
5.9562955
20
153.9607055
11
6.4351846
21
154.1405148
0
LINE
8
DEFAULT_255_1_388
10
6.4351846
20
154.1405148
11
6.461388
21
154.1405148
0
LINE
8
DEFAULT_255_1_388
10
7.31616
20
153.4456737
11
7.31616
21
153.3092355
0
LINE
8
DEFAULT_255_1_388
10
7.31616
20
153.3092355
11
6.8752205
21
153.3092355
0
LINE
8
DEFAULT_255_1_388
10
6.8752205
20
153.3092355
11
6.8752205
21
153.4456737
0
LINE
8
DEFAULT_255_1_388
10
6.8752205
20
153.4456737
11
7.31616
21
153.4456737
0
LINE
8
DEFAULT_255_1_388
10
4.1826367
20
159.4257898
11
4.1826367
21
158.1102
0
LINE
8
DEFAULT_255_1_388
10
4.1826367
20
158.1102
11
4.0091523
21
158.1102
0
LINE
8
DEFAULT_255_1_388
10
4.0091523
20
158.1102
11
4.0091523
21
159.4257898
0
LINE
8
DEFAULT_255_1_388
10
4.0091523
20
159.4257898
11
4.1826367
21
159.4257898
0
LINE
8
DEFAULT_255_1_388
10
5.5108764
20
159.4257898
11
5.5108764
21
158.1102
0
LINE
8
DEFAULT_255_1_388
10
5.5108764
20
158.1102
11
5.3364885
21
158.1102
0
LINE
8
DEFAULT_255_1_388
10
5.3364885
20
158.1102
11
4.6741757
21
159.1239993
0
LINE
8
DEFAULT_255_1_388
10
4.6741757
20
159.1239993
11
4.6741757
21
158.1102
0
LINE
8
DEFAULT_255_1_388
10
4.6741757
20
158.1102
11
4.4997878
21
158.1102
0
LINE
8
DEFAULT_255_1_388
10
4.4997878
20
158.1102
11
4.4997878
21
159.4257898
0
LINE
8
DEFAULT_255_1_388
10
4.4997878
20
159.4257898
11
4.6741757
21
159.4257898
0
LINE
8
DEFAULT_255_1_388
10
4.6741757
20
159.4257898
11
5.3382956
21
158.4074727
0
LINE
8
DEFAULT_255_1_388
10
5.3382956
20
158.4074727
11
5.3382956
21
159.4257898
0
LINE
8
DEFAULT_255_1_388
10
5.3382956
20
159.4257898
11
5.5108764
21
159.4257898
0
LINE
8
DEFAULT_255_1_388
10
6.324988
20
159.4321148
11
6.324988
21
158.1102
0
LINE
8
DEFAULT_255_1_388
10
6.324988
20
158.1102
11
6.156925
21
158.1102
0
LINE
8
DEFAULT_255_1_388
10
6.156925
20
158.1102
11
6.156925
21
159.224295
0
LINE
8
DEFAULT_255_1_388
10
6.156925
20
159.224295
11
5.8198955
21
159.1005066
0
LINE
8
DEFAULT_255_1_388
10
5.8198955
20
159.1005066
11
5.8198955
21
159.2523055
0
LINE
8
DEFAULT_255_1_388
10
5.8198955
20
159.2523055
11
6.2987846
21
159.4321148
0
LINE
8
DEFAULT_255_1_388
10
6.2987846
20
159.4321148
11
6.324988
21
159.4321148
0
LINE
8
DEFAULT_255_1_388
10
7.3107768
20
159.1998987
11
7.3107768
21
158.8158838
0
LINE
8
DEFAULT_255_1_388
10
7.3107768
20
158.8158838
11
7.677624
21
158.8158838
0
LINE
8
DEFAULT_255_1_388
10
7.677624
20
158.8158838
11
7.677624
21
158.6577601
0
LINE
8
DEFAULT_255_1_388
10
7.677624
20
158.6577601
11
7.3107768
21
158.6577601
0
LINE
8
DEFAULT_255_1_388
10
7.3107768
20
158.6577601
11
7.3107768
21
158.2421204
0
LINE
8
DEFAULT_255_1_388
10
7.3107768
20
158.2421204
11
7.1427138
21
158.2421204
0
LINE
8
DEFAULT_255_1_388
10
7.1427138
20
158.2421204
11
7.1427138
21
158.6577601
0
LINE
8
DEFAULT_255_1_388
10
7.1427138
20
158.6577601
11
6.7758667
21
158.6577601
0
LINE
8
DEFAULT_255_1_388
10
6.7758667
20
158.6577601
11
6.7758667
21
158.8158838
0
LINE
8
DEFAULT_255_1_388
10
6.7758667
20
158.8158838
11
7.1427138
21
158.8158838
0
LINE
8
DEFAULT_255_1_388
10
7.1427138
20
158.8158838
11
7.1427138
21
159.1998987
0
LINE
8
DEFAULT_255_1_388
10
7.1427138
20
159.1998987
11
7.3107768
21
159.1998987
0
LINE
8
DEFAULT_255_1_388
10
22.7612448
20
164.7174898
11
23.1353205
21
163.6323089
0
LINE
8
DEFAULT_255_1_388
10
23.1353205
20
163.6323089
11
23.5112033
21
164.7174898
0
LINE
8
DEFAULT_255_1_388
10
23.5112033
20
164.7174898
11
23.7009518
21
164.7174898
0
LINE
8
DEFAULT_255_1_388
10
23.7009518
20
164.7174898
11
23.213027
21
163.4019
0
LINE
8
DEFAULT_255_1_388
10
23.213027
20
163.4019
11
23.059421
21
163.4019
0
LINE
8
DEFAULT_255_1_388
10
23.059421
20
163.4019
11
22.5723998
21
164.7174898
0
LINE
8
DEFAULT_255_1_388
10
22.5723998
20
164.7174898
11
22.7612448
21
164.7174898
0
LINE
8
DEFAULT_255_1_388
10
24.1653839
20
164.0289737
11
24.1653839
21
163.8925355
0
LINE
8
DEFAULT_255_1_388
10
24.1653839
20
163.8925355
11
23.7244445
21
163.8925355
0
LINE
8
DEFAULT_255_1_388
10
23.7244445
20
163.8925355
11
23.7244445
21
164.0289737
0
LINE
8
DEFAULT_255_1_388
10
23.7244445
20
164.0289737
11
24.1653839
21
164.0289737
0
ENDSEC
0
EOF