0
SECTION
2
HEADER
9
$MEASUREMENT
70
1
0
ENDSEC
0
SECTION
2
TABLES
0
TABLE
2
LTYPE
0
LTYPE
72
65
70
64
2
CONTINUOUS
3
______
73
0
40
0
0
ENDTAB
0
TABLE
2
LAYER
0
LAYER
2
DEFAULT_255_2_778
70
0
62
255
6
CONTINUOUS
0
ENDTAB
0
ENDSEC
0
SECTION
2
ENTITIES
0
ARC
8
DEFAULT_255_2_778
10
1.0560195
20
136.0489055
40
0.7914215
50
129.1312896
51
180.1450914
0
ARC
8
DEFAULT_255_2_778
10
1.0562847
20
136.0493926
40
0.7912112
50
89.854026
51
129.1684493
0
ARC
8
DEFAULT_255_2_778
10
37.5728439
20
136.0490791
40
0.7915249
50
39.4792447
51
90.147911
0
ARC
8
DEFAULT_255_2_778
10
37.5734437
20
136.0489258
40
0.7911595
50
359.8533901
51
39.5154338
0
ARC
8
DEFAULT_255_2_778
10
37.5732216
20
0.632293
40
0.7913815
50
309.1282118
51
0.1454017
0
ARC
8
DEFAULT_255_2_778
10
37.5728391
20
0.6319757
40
0.7913769
50
269.8524075
51
309.1641908
0
ARC
8
DEFAULT_255_2_778
10
1.0562964
20
0.6320203
40
0.7914215
50
219.1312896
51
270.1450914
0
ARC
8
DEFAULT_255_2_778
10
1.0558093
20
0.6322855
40
0.7912112
50
179.854026
51
219.1684493
0
LINE
8
DEFAULT_255_2_778
10
1.0583005
20
136.8406013
11
37.5708005
21
136.8406013
0
LINE
8
DEFAULT_255_2_778
10
38.3646005
20
136.0469013
11
38.3646005
21
0.6343013
0
LINE
8
DEFAULT_255_2_778
10
37.5708005
20
-0.1593987
11
1.0583005
21
-0.1593987
0
LINE
8
DEFAULT_255_2_778
10
0.2646005
20
0.6343013
11
0.2646005
21
136.0469013
0
ARC
8
DEFAULT_255_2_778
10
3.4368878
20
125.5988577
40
1.3202532
50
148.7968675
51
180.1300552
0
ARC
8
DEFAULT_255_2_778
10
3.4360282
20
125.5992911
40
1.3192936
50
97.5665172
51
148.7936255
0
ARC
8
DEFAULT_255_2_778
10
3.4391336
20
125.5725701
40
1.3461909
50
89.9827905
51
97.547783
0
ARC
8
DEFAULT_255_2_778
10
35.3248348
20
125.598511
40
1.3202532
50
58.7968675
51
90.1300552
0
ARC
8
DEFAULT_255_2_778
10
35.3252682
20
125.5993706
40
1.3192936
50
7.5665172
51
58.7936255
0
ARC
8
DEFAULT_255_2_778
10
35.2985472
20
125.5962652
40
1.3461909
50
359.9827905
51
7.547783
0
ARC
8
DEFAULT_255_2_778
10
35.3244881
20
11.160564
40
1.3202532
50
328.7968675
51
0.1300552
0
ARC
8
DEFAULT_255_2_778
10
35.3253477
20
11.1601307
40
1.3192936
50
277.5665172
51
328.7936255
0
ARC
8
DEFAULT_255_2_778
10
35.3222423
20
11.1868517
40
1.3461909
50
269.9827905
51
277.547783
0
ARC
8
DEFAULT_255_2_778
10
3.4365412
20
11.1609107
40
1.3202532
50
238.7968675
51
270.1300552
0
ARC
8
DEFAULT_255_2_778
10
3.4361078
20
11.1600511
40
1.3192936
50
187.5665172
51
238.7936255
0
ARC
8
DEFAULT_255_2_778
10
3.4628288
20
11.1631565
40
1.3461909
50
179.9827905
51
187.547783
0
LINE
8
DEFAULT_255_2_778
10
3.439538
20
126.9187609
11
35.321838
21
126.9187609
0
LINE
8
DEFAULT_255_2_778
10
36.644738
20
125.5958609
11
36.644738
21
11.1635609
0
LINE
8
DEFAULT_255_2_778
10
35.321838
20
9.8406609
11
3.439538
21
9.8406609
0
LINE
8
DEFAULT_255_2_778
10
2.116638
20
11.1635609
11
2.116638
21
125.5958609
0
LINE
8
DEFAULT_255_2_778
10
38.3646005
20
129.6968562
11
28.7073005
21
129.8291562
0
LINE
8
DEFAULT_255_2_778
10
28.7073005
20
129.8291562
11
28.2774005
21
130.1598562
0
LINE
8
DEFAULT_255_2_778
10
0.2646005
20
129.6968562
11
19.4469005
21
129.6968562
0
LINE
8
DEFAULT_255_2_778
10
19.4469005
20
129.6968562
11
20.1745005
21
130.2921562
0
ARC
8
DEFAULT_255_2_778
10
25.3159498
20
133.4575165
40
6.0459342
50
198.4025212
51
203.7090894
0
ARC
8
DEFAULT_255_2_778
10
24.9488869
20
133.2960878
40
5.6449425
50
203.706953
51
209.7299262
0
ARC
8
DEFAULT_255_2_778
10
24.671542
20
133.137986
40
5.325699
50
209.7325886
51
216.2149115
0
ARC
8
DEFAULT_255_2_778
10
24.479492
20
132.9974261
40
5.0877068
50
216.2156041
51
223.7015629
0
ARC
8
DEFAULT_255_2_778
10
24.3632909
20
132.8867335
40
4.9272216
50
223.7045692
51
232.6182178
0
ARC
8
DEFAULT_255_2_778
10
24.3160235
20
132.8258828
40
4.8501721
50
232.6254854
51
243.3711903
0
ARC
8
DEFAULT_255_2_778
10
24.311817
20
132.8187656
40
4.8419244
50
243.3779388
51
257.3671027
0
ARC
8
DEFAULT_255_2_778
10
24.3102145
20
132.8091881
40
4.8322282
50
257.3608077
51
268.1040888
0
ARC
8
DEFAULT_255_2_778
10
24.3086572
20
132.7806512
40
4.8036555
50
268.1113925
51
269.9995182
0
ARC
8
DEFAULT_255_2_778
10
24.3211987
20
132.6317279
40
4.6547492
50
269.8451277
51
298.8631098
0
ARC
8
DEFAULT_255_2_778
10
24.3867773
20
132.4870632
40
4.4964164
50
299.0211202
51
311.1541848
0
ARC
8
DEFAULT_255_2_778
10
24.3391751
20
132.5396085
40
4.5673065
50
311.1700198
51
320.4931368
0
ARC
8
DEFAULT_255_2_778
10
24.191505
20
132.6608987
40
4.7584025
50
320.4974977
51
328.2133711
0
ARC
8
DEFAULT_255_2_778
10
23.9439922
20
132.8140705
40
5.0494766
50
328.2154221
51
334.9925832
0
ARC
8
DEFAULT_255_2_778
10
23.5944849
20
132.977167
40
5.4351655
50
334.9919762
51
340.9920281
0
ARC
8
DEFAULT_255_2_778
10
23.2301295
20
133.1052888
40
5.8213835
50
340.9677642
51
344.4926354
0
LINE
8
DEFAULT_255_2_778
10
19.5791918
20
136.8405707
11
19.5791918
21
131.5488707
0
LINE
8
DEFAULT_255_2_778
10
28.8395918
20
131.5488707
11
28.8395918
21
136.8405707
0
ARC
8
DEFAULT_255_2_778
10
24.2878433
20
131.8174761
40
3.1212082
50
162.8444184
51
180.0728382
0
ARC
8
DEFAULT_255_2_778
10
24.2135116
20
131.8398563
40
3.0435825
50
134.4826471
51
162.8342341
0
ARC
8
DEFAULT_255_2_778
10
24.1450355
20
131.9151911
40
2.9418557
50
101.1625767
51
134.559216
0
ARC
8
DEFAULT_255_2_778
10
24.1416408
20
131.9053809
40
2.9508278
50
89.9689949
51
101.0610326
0
ARC
8
DEFAULT_255_2_778
10
24.1466377
20
131.9259149
40
2.9302954
50
71.0176833
51
90.0664815
0
ARC
8
DEFAULT_255_2_778
10
24.1068169
20
131.8611961
40
3.0044933
50
18.8114734
51
70.7010473
0
ARC
8
DEFAULT_255_2_778
10
24.0091785
20
131.8192238
40
3.1104615
50
1.1430858
51
18.9633725
0
ARC
8
DEFAULT_255_2_778
10
23.9189384
20
131.8135489
40
3.2007992
50
359.9992714
51
1.2124239
0
ARC
8
DEFAULT_255_2_778
10
23.9985147
20
131.8095403
40
3.1212254
50
342.8445154
51
0.0728381
0
ARC
8
DEFAULT_255_2_778
10
24.0728141
20
131.7871693
40
3.0436332
50
314.483373
51
342.8343482
0
ARC
8
DEFAULT_255_2_778
10
24.1413841
20
131.7117272
40
2.9417642
50
281.1634106
51
314.560129
0
ARC
8
DEFAULT_255_2_778
10
24.1448325
20
131.7213299
40
2.9505221
50
269.9690276
51
281.0616097
0
ARC
8
DEFAULT_255_2_778
10
24.139832
20
131.7013635
40
2.9305572
50
251.0185377
51
270.066584
0
ARC
8
DEFAULT_255_2_778
10
24.1795474
20
131.7658354
40
3.004487
50
198.8118152
51
250.7022468
0
ARC
8
DEFAULT_255_2_778
10
24.2771651
20
131.8077895
40
3.1104298
50
181.1430397
51
198.9635123
0
ARC
8
DEFAULT_255_2_778
10
24.3674368
20
131.8134675
40
3.2007992
50
179.9992714
51
181.2124239
0
LINE
8
DEFAULT_255_2_778
10
24.0439376
20
130.7964082
11
25.6396376
21
129.1923082
0
LINE
8
DEFAULT_255_2_778
10
26.7890376
20
130.4242082
11
25.2346376
21
131.9950082
0
LINE
8
DEFAULT_255_2_778
10
21.5468376
20
133.2766082
11
23.2169376
21
131.6063082
0
LINE
8
DEFAULT_255_2_778
10
24.4075376
20
132.7887082
11
22.7374376
21
134.4755082
0
LINE
8
DEFAULT_255_2_778
10
26.0614376
20
132.8213082
11
23.2015376
21
129.9614082
0
LINE
8
DEFAULT_255_2_778
10
23.2015376
20
129.9614082
11
22.3892376
21
130.7737082
0
LINE
8
DEFAULT_255_2_778
10
22.3892376
20
130.7737082
11
25.2491376
21
133.6333082
0
LINE
8
DEFAULT_255_2_778
10
25.2491376
20
133.6333082
11
26.0614376
21
132.8213082
0
LINE
8
DEFAULT_255_2_778
10
21.1666376
20
131.8135082
11
21.1666376
21
131.8135082
0
ARC
8
DEFAULT_255_2_778
10
24.9190498
20
3.235625
40
6.0459342
50
156.2909106
51
161.5974788
0
ARC
8
DEFAULT_255_2_778
10
24.5519869
20
3.3970536
40
5.6449425
50
150.2700738
51
156.293047
0
ARC
8
DEFAULT_255_2_778
10
24.274642
20
3.5551554
40
5.325699
50
143.7850885
51
150.2674114
0
ARC
8
DEFAULT_255_2_778
10
24.082592
20
3.6957154
40
5.0877068
50
136.2984371
51
143.7843959
0
ARC
8
DEFAULT_255_2_778
10
23.9663909
20
3.806408
40
4.9272216
50
127.3817822
51
136.2954308
0
ARC
8
DEFAULT_255_2_778
10
23.9191235
20
3.8672586
40
4.8501721
50
116.6288097
51
127.3745146
0
ARC
8
DEFAULT_255_2_778
10
23.914917
20
3.8743759
40
4.8419244
50
102.6328973
51
116.6220612
0
ARC
8
DEFAULT_255_2_778
10
23.9133145
20
3.8839534
40
4.8322282
50
91.8959112
51
102.6391923
0
ARC
8
DEFAULT_255_2_778
10
23.9117572
20
3.9124902
40
4.8036555
50
90.0004818
51
91.8886075
0
ARC
8
DEFAULT_255_2_778
10
23.9242987
20
4.0614136
40
4.6547492
50
61.1368902
51
90.1548723
0
ARC
8
DEFAULT_255_2_778
10
23.9898773
20
4.2060782
40
4.4964164
50
48.8458152
51
60.9788798
0
ARC
8
DEFAULT_255_2_778
10
23.9422751
20
4.1535329
40
4.5673065
50
39.5068632
51
48.8299802
0
ARC
8
DEFAULT_255_2_778
10
23.794605
20
4.0322428
40
4.7584025
50
31.7866289
51
39.5025023
0
ARC
8
DEFAULT_255_2_778
10
23.5470922
20
3.8790709
40
5.0494766
50
25.0074168
51
31.7845779
0
ARC
8
DEFAULT_255_2_778
10
23.1975849
20
3.7159744
40
5.4351655
50
19.0079719
51
25.0080238
0
ARC
8
DEFAULT_255_2_778
10
22.8332295
20
3.5878526
40
5.8213835
50
15.5073646
51
19.0322358
0
LINE
8
DEFAULT_255_2_778
10
19.1822918
20
-0.1473293
11
19.1822918
21
5.1442707
0
LINE
8
DEFAULT_255_2_778
10
28.4426918
20
5.1442707
11
28.4426918
21
-0.1473293
0
ARC
8
DEFAULT_255_2_778
10
23.8915359
20
4.8757279
40
3.1217009
50
179.9269441
51
197.1525512
0
ARC
8
DEFAULT_255_2_778
10
23.8165403
20
4.8531234
40
3.0433744
50
197.1623105
51
225.5149795
0
ARC
8
DEFAULT_255_2_778
10
23.7482617
20
4.7782232
40
2.9420961
50
225.4415211
51
258.483454
0
ARC
8
DEFAULT_255_2_778
10
23.7447445
20
4.7873201
40
2.9503123
50
258.5856543
51
270.0328799
0
ARC
8
DEFAULT_255_2_778
10
23.7498687
20
4.7678096
40
2.9308033
50
269.9329242
51
288.9806599
0
ARC
8
DEFAULT_255_2_778
10
23.7103353
20
4.8316915
40
3.0041159
50
289.2973837
51
341.1927021
0
ARC
8
DEFAULT_255_2_778
10
23.6119288
20
4.8739744
40
3.110911
50
341.0398273
51
358.8574152
0
ARC
8
DEFAULT_255_2_778
10
23.520351
20
4.879677
40
3.2025865
50
358.7880837
51
0.0005591
0
ARC
8
DEFAULT_255_2_778
10
23.6017147
20
4.8836762
40
3.1212254
50
359.9271619
51
17.1554846
0
ARC
8
DEFAULT_255_2_778
10
23.6760141
20
4.9060472
40
3.0436332
50
17.1656518
51
45.516627
0
ARC
8
DEFAULT_255_2_778
10
23.7445841
20
4.9814893
40
2.9417642
50
45.439871
51
78.8365894
0
ARC
8
DEFAULT_255_2_778
10
23.7480325
20
4.9718866
40
2.9505221
50
78.9383903
51
90.0309724
0
ARC
8
DEFAULT_255_2_778
10
23.743032
20
4.991853
40
2.9305572
50
89.933416
51
108.9814623
0
ARC
8
DEFAULT_255_2_778
10
23.7827474
20
4.9273811
40
3.004487
50
109.2977532
51
161.1881848
0
ARC
8
DEFAULT_255_2_778
10
23.8803651
20
4.885427
40
3.1104298
50
161.0364877
51
178.8569603
0
ARC
8
DEFAULT_255_2_778
10
23.9706368
20
4.8797489
40
3.2007992
50
178.7875761
51
180.0007286
0
LINE
8
DEFAULT_255_2_778
10
23.6471376
20
5.8968082
11
25.2428376
21
7.5009082
0
LINE
8
DEFAULT_255_2_778
10
26.3922376
20
6.2688082
11
24.8378376
21
4.6979082
0
LINE
8
DEFAULT_255_2_778
10
21.1500376
20
3.4163082
11
22.8201376
21
5.0863082
0
LINE
8
DEFAULT_255_2_778
10
24.0107376
20
3.9039082
11
22.3404376
21
2.2172082
0
LINE
8
DEFAULT_255_2_778
10
25.6646376
20
3.8719082
11
22.8047376
21
6.7318082
0
LINE
8
DEFAULT_255_2_778
10
22.8047376
20
6.7318082
11
21.9924376
21
5.9195082
0
LINE
8
DEFAULT_255_2_778
10
21.9924376
20
5.9195082
11
24.8523376
21
3.0599082
0
LINE
8
DEFAULT_255_2_778
10
24.8523376
20
3.0599082
11
25.6646376
21
3.8719082
0
LINE
8
DEFAULT_255_2_778
10
20.7698376
20
4.8797082
11
20.7698376
21
4.8797082
0
LINE
8
DEFAULT_255_2_778
10
0.2646005
20
6.7979458
11
20.1083005
21
6.7979458
0
LINE
8
DEFAULT_255_2_778
10
27.5828005
20
6.9302458
11
38.3646005
21
6.9302458
0
ARC
8
DEFAULT_255_2_778
10
25.7965982
20
121.2335101
40
1.719493
50
154.0298359
51
180.1105751
0
ARC
8
DEFAULT_255_2_778
10
25.7927325
20
121.234044
40
1.7157844
50
99.3530846
51
153.9893384
0
ARC
8
DEFAULT_255_2_778
10
25.7961522
20
121.2044864
40
1.7455055
50
89.9751782
51
99.3061631
0
ARC
8
DEFAULT_255_2_778
10
25.8002268
20
121.2305018
40
1.719493
50
64.0298359
51
90.1105751
0
ARC
8
DEFAULT_255_2_778
10
25.8007608
20
121.2343675
40
1.7157844
50
9.3530846
51
63.9893384
0
ARC
8
DEFAULT_255_2_778
10
25.7712032
20
121.2309478
40
1.7455055
50
359.9751782
51
9.3061631
0
ARC
8
DEFAULT_255_2_778
10
25.7972186
20
121.2268732
40
1.719493
50
334.0298359
51
0.1105751
0
ARC
8
DEFAULT_255_2_778
10
25.8010842
20
121.2263392
40
1.7157844
50
279.3530846
51
333.9893384
0
ARC
8
DEFAULT_255_2_778
10
25.7976646
20
121.2558968
40
1.7455055
50
269.9751782
51
279.3061631
0
ARC
8
DEFAULT_255_2_778
10
25.7935899
20
121.2298814
40
1.719493
50
244.0298359
51
270.1105751
0
ARC
8
DEFAULT_255_2_778
10
25.793056
20
121.2260158
40
1.7157844
50
189.3530846
51
243.9893384
0
ARC
8
DEFAULT_255_2_778
10
25.8226136
20
121.2294354
40
1.7455055
50
179.9751782
51
189.3061631
0
LINE
8
DEFAULT_255_2_778
10
24.0771084
20
121.2301916
11
24.0771084
21
121.2301916
0
ARC
8
DEFAULT_255_2_778
10
25.7965982
20
115.6772101
40
1.719493
50
154.0298359
51
180.1105751
0
ARC
8
DEFAULT_255_2_778
10
25.7927325
20
115.677744
40
1.7157844
50
99.3530846
51
153.9893384
0
ARC
8
DEFAULT_255_2_778
10
25.7961522
20
115.6481864
40
1.7455055
50
89.9751782
51
99.3061631
0
ARC
8
DEFAULT_255_2_778
10
25.8002268
20
115.6742018
40
1.719493
50
64.0298359
51
90.1105751
0
ARC
8
DEFAULT_255_2_778
10
25.8007608
20
115.6780675
40
1.7157844
50
9.3530846
51
63.9893384
0
ARC
8
DEFAULT_255_2_778
10
25.7712032
20
115.6746478
40
1.7455055
50
359.9751782
51
9.3061631
0
ARC
8
DEFAULT_255_2_778
10
25.7972186
20
115.6705732
40
1.719493
50
334.0298359
51
0.1105751
0
ARC
8
DEFAULT_255_2_778
10
25.8010842
20
115.6700392
40
1.7157844
50
279.3530846
51
333.9893384
0
ARC
8
DEFAULT_255_2_778
10
25.7976646
20
115.6995968
40
1.7455055
50
269.9751782
51
279.3061631
0
ARC
8
DEFAULT_255_2_778
10
25.7935899
20
115.6735814
40
1.719493
50
244.0298359
51
270.1105751
0
ARC
8
DEFAULT_255_2_778
10
25.793056
20
115.6697158
40
1.7157844
50
189.3530846
51
243.9893384
0
ARC
8
DEFAULT_255_2_778
10
25.8226136
20
115.6731354
40
1.7455055
50
179.9751782
51
189.3061631
0
LINE
8
DEFAULT_255_2_778
10
24.0771084
20
115.6738916
11
24.0771084
21
115.6738916
0
ARC
8
DEFAULT_255_2_778
10
8.0694982
20
117.7939101
40
1.719493
50
154.0298359
51
180.1105751
0
ARC
8
DEFAULT_255_2_778
10
8.0656325
20
117.794444
40
1.7157844
50
99.3530846
51
153.9893384
0
ARC
8
DEFAULT_255_2_778
10
8.0690522
20
117.7648864
40
1.7455055
50
89.9751782
51
99.3061631
0
ARC
8
DEFAULT_255_2_778
10
8.0731268
20
117.7909018
40
1.719493
50
64.0298359
51
90.1105751
0
ARC
8
DEFAULT_255_2_778
10
8.0736608
20
117.7947675
40
1.7157844
50
9.3530846
51
63.9893384
0
ARC
8
DEFAULT_255_2_778
10
8.0441032
20
117.7913478
40
1.7455055
50
359.9751782
51
9.3061631
0
ARC
8
DEFAULT_255_2_778
10
8.0701186
20
117.7872732
40
1.719493
50
334.0298359
51
0.1105751
0
ARC
8
DEFAULT_255_2_778
10
8.0739842
20
117.7867392
40
1.7157844
50
279.3530846
51
333.9893384
0
ARC
8
DEFAULT_255_2_778
10
8.0705646
20
117.8162968
40
1.7455055
50
269.9751782
51
279.3061631
0
ARC
8
DEFAULT_255_2_778
10
8.0664899
20
117.7902814
40
1.719493
50
244.0298359
51
270.1105751
0
ARC
8
DEFAULT_255_2_778
10
8.065956
20
117.7864158
40
1.7157844
50
189.3530846
51
243.9893384
0
ARC
8
DEFAULT_255_2_778
10
8.0955136
20
117.7898354
40
1.7455055
50
179.9751782
51
189.3061631
0
LINE
8
DEFAULT_255_2_778
10
6.3500084
20
117.7905916
11
6.3500084
21
117.7905916
0
LINE
8
DEFAULT_255_2_778
10
30.4271084
20
120.9655913
11
31.7500084
21
120.9655913
0
LINE
8
DEFAULT_255_2_778
10
31.7500084
20
120.9655913
11
31.7500084
21
120.1717913
0
LINE
8
DEFAULT_255_2_778
10
31.7500084
20
120.1717913
11
30.4271084
21
120.1717913
0
LINE
8
DEFAULT_255_2_778
10
30.4271084
20
120.1717913
11
30.4271084
21
120.9655913
0
LINE
8
DEFAULT_255_2_778
10
30.4271084
20
119.6426913
11
31.7500084
21
119.6426913
0
LINE
8
DEFAULT_255_2_778
10
31.7500084
20
119.6426913
11
31.7500084
21
118.8488913
0
LINE
8
DEFAULT_255_2_778
10
31.7500084
20
118.8488913
11
30.4271084
21
118.8488913
0
LINE
8
DEFAULT_255_2_778
10
30.4271084
20
118.8488913
11
30.4271084
21
119.6426913
0
LINE
8
DEFAULT_255_2_778
10
33.3375084
20
115.5415913
11
31.7500084
21
115.5415913
0
LINE
8
DEFAULT_255_2_778
10
30.4271084
20
116.3353913
11
31.7500084
21
116.3353913
0
LINE
8
DEFAULT_255_2_778
10
31.7500084
20
116.3353913
11
31.7500084
21
115.5415913
0
LINE
8
DEFAULT_255_2_778
10
31.7500084
20
115.5415913
11
30.4271084
21
115.5415913
0
LINE
8
DEFAULT_255_2_778
10
30.4271084
20
115.5415913
11
30.4271084
21
116.3353913
0
LINE
8
DEFAULT_255_2_778
10
33.3375084
20
113.0280913
11
31.7500084
21
113.0280913
0
LINE
8
DEFAULT_255_2_778
10
30.4271084
20
113.8217913
11
31.7500084
21
113.8217913
0
LINE
8
DEFAULT_255_2_778
10
31.7500084
20
113.8217913
11
31.7500084
21
113.0280913
0
LINE
8
DEFAULT_255_2_778
10
31.7500084
20
113.0280913
11
30.4271084
21
113.0280913
0
LINE
8
DEFAULT_255_2_778
10
30.4271084
20
113.0280913
11
30.4271084
21
113.8217913
0
LINE
8
DEFAULT_255_2_778
10
30.4271084
20
112.1020913
11
31.7500084
21
112.1020913
0
LINE
8
DEFAULT_255_2_778
10
31.7500084
20
112.1020913
11
31.7500084
21
111.3082913
0
LINE
8
DEFAULT_255_2_778
10
31.7500084
20
111.3082913
11
30.4271084
21
111.3082913
0
LINE
8
DEFAULT_255_2_778
10
30.4271084
20
111.3082913
11
30.4271084
21
112.1020913
0
LINE
8
DEFAULT_255_2_778
10
30.4271084
20
109.5884913
11
31.7500084
21
109.5884913
0
LINE
8
DEFAULT_255_2_778
10
31.7500084
20
109.5884913
11
31.7500084
21
108.7947913
0
LINE
8
DEFAULT_255_2_778
10
31.7500084
20
108.7947913
11
30.4271084
21
108.7947913
0
LINE
8
DEFAULT_255_2_778
10
30.4271084
20
108.7947913
11
30.4271084
21
109.5884913
0
LINE
8
DEFAULT_255_2_778
10
30.4271084
20
107.0749913
11
31.7500084
21
107.0749913
0
LINE
8
DEFAULT_255_2_778
10
31.7500084
20
107.0749913
11
31.7500084
21
106.2811913
0
LINE
8
DEFAULT_255_2_778
10
31.7500084
20
106.2811913
11
30.4271084
21
106.2811913
0
LINE
8
DEFAULT_255_2_778
10
30.4271084
20
106.2811913
11
30.4271084
21
107.0749913
0
LINE
8
DEFAULT_255_2_778
10
33.3375084
20
101.2540913
11
31.7500084
21
101.2540913
0
LINE
8
DEFAULT_255_2_778
10
30.4271084
20
104.4290913
11
31.7500084
21
104.4290913
0
LINE
8
DEFAULT_255_2_778
10
31.7500084
20
104.4290913
11
31.7500084
21
103.6353913
0
LINE
8
DEFAULT_255_2_778
10
31.7500084
20
103.6353913
11
30.4271084
21
103.6353913
0
LINE
8
DEFAULT_255_2_778
10
30.4271084
20
103.6353913
11
30.4271084
21
104.4290913
0
LINE
8
DEFAULT_255_2_778
10
33.3375084
20
103.6353913
11
31.7500084
21
103.6353913
0
LINE
8
DEFAULT_255_2_778
10
30.4271084
20
102.0478913
11
31.7500084
21
102.0478913
0
LINE
8
DEFAULT_255_2_778
10
31.7500084
20
102.0478913
11
31.7500084
21
101.2540913
0
LINE
8
DEFAULT_255_2_778
10
31.7500084
20
101.2540913
11
30.4271084
21
101.2540913
0
LINE
8
DEFAULT_255_2_778
10
30.4271084
20
101.2540913
11
30.4271084
21
102.0478913
0
LINE
8
DEFAULT_255_2_778
10
30.4271084
20
98.3436913
11
30.4271084
21
124.0082913
0
LINE
8
DEFAULT_255_2_778
10
29.8979084
20
124.0082913
11
33.3375084
21
124.0082913
0
LINE
8
DEFAULT_255_2_778
10
33.3375084
20
124.0082913
11
33.3375084
21
98.3436913
0
LINE
8
DEFAULT_255_2_778
10
33.3375084
20
98.3436913
11
29.8979084
21
98.3436913
0
LINE
8
DEFAULT_255_2_778
10
29.8979084
20
98.3436913
11
29.8979084
21
124.0082913
0
ARC
8
DEFAULT_255_2_778
10
15.3446449
20
84.5865717
40
0.5280127
50
89.8710178
51
180.1289822
0
ARC
8
DEFAULT_255_2_778
10
28.0469438
20
84.5865932
40
0.527991
50
359.8686797
51
90.1204794
0
ARC
8
DEFAULT_255_2_778
10
28.0469439
20
69.2383729
40
0.527991
50
269.8795076
51
0.1313257
0
ARC
8
DEFAULT_255_2_778
10
15.3446449
20
69.2383945
40
0.5280127
50
179.8710178
51
270.1289822
0
LINE
8
DEFAULT_255_2_778
10
16.4041335
20
70.5624831
11
18.5208335
21
70.5624831
0
LINE
8
DEFAULT_255_2_778
10
16.4041335
20
71.6208831
11
18.5208335
21
71.6208831
0
LINE
8
DEFAULT_255_2_778
10
16.4041335
20
72.6791831
11
18.5208335
21
72.6791831
0
LINE
8
DEFAULT_255_2_778
10
18.5208335
20
72.6791831
11
18.5208335
21
69.5041831
0
LINE
8
DEFAULT_255_2_778
10
18.5208335
20
69.5041831
11
16.4041335
21
69.5041831
0
LINE
8
DEFAULT_255_2_778
10
16.4041335
20
69.5041831
11
16.4041335
21
72.6791831
0
LINE
8
DEFAULT_255_2_778
10
16.4041335
20
81.4103831
11
18.5208335
21
81.4103831
0
LINE
8
DEFAULT_255_2_778
10
16.4041335
20
82.4687831
11
18.5208335
21
82.4687831
0
LINE
8
DEFAULT_255_2_778
10
16.4041335
20
83.5270831
11
18.5208335
21
83.5270831
0
LINE
8
DEFAULT_255_2_778
10
18.5208335
20
83.5270831
11
18.5208335
21
80.3520831
0
LINE
8
DEFAULT_255_2_778
10
18.5208335
20
80.3520831
11
16.4041335
21
80.3520831
0
LINE
8
DEFAULT_255_2_778
10
16.4041335
20
80.3520831
11
16.4041335
21
83.5270831
0
LINE
8
DEFAULT_255_2_778
10
22.2249335
20
71.6208831
11
24.3416335
21
71.6208831
0
LINE
8
DEFAULT_255_2_778
10
24.3416335
20
71.6208831
11
24.3416335
21
70.5624831
0
LINE
8
DEFAULT_255_2_778
10
24.3416335
20
70.5624831
11
22.2249335
21
70.5624831
0
LINE
8
DEFAULT_255_2_778
10
22.2249335
20
70.5624831
11
22.2249335
21
71.6208831
0
LINE
8
DEFAULT_255_2_778
10
21.6958335
20
82.7333831
11
23.8124335
21
82.7333831
0
LINE
8
DEFAULT_255_2_778
10
23.8124335
20
82.7333831
11
23.8124335
21
81.6749831
0
LINE
8
DEFAULT_255_2_778
10
23.8124335
20
81.6749831
11
21.6958335
21
81.6749831
0
LINE
8
DEFAULT_255_2_778
10
21.6958335
20
81.6749831
11
21.6958335
21
82.7333831
0
LINE
8
DEFAULT_255_2_778
10
17.4624335
20
79.0291831
11
18.7853335
21
79.0291831
0
LINE
8
DEFAULT_255_2_778
10
17.4624335
20
74.2666831
11
18.7853335
21
74.2666831
0
LINE
8
DEFAULT_255_2_778
10
18.7853335
20
73.4728831
11
18.7853335
21
79.8228831
0
LINE
8
DEFAULT_255_2_778
10
18.7853335
20
73.4728831
11
20.9020335
21
73.4728831
0
LINE
8
DEFAULT_255_2_778
10
20.9020335
20
73.4728831
11
20.9020335
21
70.5624831
0
LINE
8
DEFAULT_255_2_778
10
20.9020335
20
70.5624831
11
18.7853335
21
70.5624831
0
LINE
8
DEFAULT_255_2_778
10
18.7853335
20
70.5624831
11
18.7853335
21
73.4728831
0
LINE
8
DEFAULT_255_2_778
10
18.7853335
20
82.7333831
11
20.9020335
21
82.7333831
0
LINE
8
DEFAULT_255_2_778
10
20.9020335
20
82.7333831
11
20.9020335
21
79.8228831
0
LINE
8
DEFAULT_255_2_778
10
20.9020335
20
79.8228831
11
18.7853335
21
79.8228831
0
LINE
8
DEFAULT_255_2_778
10
18.7853335
20
79.8228831
11
18.7853335
21
82.7333831
0
LINE
8
DEFAULT_255_2_778
10
23.2833335
20
73.2083831
11
23.2833335
21
74.0020831
0
LINE
8
DEFAULT_255_2_778
10
22.4895335
20
74.0020831
11
26.4583335
21
74.0020831
0
LINE
8
DEFAULT_255_2_778
10
26.4583335
20
74.0020831
11
26.4583335
21
73.2083831
0
LINE
8
DEFAULT_255_2_778
10
26.4583335
20
73.2083831
11
22.4895335
21
73.2083831
0
LINE
8
DEFAULT_255_2_778
10
22.4895335
20
73.2083831
11
22.4895335
21
74.0020831
0
LINE
8
DEFAULT_255_2_778
10
23.2833335
20
74.2666831
11
23.2833335
21
75.0603831
0
LINE
8
DEFAULT_255_2_778
10
22.4895335
20
75.0603831
11
26.4583335
21
75.0603831
0
LINE
8
DEFAULT_255_2_778
10
26.4583335
20
75.0603831
11
26.4583335
21
74.2666831
0
LINE
8
DEFAULT_255_2_778
10
26.4583335
20
74.2666831
11
22.4895335
21
74.2666831
0
LINE
8
DEFAULT_255_2_778
10
22.4895335
20
74.2666831
11
22.4895335
21
75.0603831
0
LINE
8
DEFAULT_255_2_778
10
23.2833335
20
75.3249831
11
23.2833335
21
76.1187831
0
LINE
8
DEFAULT_255_2_778
10
22.4895335
20
76.1187831
11
26.4583335
21
76.1187831
0
LINE
8
DEFAULT_255_2_778
10
26.4583335
20
76.1187831
11
26.4583335
21
75.3249831
0
LINE
8
DEFAULT_255_2_778
10
26.4583335
20
75.3249831
11
22.4895335
21
75.3249831
0
LINE
8
DEFAULT_255_2_778
10
22.4895335
20
75.3249831
11
22.4895335
21
76.1187831
0
LINE
8
DEFAULT_255_2_778
10
23.2833335
20
76.3833831
11
23.2833335
21
77.1770831
0
LINE
8
DEFAULT_255_2_778
10
22.4895335
20
77.1770831
11
26.4583335
21
77.1770831
0
LINE
8
DEFAULT_255_2_778
10
26.4583335
20
77.1770831
11
26.4583335
21
76.3833831
0
LINE
8
DEFAULT_255_2_778
10
26.4583335
20
76.3833831
11
22.4895335
21
76.3833831
0
LINE
8
DEFAULT_255_2_778
10
22.4895335
20
76.3833831
11
22.4895335
21
77.1770831
0
LINE
8
DEFAULT_255_2_778
10
23.2833335
20
77.4416831
11
23.2833335
21
78.2353831
0
LINE
8
DEFAULT_255_2_778
10
22.4895335
20
78.2353831
11
26.4583335
21
78.2353831
0
LINE
8
DEFAULT_255_2_778
10
26.4583335
20
78.2353831
11
26.4583335
21
77.4416831
0
LINE
8
DEFAULT_255_2_778
10
26.4583335
20
77.4416831
11
22.4895335
21
77.4416831
0
LINE
8
DEFAULT_255_2_778
10
22.4895335
20
77.4416831
11
22.4895335
21
78.2353831
0
LINE
8
DEFAULT_255_2_778
10
23.2833335
20
78.4999831
11
23.2833335
21
79.2937831
0
LINE
8
DEFAULT_255_2_778
10
22.4895335
20
79.2937831
11
26.4583335
21
79.2937831
0
LINE
8
DEFAULT_255_2_778
10
26.4583335
20
79.2937831
11
26.4583335
21
78.4999831
0
LINE
8
DEFAULT_255_2_778
10
26.4583335
20
78.4999831
11
22.4895335
21
78.4999831
0
LINE
8
DEFAULT_255_2_778
10
22.4895335
20
78.4999831
11
22.4895335
21
79.2937831
0
LINE
8
DEFAULT_255_2_778
10
23.2833335
20
79.8228831
11
23.2833335
21
80.6166831
0
LINE
8
DEFAULT_255_2_778
10
22.4895335
20
80.6166831
11
26.4583335
21
80.6166831
0
LINE
8
DEFAULT_255_2_778
10
26.4583335
20
80.6166831
11
26.4583335
21
79.8228831
0
LINE
8
DEFAULT_255_2_778
10
26.4583335
20
79.8228831
11
22.4895335
21
79.8228831
0
LINE
8
DEFAULT_255_2_778
10
22.4895335
20
79.8228831
11
22.4895335
21
80.6166831
0
LINE
8
DEFAULT_255_2_778
10
18.7853335
20
82.7333831
11
26.4583335
21
82.7333831
0
LINE
8
DEFAULT_255_2_778
10
26.4583335
20
82.7333831
11
26.4583335
21
70.5624831
0
LINE
8
DEFAULT_255_2_778
10
26.4583335
20
70.5624831
11
18.7853335
21
70.5624831
0
LINE
8
DEFAULT_255_2_778
10
18.7853335
20
70.5624831
11
18.7853335
21
72.9437831
0
LINE
8
DEFAULT_255_2_778
10
18.7853335
20
72.9437831
11
17.4624335
21
72.9437831
0
LINE
8
DEFAULT_255_2_778
10
17.4624335
20
72.9437831
11
17.4624335
21
74.5312831
0
LINE
8
DEFAULT_255_2_778
10
17.4624335
20
74.5312831
11
15.6103335
21
74.5312831
0
LINE
8
DEFAULT_255_2_778
10
15.6103335
20
74.5312831
11
15.6103335
21
78.7645831
0
LINE
8
DEFAULT_255_2_778
10
15.6103335
20
78.7645831
11
17.4624335
21
78.7645831
0
LINE
8
DEFAULT_255_2_778
10
17.4624335
20
78.7645831
11
17.4624335
21
80.0874831
0
LINE
8
DEFAULT_255_2_778
10
17.4624335
20
80.0874831
11
18.7853335
21
80.0874831
0
LINE
8
DEFAULT_255_2_778
10
18.7853335
20
80.0874831
11
18.7853335
21
82.7333831
0
LINE
8
DEFAULT_255_2_778
10
15.3458335
20
85.1145831
11
28.0458335
21
85.1145831
0
LINE
8
DEFAULT_255_2_778
10
28.5749335
20
84.5853831
11
28.5749335
21
69.2395831
0
LINE
8
DEFAULT_255_2_778
10
28.0458335
20
68.7103831
11
15.3458335
21
68.7103831
0
LINE
8
DEFAULT_255_2_778
10
14.8166335
20
69.2395831
11
14.8166335
21
84.5853831
0
ARC
8
DEFAULT_255_2_778
10
15.3446449
20
65.2719717
40
0.5280127
50
89.8710178
51
180.1289822
0
ARC
8
DEFAULT_255_2_778
10
28.0469438
20
65.2719932
40
0.527991
50
359.8686797
51
90.1204794
0
ARC
8
DEFAULT_255_2_778
10
28.0469439
20
49.9237729
40
0.527991
50
269.8795076
51
0.1313257
0
ARC
8
DEFAULT_255_2_778
10
15.3446449
20
49.9237945
40
0.5280127
50
179.8710178
51
270.1289822
0
LINE
8
DEFAULT_255_2_778
10
16.4041335
20
51.2478831
11
18.5208335
21
51.2478831
0
LINE
8
DEFAULT_255_2_778
10
16.4041335
20
52.3062831
11
18.5208335
21
52.3062831
0
LINE
8
DEFAULT_255_2_778
10
16.4041335
20
53.3645831
11
18.5208335
21
53.3645831
0
LINE
8
DEFAULT_255_2_778
10
18.5208335
20
53.3645831
11
18.5208335
21
50.1895831
0
LINE
8
DEFAULT_255_2_778
10
18.5208335
20
50.1895831
11
16.4041335
21
50.1895831
0
LINE
8
DEFAULT_255_2_778
10
16.4041335
20
50.1895831
11
16.4041335
21
53.3645831
0
LINE
8
DEFAULT_255_2_778
10
16.4041335
20
62.0957831
11
18.5208335
21
62.0957831
0
LINE
8
DEFAULT_255_2_778
10
16.4041335
20
63.1541831
11
18.5208335
21
63.1541831
0
LINE
8
DEFAULT_255_2_778
10
16.4041335
20
64.2124831
11
18.5208335
21
64.2124831
0
LINE
8
DEFAULT_255_2_778
10
18.5208335
20
64.2124831
11
18.5208335
21
61.0374831
0
LINE
8
DEFAULT_255_2_778
10
18.5208335
20
61.0374831
11
16.4041335
21
61.0374831
0
LINE
8
DEFAULT_255_2_778
10
16.4041335
20
61.0374831
11
16.4041335
21
64.2124831
0
LINE
8
DEFAULT_255_2_778
10
22.2249335
20
52.3062831
11
24.3416335
21
52.3062831
0
LINE
8
DEFAULT_255_2_778
10
24.3416335
20
52.3062831
11
24.3416335
21
51.2478831
0
LINE
8
DEFAULT_255_2_778
10
24.3416335
20
51.2478831
11
22.2249335
21
51.2478831
0
LINE
8
DEFAULT_255_2_778
10
22.2249335
20
51.2478831
11
22.2249335
21
52.3062831
0
LINE
8
DEFAULT_255_2_778
10
21.6958335
20
63.4187831
11
23.8124335
21
63.4187831
0
LINE
8
DEFAULT_255_2_778
10
23.8124335
20
63.4187831
11
23.8124335
21
62.3603831
0
LINE
8
DEFAULT_255_2_778
10
23.8124335
20
62.3603831
11
21.6958335
21
62.3603831
0
LINE
8
DEFAULT_255_2_778
10
21.6958335
20
62.3603831
11
21.6958335
21
63.4187831
0
LINE
8
DEFAULT_255_2_778
10
17.4624335
20
59.7145831
11
18.7853335
21
59.7145831
0
LINE
8
DEFAULT_255_2_778
10
17.4624335
20
54.9520831
11
18.7853335
21
54.9520831
0
LINE
8
DEFAULT_255_2_778
10
18.7853335
20
54.1582831
11
18.7853335
21
60.5082831
0
LINE
8
DEFAULT_255_2_778
10
18.7853335
20
54.1582831
11
20.9020335
21
54.1582831
0
LINE
8
DEFAULT_255_2_778
10
20.9020335
20
54.1582831
11
20.9020335
21
51.2478831
0
LINE
8
DEFAULT_255_2_778
10
20.9020335
20
51.2478831
11
18.7853335
21
51.2478831
0
LINE
8
DEFAULT_255_2_778
10
18.7853335
20
51.2478831
11
18.7853335
21
54.1582831
0
LINE
8
DEFAULT_255_2_778
10
18.7853335
20
63.4187831
11
20.9020335
21
63.4187831
0
LINE
8
DEFAULT_255_2_778
10
20.9020335
20
63.4187831
11
20.9020335
21
60.5082831
0
LINE
8
DEFAULT_255_2_778
10
20.9020335
20
60.5082831
11
18.7853335
21
60.5082831
0
LINE
8
DEFAULT_255_2_778
10
18.7853335
20
60.5082831
11
18.7853335
21
63.4187831
0
LINE
8
DEFAULT_255_2_778
10
23.2833335
20
53.8937831
11
23.2833335
21
54.6874831
0
LINE
8
DEFAULT_255_2_778
10
22.4895335
20
54.6874831
11
26.4583335
21
54.6874831
0
LINE
8
DEFAULT_255_2_778
10
26.4583335
20
54.6874831
11
26.4583335
21
53.8937831
0
LINE
8
DEFAULT_255_2_778
10
26.4583335
20
53.8937831
11
22.4895335
21
53.8937831
0
LINE
8
DEFAULT_255_2_778
10
22.4895335
20
53.8937831
11
22.4895335
21
54.6874831
0
LINE
8
DEFAULT_255_2_778
10
23.2833335
20
54.9520831
11
23.2833335
21
55.7457831
0
LINE
8
DEFAULT_255_2_778
10
22.4895335
20
55.7457831
11
26.4583335
21
55.7457831
0
LINE
8
DEFAULT_255_2_778
10
26.4583335
20
55.7457831
11
26.4583335
21
54.9520831
0
LINE
8
DEFAULT_255_2_778
10
26.4583335
20
54.9520831
11
22.4895335
21
54.9520831
0
LINE
8
DEFAULT_255_2_778
10
22.4895335
20
54.9520831
11
22.4895335
21
55.7457831
0
LINE
8
DEFAULT_255_2_778
10
23.2833335
20
56.0103831
11
23.2833335
21
56.8041831
0
LINE
8
DEFAULT_255_2_778
10
22.4895335
20
56.8041831
11
26.4583335
21
56.8041831
0
LINE
8
DEFAULT_255_2_778
10
26.4583335
20
56.8041831
11
26.4583335
21
56.0103831
0
LINE
8
DEFAULT_255_2_778
10
26.4583335
20
56.0103831
11
22.4895335
21
56.0103831
0
LINE
8
DEFAULT_255_2_778
10
22.4895335
20
56.0103831
11
22.4895335
21
56.8041831
0
LINE
8
DEFAULT_255_2_778
10
23.2833335
20
57.0687831
11
23.2833335
21
57.8624831
0
LINE
8
DEFAULT_255_2_778
10
22.4895335
20
57.8624831
11
26.4583335
21
57.8624831
0
LINE
8
DEFAULT_255_2_778
10
26.4583335
20
57.8624831
11
26.4583335
21
57.0687831
0
LINE
8
DEFAULT_255_2_778
10
26.4583335
20
57.0687831
11
22.4895335
21
57.0687831
0
LINE
8
DEFAULT_255_2_778
10
22.4895335
20
57.0687831
11
22.4895335
21
57.8624831
0
LINE
8
DEFAULT_255_2_778
10
23.2833335
20
58.1270831
11
23.2833335
21
58.9207831
0
LINE
8
DEFAULT_255_2_778
10
22.4895335
20
58.9207831
11
26.4583335
21
58.9207831
0
LINE
8
DEFAULT_255_2_778
10
26.4583335
20
58.9207831
11
26.4583335
21
58.1270831
0
LINE
8
DEFAULT_255_2_778
10
26.4583335
20
58.1270831
11
22.4895335
21
58.1270831
0
LINE
8
DEFAULT_255_2_778
10
22.4895335
20
58.1270831
11
22.4895335
21
58.9207831
0
LINE
8
DEFAULT_255_2_778
10
23.2833335
20
59.1853831
11
23.2833335
21
59.9791831
0
LINE
8
DEFAULT_255_2_778
10
22.4895335
20
59.9791831
11
26.4583335
21
59.9791831
0
LINE
8
DEFAULT_255_2_778
10
26.4583335
20
59.9791831
11
26.4583335
21
59.1853831
0
LINE
8
DEFAULT_255_2_778
10
26.4583335
20
59.1853831
11
22.4895335
21
59.1853831
0
LINE
8
DEFAULT_255_2_778
10
22.4895335
20
59.1853831
11
22.4895335
21
59.9791831
0
LINE
8
DEFAULT_255_2_778
10
23.2833335
20
60.5082831
11
23.2833335
21
61.3020831
0
LINE
8
DEFAULT_255_2_778
10
22.4895335
20
61.3020831
11
26.4583335
21
61.3020831
0
LINE
8
DEFAULT_255_2_778
10
26.4583335
20
61.3020831
11
26.4583335
21
60.5082831
0
LINE
8
DEFAULT_255_2_778
10
26.4583335
20
60.5082831
11
22.4895335
21
60.5082831
0
LINE
8
DEFAULT_255_2_778
10
22.4895335
20
60.5082831
11
22.4895335
21
61.3020831
0
LINE
8
DEFAULT_255_2_778
10
18.7853335
20
63.4187831
11
26.4583335
21
63.4187831
0
LINE
8
DEFAULT_255_2_778
10
26.4583335
20
63.4187831
11
26.4583335
21
51.2478831
0
LINE
8
DEFAULT_255_2_778
10
26.4583335
20
51.2478831
11
18.7853335
21
51.2478831
0
LINE
8
DEFAULT_255_2_778
10
18.7853335
20
51.2478831
11
18.7853335
21
53.6291831
0
LINE
8
DEFAULT_255_2_778
10
18.7853335
20
53.6291831
11
17.4624335
21
53.6291831
0
LINE
8
DEFAULT_255_2_778
10
17.4624335
20
53.6291831
11
17.4624335
21
55.2166831
0
LINE
8
DEFAULT_255_2_778
10
17.4624335
20
55.2166831
11
15.6103335
21
55.2166831
0
LINE
8
DEFAULT_255_2_778
10
15.6103335
20
55.2166831
11
15.6103335
21
59.4499831
0
LINE
8
DEFAULT_255_2_778
10
15.6103335
20
59.4499831
11
17.4624335
21
59.4499831
0
LINE
8
DEFAULT_255_2_778
10
17.4624335
20
59.4499831
11
17.4624335
21
60.7728831
0
LINE
8
DEFAULT_255_2_778
10
17.4624335
20
60.7728831
11
18.7853335
21
60.7728831
0
LINE
8
DEFAULT_255_2_778
10
18.7853335
20
60.7728831
11
18.7853335
21
63.4187831
0
LINE
8
DEFAULT_255_2_778
10
15.3458335
20
65.7999831
11
28.0458335
21
65.7999831
0
LINE
8
DEFAULT_255_2_778
10
28.5749335
20
65.2707831
11
28.5749335
21
49.9249831
0
LINE
8
DEFAULT_255_2_778
10
28.0458335
20
49.3957831
11
15.3458335
21
49.3957831
0
LINE
8
DEFAULT_255_2_778
10
14.8166335
20
49.9249831
11
14.8166335
21
65.2707831
0
ARC
8
DEFAULT_255_2_778
10
15.3446449
20
46.2219717
40
0.5280127
50
89.8710178
51
180.1289822
0
ARC
8
DEFAULT_255_2_778
10
28.0469438
20
46.2219932
40
0.527991
50
359.8686797
51
90.1204794
0
ARC
8
DEFAULT_255_2_778
10
28.0469439
20
30.8737729
40
0.527991
50
269.8795076
51
0.1313257
0
ARC
8
DEFAULT_255_2_778
10
15.3446449
20
30.8737945
40
0.5280127
50
179.8710178
51
270.1289822
0
LINE
8
DEFAULT_255_2_778
10
16.4041335
20
32.1978831
11
18.5208335
21
32.1978831
0
LINE
8
DEFAULT_255_2_778
10
16.4041335
20
33.2562831
11
18.5208335
21
33.2562831
0
LINE
8
DEFAULT_255_2_778
10
16.4041335
20
34.3145831
11
18.5208335
21
34.3145831
0
LINE
8
DEFAULT_255_2_778
10
18.5208335
20
34.3145831
11
18.5208335
21
31.1395831
0
LINE
8
DEFAULT_255_2_778
10
18.5208335
20
31.1395831
11
16.4041335
21
31.1395831
0
LINE
8
DEFAULT_255_2_778
10
16.4041335
20
31.1395831
11
16.4041335
21
34.3145831
0
LINE
8
DEFAULT_255_2_778
10
16.4041335
20
43.0457831
11
18.5208335
21
43.0457831
0
LINE
8
DEFAULT_255_2_778
10
16.4041335
20
44.1041831
11
18.5208335
21
44.1041831
0
LINE
8
DEFAULT_255_2_778
10
16.4041335
20
45.1624831
11
18.5208335
21
45.1624831
0
LINE
8
DEFAULT_255_2_778
10
18.5208335
20
45.1624831
11
18.5208335
21
41.9874831
0
LINE
8
DEFAULT_255_2_778
10
18.5208335
20
41.9874831
11
16.4041335
21
41.9874831
0
LINE
8
DEFAULT_255_2_778
10
16.4041335
20
41.9874831
11
16.4041335
21
45.1624831
0
LINE
8
DEFAULT_255_2_778
10
22.2249335
20
33.2562831
11
24.3416335
21
33.2562831
0
LINE
8
DEFAULT_255_2_778
10
24.3416335
20
33.2562831
11
24.3416335
21
32.1978831
0
LINE
8
DEFAULT_255_2_778
10
24.3416335
20
32.1978831
11
22.2249335
21
32.1978831
0
LINE
8
DEFAULT_255_2_778
10
22.2249335
20
32.1978831
11
22.2249335
21
33.2562831
0
LINE
8
DEFAULT_255_2_778
10
21.6958335
20
44.3687831
11
23.8124335
21
44.3687831
0
LINE
8
DEFAULT_255_2_778
10
23.8124335
20
44.3687831
11
23.8124335
21
43.3103831
0
LINE
8
DEFAULT_255_2_778
10
23.8124335
20
43.3103831
11
21.6958335
21
43.3103831
0
LINE
8
DEFAULT_255_2_778
10
21.6958335
20
43.3103831
11
21.6958335
21
44.3687831
0
LINE
8
DEFAULT_255_2_778
10
17.4624335
20
40.6645831
11
18.7853335
21
40.6645831
0
LINE
8
DEFAULT_255_2_778
10
17.4624335
20
35.9020831
11
18.7853335
21
35.9020831
0
LINE
8
DEFAULT_255_2_778
10
18.7853335
20
35.1082831
11
18.7853335
21
41.4582831
0
LINE
8
DEFAULT_255_2_778
10
18.7853335
20
35.1082831
11
20.9020335
21
35.1082831
0
LINE
8
DEFAULT_255_2_778
10
20.9020335
20
35.1082831
11
20.9020335
21
32.1978831
0
LINE
8
DEFAULT_255_2_778
10
20.9020335
20
32.1978831
11
18.7853335
21
32.1978831
0
LINE
8
DEFAULT_255_2_778
10
18.7853335
20
32.1978831
11
18.7853335
21
35.1082831
0
LINE
8
DEFAULT_255_2_778
10
18.7853335
20
44.3687831
11
20.9020335
21
44.3687831
0
LINE
8
DEFAULT_255_2_778
10
20.9020335
20
44.3687831
11
20.9020335
21
41.4582831
0
LINE
8
DEFAULT_255_2_778
10
20.9020335
20
41.4582831
11
18.7853335
21
41.4582831
0
LINE
8
DEFAULT_255_2_778
10
18.7853335
20
41.4582831
11
18.7853335
21
44.3687831
0
LINE
8
DEFAULT_255_2_778
10
23.2833335
20
34.8437831
11
23.2833335
21
35.6374831
0
LINE
8
DEFAULT_255_2_778
10
22.4895335
20
35.6374831
11
26.4583335
21
35.6374831
0
LINE
8
DEFAULT_255_2_778
10
26.4583335
20
35.6374831
11
26.4583335
21
34.8437831
0
LINE
8
DEFAULT_255_2_778
10
26.4583335
20
34.8437831
11
22.4895335
21
34.8437831
0
LINE
8
DEFAULT_255_2_778
10
22.4895335
20
34.8437831
11
22.4895335
21
35.6374831
0
LINE
8
DEFAULT_255_2_778
10
23.2833335
20
35.9020831
11
23.2833335
21
36.6957831
0
LINE
8
DEFAULT_255_2_778
10
22.4895335
20
36.6957831
11
26.4583335
21
36.6957831
0
LINE
8
DEFAULT_255_2_778
10
26.4583335
20
36.6957831
11
26.4583335
21
35.9020831
0
LINE
8
DEFAULT_255_2_778
10
26.4583335
20
35.9020831
11
22.4895335
21
35.9020831
0
LINE
8
DEFAULT_255_2_778
10
22.4895335
20
35.9020831
11
22.4895335
21
36.6957831
0
LINE
8
DEFAULT_255_2_778
10
23.2833335
20
36.9603831
11
23.2833335
21
37.7541831
0
LINE
8
DEFAULT_255_2_778
10
22.4895335
20
37.7541831
11
26.4583335
21
37.7541831
0
LINE
8
DEFAULT_255_2_778
10
26.4583335
20
37.7541831
11
26.4583335
21
36.9603831
0
LINE
8
DEFAULT_255_2_778
10
26.4583335
20
36.9603831
11
22.4895335
21
36.9603831
0
LINE
8
DEFAULT_255_2_778
10
22.4895335
20
36.9603831
11
22.4895335
21
37.7541831
0
LINE
8
DEFAULT_255_2_778
10
23.2833335
20
38.0187831
11
23.2833335
21
38.8124831
0
LINE
8
DEFAULT_255_2_778
10
22.4895335
20
38.8124831
11
26.4583335
21
38.8124831
0
LINE
8
DEFAULT_255_2_778
10
26.4583335
20
38.8124831
11
26.4583335
21
38.0187831
0
LINE
8
DEFAULT_255_2_778
10
26.4583335
20
38.0187831
11
22.4895335
21
38.0187831
0
LINE
8
DEFAULT_255_2_778
10
22.4895335
20
38.0187831
11
22.4895335
21
38.8124831
0
LINE
8
DEFAULT_255_2_778
10
23.2833335
20
39.0770831
11
23.2833335
21
39.8707831
0
LINE
8
DEFAULT_255_2_778
10
22.4895335
20
39.8707831
11
26.4583335
21
39.8707831
0
LINE
8
DEFAULT_255_2_778
10
26.4583335
20
39.8707831
11
26.4583335
21
39.0770831
0
LINE
8
DEFAULT_255_2_778
10
26.4583335
20
39.0770831
11
22.4895335
21
39.0770831
0
LINE
8
DEFAULT_255_2_778
10
22.4895335
20
39.0770831
11
22.4895335
21
39.8707831
0
LINE
8
DEFAULT_255_2_778
10
23.2833335
20
40.1353831
11
23.2833335
21
40.9291831
0
LINE
8
DEFAULT_255_2_778
10
22.4895335
20
40.9291831
11
26.4583335
21
40.9291831
0
LINE
8
DEFAULT_255_2_778
10
26.4583335
20
40.9291831
11
26.4583335
21
40.1353831
0
LINE
8
DEFAULT_255_2_778
10
26.4583335
20
40.1353831
11
22.4895335
21
40.1353831
0
LINE
8
DEFAULT_255_2_778
10
22.4895335
20
40.1353831
11
22.4895335
21
40.9291831
0
LINE
8
DEFAULT_255_2_778
10
23.2833335
20
41.4582831
11
23.2833335
21
42.2520831
0
LINE
8
DEFAULT_255_2_778
10
22.4895335
20
42.2520831
11
26.4583335
21
42.2520831
0
LINE
8
DEFAULT_255_2_778
10
26.4583335
20
42.2520831
11
26.4583335
21
41.4582831
0
LINE
8
DEFAULT_255_2_778
10
26.4583335
20
41.4582831
11
22.4895335
21
41.4582831
0
LINE
8
DEFAULT_255_2_778
10
22.4895335
20
41.4582831
11
22.4895335
21
42.2520831
0
LINE
8
DEFAULT_255_2_778
10
18.7853335
20
44.3687831
11
26.4583335
21
44.3687831
0
LINE
8
DEFAULT_255_2_778
10
26.4583335
20
44.3687831
11
26.4583335
21
32.1978831
0
LINE
8
DEFAULT_255_2_778
10
26.4583335
20
32.1978831
11
18.7853335
21
32.1978831
0
LINE
8
DEFAULT_255_2_778
10
18.7853335
20
32.1978831
11
18.7853335
21
34.5791831
0
LINE
8
DEFAULT_255_2_778
10
18.7853335
20
34.5791831
11
17.4624335
21
34.5791831
0
LINE
8
DEFAULT_255_2_778
10
17.4624335
20
34.5791831
11
17.4624335
21
36.1666831
0
LINE
8
DEFAULT_255_2_778
10
17.4624335
20
36.1666831
11
15.6103335
21
36.1666831
0
LINE
8
DEFAULT_255_2_778
10
15.6103335
20
36.1666831
11
15.6103335
21
40.3999831
0
LINE
8
DEFAULT_255_2_778
10
15.6103335
20
40.3999831
11
17.4624335
21
40.3999831
0
LINE
8
DEFAULT_255_2_778
10
17.4624335
20
40.3999831
11
17.4624335
21
41.7228831
0
LINE
8
DEFAULT_255_2_778
10
17.4624335
20
41.7228831
11
18.7853335
21
41.7228831
0
LINE
8
DEFAULT_255_2_778
10
18.7853335
20
41.7228831
11
18.7853335
21
44.3687831
0
LINE
8
DEFAULT_255_2_778
10
15.3458335
20
46.7499831
11
28.0458335
21
46.7499831
0
LINE
8
DEFAULT_255_2_778
10
28.5749335
20
46.2207831
11
28.5749335
21
30.8749831
0
LINE
8
DEFAULT_255_2_778
10
28.0458335
20
30.3457831
11
15.3458335
21
30.3457831
0
LINE
8
DEFAULT_255_2_778
10
14.8166335
20
30.8749831
11
14.8166335
21
46.2207831
0
ARC
8
DEFAULT_255_2_778
10
15.3446449
20
26.9073717
40
0.5280127
50
89.8710178
51
180.1289822
0
ARC
8
DEFAULT_255_2_778
10
28.0469438
20
26.9073932
40
0.527991
50
359.8686797
51
90.1204794
0
ARC
8
DEFAULT_255_2_778
10
28.0469439
20
11.5591729
40
0.527991
50
269.8795076
51
0.1313257
0
ARC
8
DEFAULT_255_2_778
10
15.3446449
20
11.5591945
40
0.5280127
50
179.8710178
51
270.1289822
0
LINE
8
DEFAULT_255_2_778
10
16.4041335
20
12.8832831
11
18.5208335
21
12.8832831
0
LINE
8
DEFAULT_255_2_778
10
16.4041335
20
13.9416831
11
18.5208335
21
13.9416831
0
LINE
8
DEFAULT_255_2_778
10
16.4041335
20
14.9999831
11
18.5208335
21
14.9999831
0
LINE
8
DEFAULT_255_2_778
10
18.5208335
20
14.9999831
11
18.5208335
21
11.8249831
0
LINE
8
DEFAULT_255_2_778
10
18.5208335
20
11.8249831
11
16.4041335
21
11.8249831
0
LINE
8
DEFAULT_255_2_778
10
16.4041335
20
11.8249831
11
16.4041335
21
14.9999831
0
LINE
8
DEFAULT_255_2_778
10
16.4041335
20
23.7311831
11
18.5208335
21
23.7311831
0
LINE
8
DEFAULT_255_2_778
10
16.4041335
20
24.7895831
11
18.5208335
21
24.7895831
0
LINE
8
DEFAULT_255_2_778
10
16.4041335
20
25.8478831
11
18.5208335
21
25.8478831
0
LINE
8
DEFAULT_255_2_778
10
18.5208335
20
25.8478831
11
18.5208335
21
22.6728831
0
LINE
8
DEFAULT_255_2_778
10
18.5208335
20
22.6728831
11
16.4041335
21
22.6728831
0
LINE
8
DEFAULT_255_2_778
10
16.4041335
20
22.6728831
11
16.4041335
21
25.8478831
0
LINE
8
DEFAULT_255_2_778
10
22.2249335
20
13.9416831
11
24.3416335
21
13.9416831
0
LINE
8
DEFAULT_255_2_778
10
24.3416335
20
13.9416831
11
24.3416335
21
12.8832831
0
LINE
8
DEFAULT_255_2_778
10
24.3416335
20
12.8832831
11
22.2249335
21
12.8832831
0
LINE
8
DEFAULT_255_2_778
10
22.2249335
20
12.8832831
11
22.2249335
21
13.9416831
0
LINE
8
DEFAULT_255_2_778
10
21.6958335
20
25.0541831
11
23.8124335
21
25.0541831
0
LINE
8
DEFAULT_255_2_778
10
23.8124335
20
25.0541831
11
23.8124335
21
23.9957831
0
LINE
8
DEFAULT_255_2_778
10
23.8124335
20
23.9957831
11
21.6958335
21
23.9957831
0
LINE
8
DEFAULT_255_2_778
10
21.6958335
20
23.9957831
11
21.6958335
21
25.0541831
0
LINE
8
DEFAULT_255_2_778
10
17.4624335
20
21.3499831
11
18.7853335
21
21.3499831
0
LINE
8
DEFAULT_255_2_778
10
17.4624335
20
16.5874831
11
18.7853335
21
16.5874831
0
LINE
8
DEFAULT_255_2_778
10
18.7853335
20
15.7936831
11
18.7853335
21
22.1436831
0
LINE
8
DEFAULT_255_2_778
10
18.7853335
20
15.7936831
11
20.9020335
21
15.7936831
0
LINE
8
DEFAULT_255_2_778
10
20.9020335
20
15.7936831
11
20.9020335
21
12.8832831
0
LINE
8
DEFAULT_255_2_778
10
20.9020335
20
12.8832831
11
18.7853335
21
12.8832831
0
LINE
8
DEFAULT_255_2_778
10
18.7853335
20
12.8832831
11
18.7853335
21
15.7936831
0
LINE
8
DEFAULT_255_2_778
10
18.7853335
20
25.0541831
11
20.9020335
21
25.0541831
0
LINE
8
DEFAULT_255_2_778
10
20.9020335
20
25.0541831
11
20.9020335
21
22.1436831
0
LINE
8
DEFAULT_255_2_778
10
20.9020335
20
22.1436831
11
18.7853335
21
22.1436831
0
LINE
8
DEFAULT_255_2_778
10
18.7853335
20
22.1436831
11
18.7853335
21
25.0541831
0
LINE
8
DEFAULT_255_2_778
10
23.2833335
20
15.5291831
11
23.2833335
21
16.3228831
0
LINE
8
DEFAULT_255_2_778
10
22.4895335
20
16.3228831
11
26.4583335
21
16.3228831
0
LINE
8
DEFAULT_255_2_778
10
26.4583335
20
16.3228831
11
26.4583335
21
15.5291831
0
LINE
8
DEFAULT_255_2_778
10
26.4583335
20
15.5291831
11
22.4895335
21
15.5291831
0
LINE
8
DEFAULT_255_2_778
10
22.4895335
20
15.5291831
11
22.4895335
21
16.3228831
0
LINE
8
DEFAULT_255_2_778
10
23.2833335
20
16.5874831
11
23.2833335
21
17.3811831
0
LINE
8
DEFAULT_255_2_778
10
22.4895335
20
17.3811831
11
26.4583335
21
17.3811831
0
LINE
8
DEFAULT_255_2_778
10
26.4583335
20
17.3811831
11
26.4583335
21
16.5874831
0
LINE
8
DEFAULT_255_2_778
10
26.4583335
20
16.5874831
11
22.4895335
21
16.5874831
0
LINE
8
DEFAULT_255_2_778
10
22.4895335
20
16.5874831
11
22.4895335
21
17.3811831
0
LINE
8
DEFAULT_255_2_778
10
23.2833335
20
17.6457831
11
23.2833335
21
18.4395831
0
LINE
8
DEFAULT_255_2_778
10
22.4895335
20
18.4395831
11
26.4583335
21
18.4395831
0
LINE
8
DEFAULT_255_2_778
10
26.4583335
20
18.4395831
11
26.4583335
21
17.6457831
0
LINE
8
DEFAULT_255_2_778
10
26.4583335
20
17.6457831
11
22.4895335
21
17.6457831
0
LINE
8
DEFAULT_255_2_778
10
22.4895335
20
17.6457831
11
22.4895335
21
18.4395831
0
LINE
8
DEFAULT_255_2_778
10
23.2833335
20
18.7041831
11
23.2833335
21
19.4978831
0
LINE
8
DEFAULT_255_2_778
10
22.4895335
20
19.4978831
11
26.4583335
21
19.4978831
0
LINE
8
DEFAULT_255_2_778
10
26.4583335
20
19.4978831
11
26.4583335
21
18.7041831
0
LINE
8
DEFAULT_255_2_778
10
26.4583335
20
18.7041831
11
22.4895335
21
18.7041831
0
LINE
8
DEFAULT_255_2_778
10
22.4895335
20
18.7041831
11
22.4895335
21
19.4978831
0
LINE
8
DEFAULT_255_2_778
10
23.2833335
20
19.7624831
11
23.2833335
21
20.5561831
0
LINE
8
DEFAULT_255_2_778
10
22.4895335
20
20.5561831
11
26.4583335
21
20.5561831
0
LINE
8
DEFAULT_255_2_778
10
26.4583335
20
20.5561831
11
26.4583335
21
19.7624831
0
LINE
8
DEFAULT_255_2_778
10
26.4583335
20
19.7624831
11
22.4895335
21
19.7624831
0
LINE
8
DEFAULT_255_2_778
10
22.4895335
20
19.7624831
11
22.4895335
21
20.5561831
0
LINE
8
DEFAULT_255_2_778
10
23.2833335
20
20.8207831
11
23.2833335
21
21.6145831
0
LINE
8
DEFAULT_255_2_778
10
22.4895335
20
21.6145831
11
26.4583335
21
21.6145831
0
LINE
8
DEFAULT_255_2_778
10
26.4583335
20
21.6145831
11
26.4583335
21
20.8207831
0
LINE
8
DEFAULT_255_2_778
10
26.4583335
20
20.8207831
11
22.4895335
21
20.8207831
0
LINE
8
DEFAULT_255_2_778
10
22.4895335
20
20.8207831
11
22.4895335
21
21.6145831
0
LINE
8
DEFAULT_255_2_778
10
23.2833335
20
22.1436831
11
23.2833335
21
22.9374831
0
LINE
8
DEFAULT_255_2_778
10
22.4895335
20
22.9374831
11
26.4583335
21
22.9374831
0
LINE
8
DEFAULT_255_2_778
10
26.4583335
20
22.9374831
11
26.4583335
21
22.1436831
0
LINE
8
DEFAULT_255_2_778
10
26.4583335
20
22.1436831
11
22.4895335
21
22.1436831
0
LINE
8
DEFAULT_255_2_778
10
22.4895335
20
22.1436831
11
22.4895335
21
22.9374831
0
LINE
8
DEFAULT_255_2_778
10
18.7853335
20
25.0541831
11
26.4583335
21
25.0541831
0
LINE
8
DEFAULT_255_2_778
10
26.4583335
20
25.0541831
11
26.4583335
21
12.8832831
0
LINE
8
DEFAULT_255_2_778
10
26.4583335
20
12.8832831
11
18.7853335
21
12.8832831
0
LINE
8
DEFAULT_255_2_778
10
18.7853335
20
12.8832831
11
18.7853335
21
15.2645831
0
LINE
8
DEFAULT_255_2_778
10
18.7853335
20
15.2645831
11
17.4624335
21
15.2645831
0
LINE
8
DEFAULT_255_2_778
10
17.4624335
20
15.2645831
11
17.4624335
21
16.8520831
0
LINE
8
DEFAULT_255_2_778
10
17.4624335
20
16.8520831
11
15.6103335
21
16.8520831
0
LINE
8
DEFAULT_255_2_778
10
15.6103335
20
16.8520831
11
15.6103335
21
21.0853831
0
LINE
8
DEFAULT_255_2_778
10
15.6103335
20
21.0853831
11
17.4624335
21
21.0853831
0
LINE
8
DEFAULT_255_2_778
10
17.4624335
20
21.0853831
11
17.4624335
21
22.4082831
0
LINE
8
DEFAULT_255_2_778
10
17.4624335
20
22.4082831
11
18.7853335
21
22.4082831
0
LINE
8
DEFAULT_255_2_778
10
18.7853335
20
22.4082831
11
18.7853335
21
25.0541831
0
LINE
8
DEFAULT_255_2_778
10
15.3458335
20
27.4353831
11
28.0458335
21
27.4353831
0
LINE
8
DEFAULT_255_2_778
10
28.5749335
20
26.9061831
11
28.5749335
21
11.5603831
0
LINE
8
DEFAULT_255_2_778
10
28.0458335
20
11.0311831
11
15.3458335
21
11.0311831
0
LINE
8
DEFAULT_255_2_778
10
14.8166335
20
11.5603831
11
14.8166335
21
26.9061831
0
ARC
8
DEFAULT_255_2_778
10
8.2017692
20
28.8939467
40
1.719493
50
154.0298359
51
180.1105751
0
ARC
8
DEFAULT_255_2_778
10
8.1979036
20
28.8944806
40
1.7157844
50
99.3530846
51
153.9893384
0
ARC
8
DEFAULT_255_2_778
10
8.2013233
20
28.864923
40
1.7455055
50
89.9751782
51
99.3061631
0
ARC
8
DEFAULT_255_2_778
10
8.2053979
20
28.8909384
40
1.719493
50
64.0298359
51
90.1105751
0
ARC
8
DEFAULT_255_2_778
10
8.2059318
20
28.8948041
40
1.7157844
50
9.3530846
51
63.9893384
0
ARC
8
DEFAULT_255_2_778
10
8.1763742
20
28.8913844
40
1.7455055
50
359.9751782
51
9.3061631
0
ARC
8
DEFAULT_255_2_778
10
8.2024963
20
28.8873287
40
1.7193863
50
334.0290205
51
0.10995
0
ARC
8
DEFAULT_255_2_778
10
8.2061733
20
28.8868558
40
1.715874
50
279.3553656
51
333.9894492
0
ARC
8
DEFAULT_255_2_778
10
8.2028369
20
28.9161231
40
1.745295
50
269.9751337
51
279.3072535
0
ARC
8
DEFAULT_255_2_778
10
8.1987697
20
28.890201
40
1.719376
50
244.0276135
51
270.110293
0
ARC
8
DEFAULT_255_2_778
10
8.1983334
20
28.8865476
40
1.715901
50
189.3548347
51
243.9872838
0
ARC
8
DEFAULT_255_2_778
10
8.2275184
20
28.8898749
40
1.7452393
50
179.9752679
51
189.306874
0
ARC
8
DEFAULT_255_2_778
10
8.1953661
20
28.8929227
40
1.4484884
50
149.4921224
51
180.0907592
0
ARC
8
DEFAULT_255_2_778
10
8.2022955
20
28.8901711
40
1.4558559
50
97.7851456
51
149.5372691
0
ARC
8
DEFAULT_255_2_778
10
8.2016849
20
28.8773758
40
1.4684523
50
89.9846053
51
97.6939119
0
ARC
8
DEFAULT_255_2_778
10
8.2043739
20
28.8973416
40
1.4484884
50
59.4921224
51
90.0907592
0
ARC
8
DEFAULT_255_2_778
10
8.2016223
20
28.8904121
40
1.4558559
50
7.7851456
51
59.5372691
0
ARC
8
DEFAULT_255_2_778
10
8.1888271
20
28.8910228
40
1.4684523
50
359.9846053
51
7.6939119
0
ARC
8
DEFAULT_255_2_778
10
8.2087928
20
28.8883338
40
1.4484884
50
329.4921224
51
0.0907592
0
ARC
8
DEFAULT_255_2_778
10
8.2018633
20
28.8910853
40
1.4558559
50
277.7851456
51
329.5372691
0
ARC
8
DEFAULT_255_2_778
10
8.202474
20
28.9038806
40
1.4684523
50
269.9846053
51
277.6939119
0
ARC
8
DEFAULT_255_2_778
10
8.199785
20
28.8839148
40
1.4484884
50
239.4921224
51
270.0907592
0
ARC
8
DEFAULT_255_2_778
10
8.2025365
20
28.8908443
40
1.4558559
50
187.7851456
51
239.5372691
0
ARC
8
DEFAULT_255_2_778
10
8.2153318
20
28.8902337
40
1.4684523
50
179.9846053
51
187.6939119
0
ARC
8
DEFAULT_255_2_778
10
23.8730463
20
91.9306423
40
2.5740686
50
159.3887274
51
180.0670903
0
ARC
8
DEFAULT_255_2_778
10
23.8811078
20
91.9243685
40
2.5838244
50
100.7585333
51
159.3214405
0
ARC
8
DEFAULT_255_2_778
10
23.8774776
20
91.9133967
40
2.5939319
50
89.9734531
51
100.6345175
0
ARC
8
DEFAULT_255_2_778
10
23.881694
20
91.9335074
40
2.5738226
50
69.3869857
51
90.0671076
0
ARC
8
DEFAULT_255_2_778
10
23.8752823
20
91.9251966
40
2.5838604
50
10.7578444
51
69.3187906
0
ARC
8
DEFAULT_255_2_778
10
23.8643953
20
91.9288276
40
2.5938843
50
359.973507
51
10.6341624
0
ARC
8
DEFAULT_255_2_778
10
23.8841836
20
91.9246168
40
2.5740977
50
339.388909
51
0.0670308
0
ARC
8
DEFAULT_255_2_778
10
23.876162
20
91.9308559
40
2.5838039
50
280.7599378
51
339.3220289
0
ARC
8
DEFAULT_255_2_778
10
23.8798795
20
91.9415494
40
2.5936215
50
269.9734903
51
280.6351558
0
ARC
8
DEFAULT_255_2_778
10
23.8756584
20
91.9220073
40
2.5740808
50
249.3880315
51
270.0672441
0
ARC
8
DEFAULT_255_2_778
10
23.8819561
20
91.9300643
40
2.5838409
50
190.7580275
51
249.320218
0
ARC
8
DEFAULT_255_2_778
10
23.8928406
20
91.9264278
40
2.5938614
50
179.9734831
51
190.6342334
0
LINE
8
DEFAULT_255_2_778
10
6.4822794
20
28.8906282
11
6.4822794
21
28.8906282
0
LINE
8
DEFAULT_255_2_778
10
6.7468794
20
28.8906282
11
6.7468794
21
28.8906282
0
LINE
8
DEFAULT_255_2_778
10
23.4949794
20
93.7136282
11
23.4949794
21
90.8561282
0
LINE
8
DEFAULT_255_2_778
10
23.4949794
20
90.8561282
11
23.0187794
21
90.8561282
0
LINE
8
DEFAULT_255_2_778
10
23.0187794
20
90.8561282
11
23.8124794
21
90.1417282
0
LINE
8
DEFAULT_255_2_778
10
23.8124794
20
90.1417282
11
24.6062794
21
90.8561282
0
LINE
8
DEFAULT_255_2_778
10
24.6062794
20
90.8561282
11
24.1299794
21
90.8561282
0
LINE
8
DEFAULT_255_2_778
10
24.1299794
20
90.8561282
11
24.1299794
21
93.7136282
0
LINE
8
DEFAULT_255_2_778
10
24.1299794
20
93.7136282
11
23.4949794
21
93.7136282
0
LINE
8
DEFAULT_255_2_778
10
21.2989794
20
91.9276282
11
21.2989794
21
91.9276282
0
ENDSEC
0
EOF