0
SECTION
2
HEADER
9
$MEASUREMENT
70
1
0
ENDSEC
0
SECTION
2
TABLES
0
TABLE
2
LTYPE
0
LTYPE
72
65
70
64
2
CONTINUOUS
3
______
73
0
40
0
0
ENDTAB
0
TABLE
2
LAYER
0
LAYER
2
DEFAULT_255_2_778
70
0
62
255
6
CONTINUOUS
0
LAYER
2
DEFAULT_255_2_778_1
70
0
62
255
6
CONTINUOUS
0
LAYER
2
DEFAULT_255_1_234
70
0
62
255
6
CONTINUOUS
0
ENDTAB
0
ENDSEC
0
SECTION
2
ENTITIES
0
ARC
8
DEFAULT_255_2_778
10
3.5700693
20
171.0552017
40
0.7914215
50
129.1312896
51
180.1450914
0
ARC
8
DEFAULT_255_2_778
10
3.5703345
20
171.0556888
40
0.7912112
50
89.854026
51
129.1684493
0
ARC
8
DEFAULT_255_2_778
10
25.7993937
20
171.0553754
40
0.7915249
50
39.4792447
51
90.147911
0
ARC
8
DEFAULT_255_2_778
10
25.7999935
20
171.055222
40
0.7911595
50
359.8533901
51
39.5154338
0
ARC
8
DEFAULT_255_2_778
10
25.7996693
20
-1.9863506
40
0.7914836
50
309.4761667
51
0.1482649
0
ARC
8
DEFAULT_255_2_778
10
25.799398
20
-1.9867816
40
0.7913235
50
269.8517415
51
309.511178
0
ARC
8
DEFAULT_255_2_778
10
3.570342
20
-1.9867235
40
0.7913815
50
219.1282118
51
270.1454017
0
ARC
8
DEFAULT_255_2_778
10
3.5700247
20
-1.986341
40
0.7913769
50
179.8524075
51
219.1641908
0
LINE
8
DEFAULT_255_2_778
10
3.5723503
20
171.8468976
11
25.7973503
21
171.8468976
0
LINE
8
DEFAULT_255_2_778
10
26.5911503
20
171.0531976
11
26.5911503
21
-1.9843024
0
LINE
8
DEFAULT_255_2_778
10
25.7973503
20
-2.7781024
11
3.5723503
21
-2.7781024
0
LINE
8
DEFAULT_255_2_778
10
2.7786503
20
-1.9843024
11
2.7786503
21
171.0531976
0
ARC
8
DEFAULT_255_2_778
10
13.2665348
20
169.3538041
40
0.3813723
50
156.9728279
51
180.9672924
0
ARC
8
DEFAULT_255_2_778
10
13.1265905
20
169.4164556
40
0.2280903
50
120.6143155
51
157.7057572
0
ARC
8
DEFAULT_255_2_778
10
13.084685
20
169.4783889
40
0.1535155
50
105.6024085
51
118.9253865
0
ARC
8
DEFAULT_255_2_778
10
13.0778051
20
169.503158
40
0.1278087
50
90.2188612
51
105.6183161
0
ARC
8
DEFAULT_255_2_778
10
13.0801564
20
169.3360412
40
0.2949385
50
82.1187511
51
90.5516271
0
ARC
8
DEFAULT_255_2_778
10
13.1085429
20
169.5007036
40
0.128059
50
23.164146
51
84.5981403
0
ARC
8
DEFAULT_255_2_778
10
12.9810078
20
169.4489267
40
0.2656921
50
1.2065942
51
22.6109196
0
ARC
8
DEFAULT_255_2_778
10
12.7683205
20
169.4310377
40
0.4788966
50
359.9555286
51
2.8107684
0
ARC
8
DEFAULT_255_2_778
10
13.1417764
20
169.4196207
40
0.6523641
50
359.5121336
51
18.1513483
0
ARC
8
DEFAULT_255_2_778
10
13.2928291
20
169.4706245
40
0.4929411
50
17.987628
51
47.7515239
0
ARC
8
DEFAULT_255_2_778
10
13.3269537
20
169.5023389
40
0.4465388
50
48.2567149
51
90.320171
0
ARC
8
DEFAULT_255_2_778
10
13.3253541
20
169.4542874
40
0.4945841
50
90.103751
51
104.0317339
0
ARC
8
DEFAULT_255_2_778
10
13.3321581
20
169.4229342
40
0.5266526
50
103.9228462
51
106.737064
0
ARC
8
DEFAULT_255_2_778
10
13.3465928
20
169.3802316
40
0.5717052
50
106.8899656
51
120.2615348
0
ARC
8
DEFAULT_255_2_778
10
13.3956581
20
169.2957122
40
0.6694339
50
120.2432243
51
131.2854864
0
ARC
8
DEFAULT_255_2_778
10
13.446536
20
169.234952
40
0.7486631
50
131.143212
51
134.0802792
0
ARC
8
DEFAULT_255_2_778
10
15.9324404
20
168.2619131
40
0.1197666
50
309.5218924
51
339.9060311
0
ARC
8
DEFAULT_255_2_778
10
15.9654085
20
168.2244254
40
0.0698871
50
287.710739
51
308.230668
0
ARC
8
DEFAULT_255_2_778
10
15.9707212
20
168.2087982
40
0.0533853
50
270.2503717
51
287.3813074
0
ARC
8
DEFAULT_255_2_778
10
15.9733783
20
168.2096536
40
0.0542942
50
194.7346052
51
267.4414086
0
ARC
8
DEFAULT_255_2_778
10
16.0218123
20
168.232672
40
0.107451
50
190.9475811
51
200.0439116
0
ARC
8
DEFAULT_255_2_778
10
15.6556035
20
168.2197621
40
0.2608211
50
358.353068
51
64.1268931
0
ARC
8
DEFAULT_255_2_778
10
15.6864058
20
168.2654249
40
0.206441
50
66.2890109
51
89.9969258
0
ARC
8
DEFAULT_255_2_778
10
15.6997115
20
168.2301645
40
0.2420668
50
93.1483498
51
177.0819403
0
ARC
8
DEFAULT_255_2_778
10
15.7521424
20
168.2123292
40
0.2957256
50
174.1467469
51
180.0122521
0
ARC
8
DEFAULT_255_2_778
10
15.7517349
20
168.215793
40
0.2953391
50
180.6842551
51
197.2976119
0
ARC
8
DEFAULT_255_2_778
10
15.8042344
20
168.2319135
40
0.3502574
50
197.2618666
51
237.3003567
0
ARC
8
DEFAULT_255_2_778
10
15.8189152
20
168.260555
40
0.3823034
50
237.7678185
51
267.0989043
0
ARC
8
DEFAULT_255_2_778
10
15.8291437
20
168.345885
40
0.468079
50
266.3770992
51
270.0209723
0
ARC
8
DEFAULT_255_2_778
10
15.8291985
20
168.3761308
40
0.4983248
50
270.0133909
51
272.716577
0
ARC
8
DEFAULT_255_2_778
10
15.8373148
20
168.2615424
40
0.3834899
50
272.3167324
51
299.1303886
0
ARC
8
DEFAULT_255_2_778
10
15.7849049
20
168.3350329
40
0.4733038
50
300.3417229
51
327.7658215
0
ARC
8
DEFAULT_255_2_778
10
15.6021676
20
168.4635134
40
0.6964958
50
326.843622
51
335.4998036
0
ARC
8
DEFAULT_255_2_778
10
15.5129976
20
168.5057766
40
0.7951648
50
335.3932154
51
340.0324022
0
ARC
8
DEFAULT_255_2_778
10
15.4985312
20
168.5113094
40
0.8106509
50
340.0140149
51
340.5492811
0
ARC
8
DEFAULT_255_2_778
10
11.4227214
20
169.2094581
40
0.768197
50
90.8730151
51
175.0627552
0
ARC
8
DEFAULT_255_2_778
10
11.4751126
20
169.1930058
40
0.8218958
50
174.2343992
51
180.0097514
0
ARC
8
DEFAULT_255_2_778
10
11.4504867
20
169.1897729
40
0.7972759
50
179.7777162
51
222.1414196
0
ARC
8
DEFAULT_255_2_778
10
11.4126509
20
169.151835
40
0.7437709
50
221.9300285
51
269.8741254
0
ARC
8
DEFAULT_255_2_778
10
11.3991549
20
169.1762244
40
0.7682501
50
270.8846918
51
355.0667038
0
ARC
8
DEFAULT_255_2_778
10
11.3467873
20
169.1927267
40
0.8219296
50
354.2345114
51
0.0097094
0
ARC
8
DEFAULT_255_2_778
10
11.3715678
20
169.1959703
40
0.7971551
50
359.7768758
51
42.1436072
0
ARC
8
DEFAULT_255_2_778
10
11.4093782
20
169.2338788
40
0.7436889
50
41.9327014
51
89.8737509
0
ARC
8
DEFAULT_255_2_778
10
11.3934112
20
168.8166045
40
0.2064136
50
282.3154686
51
2.5716381
0
ARC
8
DEFAULT_255_2_778
10
11.411058
20
168.7815913
40
0.1687253
50
269.98603
51
278.995025
0
ARC
8
DEFAULT_255_2_778
10
11.4232107
20
168.8130042
40
0.2005094
50
178.6786273
51
266.5134562
0
ARC
8
DEFAULT_255_2_778
10
11.4689017
20
168.8258655
40
0.2462849
50
179.9999044
51
181.9167359
0
ARC
8
DEFAULT_255_2_778
10
11.4288954
20
169.5691548
40
0.2064787
50
103.0315545
51
182.5228891
0
ARC
8
DEFAULT_255_2_778
10
11.4109718
20
169.6042048
40
0.1685611
50
89.9846994
51
99.7807169
0
ARC
8
DEFAULT_255_2_778
10
11.3986616
20
169.5722176
40
0.2009286
50
358.490526
51
86.4746259
0
ARC
8
DEFAULT_255_2_778
10
11.3554639
20
169.5600644
40
0.244153
50
0.0003602
51
1.6101146
0
ARC
8
DEFAULT_255_2_778
10
14.4384085
20
169.1923122
40
1.0339085
50
353.7729731
51
0.0306848
0
ARC
8
DEFAULT_255_2_778
10
14.6751678
20
169.1959703
40
0.7971551
50
359.7768758
51
42.1436072
0
ARC
8
DEFAULT_255_2_778
10
14.7129782
20
169.2338788
40
0.7436889
50
41.9327014
51
89.8737509
0
ARC
8
DEFAULT_255_2_778
10
14.7263214
20
169.2094581
40
0.768197
50
90.8730151
51
175.0627552
0
ARC
8
DEFAULT_255_2_778
10
14.7787126
20
169.1930058
40
0.8218958
50
174.2343992
51
180.0097514
0
ARC
8
DEFAULT_255_2_778
10
14.7540867
20
169.1897729
40
0.7972759
50
179.7777162
51
222.1414196
0
ARC
8
DEFAULT_255_2_778
10
14.7162509
20
169.151835
40
0.7437709
50
221.9300285
51
269.8741254
0
ARC
8
DEFAULT_255_2_778
10
14.7094775
20
169.1618375
40
0.753789
50
270.3906469
51
332.9011285
0
ARC
8
DEFAULT_255_2_778
10
14.7118073
20
169.1733988
40
0.5766383
50
270.2493497
51
330.3649047
0
ARC
8
DEFAULT_255_2_778
10
14.7353266
20
168.8017117
40
0.2060198
50
188.4673322
51
264.146848
0
ARC
8
DEFAULT_255_2_778
10
14.7785452
20
168.8258502
40
0.2529285
50
180.0643852
51
192.4374066
0
ARC
8
DEFAULT_255_2_778
10
14.732052
20
169.5693297
40
0.2060435
50
102.2220352
51
182.5768883
0
ARC
8
DEFAULT_255_2_778
10
14.7147765
20
169.6035306
40
0.1692354
50
89.9863487
51
98.9553742
0
ARC
8
DEFAULT_255_2_778
10
14.7025627
20
169.5724487
40
0.2006917
50
358.1298546
51
86.4993767
0
ARC
8
DEFAULT_255_2_778
10
14.6566604
20
169.5600582
40
0.2465564
50
0.0018041
51
1.3574921
0
ARC
8
DEFAULT_255_2_778
10
19.5010085
20
169.1923122
40
1.0339085
50
353.7729731
51
0.0306848
0
ARC
8
DEFAULT_255_2_778
10
19.7378127
20
169.1959756
40
0.7971102
50
359.7764759
51
42.1460177
0
ARC
8
DEFAULT_255_2_778
10
19.7755101
20
169.2337511
40
0.7438166
50
41.9370909
51
89.8762358
0
ARC
8
DEFAULT_255_2_778
10
19.7888214
20
169.2094581
40
0.768197
50
90.8730151
51
175.0627552
0
ARC
8
DEFAULT_255_2_778
10
19.8412126
20
169.1930058
40
0.8218958
50
174.2343992
51
180.0097514
0
ARC
8
DEFAULT_255_2_778
10
19.8165867
20
169.1897729
40
0.7972759
50
179.7777162
51
222.1414196
0
ARC
8
DEFAULT_255_2_778
10
19.7787509
20
169.151835
40
0.7437709
50
221.9300285
51
269.8741254
0
ARC
8
DEFAULT_255_2_778
10
19.7717819
20
169.1626458
40
0.7545987
50
270.4050792
51
332.8636332
0
ARC
8
DEFAULT_255_2_778
10
19.7746073
20
169.1733988
40
0.5766383
50
270.2493497
51
330.3649047
0
ARC
8
DEFAULT_255_2_778
10
19.7981787
20
168.801307
40
0.2056225
50
188.7424888
51
264.120891
0
ARC
8
DEFAULT_255_2_778
10
19.841902
20
168.8258673
40
0.2531853
50
180.0682018
51
192.7352383
0
ARC
8
DEFAULT_255_2_778
10
19.7947623
20
169.569031
40
0.2062492
50
102.479692
51
182.5468765
0
ARC
8
DEFAULT_255_2_778
10
19.7770784
20
169.6040755
40
0.1684904
50
89.986931
51
99.1816697
0
ARC
8
DEFAULT_255_2_778
10
19.7646384
20
169.5718685
40
0.201085
50
358.3379179
51
86.4421934
0
ARC
8
DEFAULT_255_2_778
10
19.7224425
20
169.5598683
40
0.2432745
50
359.9994511
51
1.4527903
0
LINE
8
DEFAULT_255_2_778
10
20.7193169
20
168.5043659
11
21.2220169
21
168.5043659
0
LINE
8
DEFAULT_255_2_778
10
21.2220169
20
168.5043659
11
21.2220169
21
170.5239659
0
LINE
8
DEFAULT_255_2_778
10
21.2220169
20
170.5239659
11
20.7193169
21
170.5239659
0
LINE
8
DEFAULT_255_2_778
10
20.7193169
20
170.5239659
11
20.7193169
21
168.5043659
0
LINE
8
DEFAULT_255_2_778
10
20.7193169
20
168.5043659
11
20.7193169
21
168.5043659
0
LINE
8
DEFAULT_255_2_778
10
20.7193169
20
168.5043659
11
20.7193169
21
168.5043659
0
LINE
8
DEFAULT_255_2_778
10
21.9610169
20
170.5239659
11
21.9610169
21
168.5043659
0
LINE
8
DEFAULT_255_2_778
10
21.9610169
20
168.5043659
11
21.4585169
21
168.5043659
0
LINE
8
DEFAULT_255_2_778
10
21.4585169
20
168.5043659
11
21.4585169
21
170.5239659
0
LINE
8
DEFAULT_255_2_778
10
21.4585169
20
170.5239659
11
21.9610169
21
170.5239659
0
LINE
8
DEFAULT_255_2_778
10
21.9610169
20
170.5239659
11
21.9610169
21
170.5239659
0
LINE
8
DEFAULT_255_2_778
10
21.9610169
20
170.5239659
11
21.9610169
21
170.5239659
0
LINE
8
DEFAULT_255_2_778
10
9.8034169
20
169.7394659
11
9.3970169
21
169.7394659
0
LINE
8
DEFAULT_255_2_778
10
9.3970169
20
169.7394659
11
9.3970169
21
170.5239659
0
LINE
8
DEFAULT_255_2_778
10
9.3970169
20
170.5239659
11
8.7318169
21
170.5239659
0
LINE
8
DEFAULT_255_2_778
10
8.7318169
20
170.5239659
11
8.7318169
21
168.5043659
0
LINE
8
DEFAULT_255_2_778
10
8.7318169
20
168.5043659
11
9.3970169
21
168.5043659
0
LINE
8
DEFAULT_255_2_778
10
9.3970169
20
168.5043659
11
9.3970169
21
169.5058659
0
LINE
8
DEFAULT_255_2_778
10
9.3970169
20
169.5058659
11
9.8034169
21
169.5058659
0
LINE
8
DEFAULT_255_2_778
10
9.8034169
20
169.5058659
11
9.8034169
21
168.5043659
0
LINE
8
DEFAULT_255_2_778
10
9.8034169
20
168.5043659
11
10.4685169
21
168.5043659
0
LINE
8
DEFAULT_255_2_778
10
10.4685169
20
168.5043659
11
10.4685169
21
170.5239659
0
LINE
8
DEFAULT_255_2_778
10
10.4685169
20
170.5239659
11
9.8034169
21
170.5239659
0
LINE
8
DEFAULT_255_2_778
10
9.8034169
20
170.5239659
11
9.8034169
21
169.7394659
0
LINE
8
DEFAULT_255_2_778
10
9.8034169
20
169.7394659
11
9.8034169
21
169.7394659
0
LINE
8
DEFAULT_255_2_778
10
9.8034169
20
169.7394659
11
9.8034169
21
169.7394659
0
LINE
8
DEFAULT_255_2_778
10
12.9260169
20
169.7730659
11
12.8852169
21
169.9066659
0
LINE
8
DEFAULT_255_2_778
10
12.8852169
20
169.9066659
11
12.3383169
21
169.9066659
0
LINE
8
DEFAULT_255_2_778
10
12.3383169
20
169.9066659
11
12.3383169
21
168.5046659
0
LINE
8
DEFAULT_255_2_778
10
12.3383169
20
168.5046659
11
12.8852169
21
168.5046659
0
LINE
8
DEFAULT_255_2_778
10
12.8852169
20
168.5046659
11
12.8852169
21
169.3473659
0
LINE
8
DEFAULT_255_2_778
10
12.8852169
20
169.3473659
11
12.8852169
21
169.3473659
0
LINE
8
DEFAULT_255_2_778
10
13.2472169
20
169.4306659
11
13.2472169
21
169.4306659
0
LINE
8
DEFAULT_255_2_778
10
13.2472169
20
169.4306659
11
13.2472169
21
168.5043659
0
LINE
8
DEFAULT_255_2_778
10
13.2472169
20
168.5043659
11
13.7941169
21
168.5043659
0
LINE
8
DEFAULT_255_2_778
10
13.7941169
20
168.5043659
11
13.7941169
21
169.4140659
0
LINE
8
DEFAULT_255_2_778
10
13.7941169
20
169.4140659
11
13.7941169
21
169.4140659
0
LINE
8
DEFAULT_255_2_778
10
12.9257169
20
169.7727659
11
12.9257169
21
169.7727659
0
LINE
8
DEFAULT_255_2_778
10
12.9257169
20
169.7727659
11
12.9257169
21
169.7727659
0
LINE
8
DEFAULT_255_2_778
10
12.9257169
20
169.7727659
11
12.9257169
21
169.7727659
0
LINE
8
DEFAULT_255_2_778
10
12.9257169
20
169.7727659
11
12.9260169
21
169.7730659
0
LINE
8
DEFAULT_255_2_778
10
18.5431169
20
169.0928659
11
18.2880169
21
169.9064659
0
LINE
8
DEFAULT_255_2_778
10
18.2880169
20
169.9064659
11
17.9147169
21
169.9064659
0
LINE
8
DEFAULT_255_2_778
10
17.9147169
20
169.9064659
11
17.6596169
21
169.0594659
0
LINE
8
DEFAULT_255_2_778
10
17.6596169
20
169.0594659
11
17.3937169
21
169.9064659
0
LINE
8
DEFAULT_255_2_778
10
17.3937169
20
169.9064659
11
16.8728169
21
169.9064659
0
LINE
8
DEFAULT_255_2_778
10
16.8728169
20
169.9064659
11
16.8691169
21
169.9064659
0
LINE
8
DEFAULT_255_2_778
10
16.8691169
20
169.9064659
11
16.6622169
21
169.9064659
0
LINE
8
DEFAULT_255_2_778
10
16.6622169
20
169.9064659
11
16.3997169
21
169.1930659
0
LINE
8
DEFAULT_255_2_778
10
16.3997169
20
169.1930659
11
16.0303169
21
169.9064659
0
LINE
8
DEFAULT_255_2_778
10
16.0303169
20
169.9064659
11
15.4056169
21
169.9064659
0
LINE
8
DEFAULT_255_2_778
10
15.4056169
20
169.9064659
11
16.1409169
21
168.4877659
0
LINE
8
DEFAULT_255_2_778
10
16.1409169
20
168.4877659
11
16.0449169
21
168.2207659
0
LINE
8
DEFAULT_255_2_778
10
16.0449169
20
168.2207659
11
16.0449169
21
168.2207659
0
LINE
8
DEFAULT_255_2_778
10
16.2629169
20
168.2413659
11
16.2629169
21
168.2413659
0
LINE
8
DEFAULT_255_2_778
10
16.2629169
20
168.2413659
11
16.8706169
21
169.9005659
0
LINE
8
DEFAULT_255_2_778
10
16.8706169
20
169.9005659
11
17.3088169
21
168.5041659
0
LINE
8
DEFAULT_255_2_778
10
17.3088169
20
168.5041659
11
17.7078169
21
168.5041659
0
LINE
8
DEFAULT_255_2_778
10
17.7078169
20
168.5041659
11
17.9517169
21
169.3095659
0
LINE
8
DEFAULT_255_2_778
10
17.9517169
20
169.3095659
11
18.2031169
21
168.5041659
0
LINE
8
DEFAULT_255_2_778
10
18.2031169
20
168.5041659
11
18.5801169
21
168.5041659
0
LINE
8
DEFAULT_255_2_778
10
18.5801169
20
168.5041659
11
19.0050169
21
169.9061659
0
LINE
8
DEFAULT_255_2_778
10
19.0050169
20
169.9061659
11
18.7870169
21
169.9061659
0
LINE
8
DEFAULT_255_2_778
10
18.7870169
20
169.9061659
11
18.5431169
21
169.0925659
0
LINE
8
DEFAULT_255_2_778
10
18.5431169
20
169.0925659
11
18.5431169
21
169.0925659
0
LINE
8
DEFAULT_255_2_778
10
18.5431169
20
169.0925659
11
18.5431169
21
169.0925659
0
LINE
8
DEFAULT_255_2_778
10
18.5431169
20
169.0925659
11
18.5431169
21
169.0928659
0
LINE
8
DEFAULT_255_2_778
10
11.4110169
20
169.9775659
11
11.4110169
21
169.9775659
0
LINE
8
DEFAULT_255_2_778
10
11.4110169
20
169.9775659
11
11.4110169
21
169.9775659
0
LINE
8
DEFAULT_255_2_778
10
11.4110169
20
169.9775659
11
11.4110169
21
169.9775659
0
LINE
8
DEFAULT_255_2_778
10
11.4110169
20
169.9775659
11
11.4110169
21
169.9775659
0
LINE
8
DEFAULT_255_2_778
10
11.2226169
20
168.8258659
11
11.2226169
21
168.8258659
0
LINE
8
DEFAULT_255_2_778
10
11.2226169
20
168.8258659
11
11.2226169
21
169.5600659
0
LINE
8
DEFAULT_255_2_778
10
11.2226169
20
169.5600659
11
11.2226169
21
169.5600659
0
LINE
8
DEFAULT_255_2_778
10
11.5996169
20
169.5600659
11
11.5996169
21
169.5600659
0
LINE
8
DEFAULT_255_2_778
10
11.5996169
20
169.5600659
11
11.5996169
21
168.8258659
0
LINE
8
DEFAULT_255_2_778
10
11.5996169
20
168.8258659
11
11.5996169
21
168.8258659
0
LINE
8
DEFAULT_255_2_778
10
11.5996169
20
168.8258659
11
11.5996169
21
168.8258659
0
LINE
8
DEFAULT_255_2_778
10
11.5996169
20
168.8258659
11
11.5996169
21
168.8258659
0
LINE
8
DEFAULT_255_2_778
10
15.3805169
20
168.8184659
11
15.3805169
21
168.8184659
0
LINE
8
DEFAULT_255_2_778
10
15.3805169
20
168.8184659
11
15.2130169
21
168.8882659
0
LINE
8
DEFAULT_255_2_778
10
15.2130169
20
168.8882659
11
15.2130169
21
168.8882659
0
LINE
8
DEFAULT_255_2_778
10
14.5256169
20
168.8255659
11
14.5256169
21
168.8255659
0
LINE
8
DEFAULT_255_2_778
10
14.5256169
20
168.8255659
11
14.5256169
21
169.0801659
0
LINE
8
DEFAULT_255_2_778
10
14.5256169
20
169.0801659
11
15.4657169
21
169.0801659
0
LINE
8
DEFAULT_255_2_778
10
15.4657169
20
169.0801659
11
15.4657169
21
169.0801659
0
LINE
8
DEFAULT_255_2_778
10
15.4657169
20
169.0801659
11
15.4657169
21
169.0801659
0
LINE
8
DEFAULT_255_2_778
10
15.4657169
20
169.0801659
11
15.4662169
21
169.0801659
0
LINE
8
DEFAULT_255_2_778
10
14.9032169
20
169.5600659
11
14.9032169
21
169.5600659
0
LINE
8
DEFAULT_255_2_778
10
14.9032169
20
169.5600659
11
14.9032169
21
169.2804659
0
LINE
8
DEFAULT_255_2_778
10
14.9032169
20
169.2804659
11
14.5262169
21
169.2804659
0
LINE
8
DEFAULT_255_2_778
10
14.5262169
20
169.2804659
11
14.5262169
21
169.5600659
0
LINE
8
DEFAULT_255_2_778
10
14.5262169
20
169.5600659
11
14.5262169
21
169.5600659
0
LINE
8
DEFAULT_255_2_778
10
14.5262169
20
169.5600659
11
14.5262169
21
169.5600659
0
LINE
8
DEFAULT_255_2_778
10
14.5262169
20
169.5600659
11
14.5262169
21
169.5600659
0
LINE
8
DEFAULT_255_2_778
10
20.4433169
20
168.8184659
11
20.4433169
21
168.8184659
0
LINE
8
DEFAULT_255_2_778
10
20.4433169
20
168.8184659
11
20.2758169
21
168.8882659
0
LINE
8
DEFAULT_255_2_778
10
20.2758169
20
168.8882659
11
20.2758169
21
168.8882659
0
LINE
8
DEFAULT_255_2_778
10
19.5887169
20
168.8255659
11
19.5887169
21
168.8255659
0
LINE
8
DEFAULT_255_2_778
10
19.5887169
20
168.8255659
11
19.5887169
21
169.0801659
0
LINE
8
DEFAULT_255_2_778
10
19.5887169
20
169.0801659
11
20.5288169
21
169.0801659
0
LINE
8
DEFAULT_255_2_778
10
20.5288169
20
169.0801659
11
20.5288169
21
169.0801659
0
LINE
8
DEFAULT_255_2_778
10
20.5288169
20
169.0801659
11
20.5288169
21
169.0801659
0
LINE
8
DEFAULT_255_2_778
10
20.5288169
20
169.0801659
11
20.5288169
21
169.0801659
0
LINE
8
DEFAULT_255_2_778
10
19.9657169
20
169.5598659
11
19.9657169
21
169.5598659
0
LINE
8
DEFAULT_255_2_778
10
19.9657169
20
169.5598659
11
19.9657169
21
169.2804659
0
LINE
8
DEFAULT_255_2_778
10
19.9657169
20
169.2804659
11
19.5887169
21
169.2804659
0
LINE
8
DEFAULT_255_2_778
10
19.5887169
20
169.2804659
11
19.5887169
21
169.5600659
0
LINE
8
DEFAULT_255_2_778
10
19.5887169
20
169.5600659
11
19.5887169
21
169.5600659
0
LINE
8
DEFAULT_255_2_778
10
19.5887169
20
169.5600659
11
19.5887169
21
169.5600659
0
LINE
8
DEFAULT_255_2_778
10
19.5887169
20
169.5600659
11
19.5887169
21
169.5598659
0
LINE
8
DEFAULT_255_2_778
10
11.3776417
20
79.2426656
11
11.3776417
21
5.1593656
0
LINE
8
DEFAULT_255_2_778
10
11.3776417
20
5.1593656
11
10.0547417
21
5.1593656
0
LINE
8
DEFAULT_255_2_778
10
10.0546834
20
84.5343333
11
12.7004834
21
84.5343333
0
LINE
8
DEFAULT_255_2_778
10
12.7004834
20
84.5343333
11
12.7004834
21
79.2426333
0
LINE
8
DEFAULT_255_2_778
10
12.7004834
20
79.2426333
11
10.0546834
21
79.2426333
0
LINE
8
DEFAULT_255_2_778
10
10.0546834
20
79.2426333
11
10.0546834
21
84.5343333
0
ARC
8
DEFAULT_255_2_778_1
10
13.8542591
20
79.345077
40
4.816461
50
120.9442904
51
122.351755
0
ARC
8
DEFAULT_255_2_778_1
10
13.4076523
20
80.0487039
40
3.9830657
50
122.3407904
51
124.1946752
0
ARC
8
DEFAULT_255_2_778_1
10
12.9677464
20
80.6952306
40
3.2010724
50
124.1855758
51
126.4338849
0
ARC
8
DEFAULT_255_2_778_1
10
12.5818129
20
81.2179611
40
2.5513094
50
126.4326926
51
128.8877368
0
ARC
8
DEFAULT_255_2_778_1
10
12.2469968
20
81.6323658
40
2.0185498
50
128.8749205
51
131.8726567
0
ARC
8
DEFAULT_255_2_778_1
10
11.9498677
20
81.9633854
40
1.5737356
50
131.8616166
51
135.4168838
0
ARC
8
DEFAULT_255_2_778_1
10
11.687068
20
82.2215765
40
1.2053256
50
135.3893975
51
139.9687014
0
ARC
8
DEFAULT_255_2_778_1
10
11.4541889
20
82.4164102
40
0.9016937
50
139.9301659
51
145.9260426
0
ARC
8
DEFAULT_255_2_778_1
10
11.258054
20
82.5484104
40
0.6652776
50
145.8787362
51
153.8146208
0
ARC
8
DEFAULT_255_2_778_1
10
11.1059553
20
82.6227797
40
0.4959714
50
153.770634
51
164.3484794
0
ARC
8
DEFAULT_255_2_778_1
10
11.0046387
20
82.6509786
40
0.3908039
50
164.3220276
51
179.8083066
0
ARC
8
DEFAULT_255_2_778_1
10
11.0256789
20
82.659115
40
0.4118985
50
180.9499449
51
213.8111542
0
ARC
8
DEFAULT_255_2_778_1
10
11.3015828
20
82.8286896
40
0.73561
50
212.8271214
51
224.258472
0
ARC
8
DEFAULT_255_2_778_1
10
11.6844335
20
83.1980236
40
1.267567
50
224.1376218
51
231.4508261
0
ARC
8
DEFAULT_255_2_778_1
10
12.3271195
20
84.0010168
40
2.2960809
50
231.3955893
51
236.1256478
0
ARC
8
DEFAULT_255_2_778_1
10
14.1594223
20
86.7475293
40
5.5976905
50
236.2233172
51
239.1314682
0
ARC
8
DEFAULT_255_2_778_1
10
26.109327
20
106.4752568
40
28.6623793
50
238.8606853
51
239.0711101
0
ARC
8
DEFAULT_255_2_778_1
10
6.9371281
20
74.3781653
40
8.7248518
50
57.2420924
51
59.4062964
0
ARC
8
DEFAULT_255_2_778_1
10
10.1648241
20
79.4091102
40
2.747542
50
52.8289294
51
57.079028
0
ARC
8
DEFAULT_255_2_778_1
10
10.9394783
20
80.4294488
40
1.466457
50
46.3041868
51
52.8596521
0
ARC
8
DEFAULT_255_2_778_1
10
11.3717073
20
80.8795842
40
0.8424061
50
36.2174211
51
46.4090895
0
ARC
8
DEFAULT_255_2_778_1
10
11.6562088
20
81.0844128
40
0.4918609
50
17.400375
51
36.5489745
0
ARC
8
DEFAULT_255_2_778_1
10
11.7702994
20
81.1242754
40
0.3710912
50
0.0676858
51
16.7951297
0
ARC
8
DEFAULT_255_2_778_1
10
11.7492613
20
81.1261428
40
0.3921317
50
343.8035191
51
359.7912046
0
ARC
8
DEFAULT_255_2_778_1
10
11.6429912
20
81.1566167
40
0.5026844
50
333.2506233
51
343.8465691
0
ARC
8
DEFAULT_255_2_778_1
10
11.4891757
20
81.2333313
40
0.6745679
50
325.6600948
51
333.3122657
0
ARC
8
DEFAULT_255_2_778_1
10
11.2937344
20
81.3661296
40
0.9108568
50
319.7560915
51
325.6976089
0
ARC
8
DEFAULT_255_2_778_1
10
11.065599
20
81.5579002
40
1.2088854
50
315.4577584
51
319.8037947
0
ARC
8
DEFAULT_255_2_778_1
10
10.8022127
20
81.8167507
40
1.5781764
50
311.7298824
51
315.4670864
0
ARC
8
DEFAULT_255_2_778_1
10
10.4931879
20
82.1623074
40
2.0417554
50
308.723055
51
311.7470879
0
ARC
8
DEFAULT_255_2_778_1
10
10.138989
20
82.6035492
40
2.6075745
50
306.1165163
51
308.7300151
0
ARC
8
DEFAULT_255_2_778_1
10
9.7360091
20
83.1548523
40
3.2904564
50
303.9559446
51
306.1266333
0
ARC
8
DEFAULT_255_2_778_1
10
9.3244432
20
83.764115
40
4.0257023
50
302.3733397
51
303.9712246
0
ARC
8
DEFAULT_255_2_778_1
10
8.9048347
20
84.4256058
40
4.8090549
50
300.9434827
51
302.3758078
0
LINE
8
DEFAULT_255_2_778
10
10.0547417
20
158.6176656
11
11.3776417
21
158.6176656
0
LINE
8
DEFAULT_255_2_778
10
11.3776417
20
158.6176656
11
11.3776417
21
84.5343656
0
LINE
8
DEFAULT_255_1_234
10
4.2610522
20
164.5598211
11
4.5935662
21
163.5952093
0
LINE
8
DEFAULT_255_1_234
10
4.5935662
20
163.5952093
11
4.9276865
21
164.5598211
0
LINE
8
DEFAULT_255_1_234
10
4.9276865
20
164.5598211
11
5.096353
21
164.5598211
0
LINE
8
DEFAULT_255_1_234
10
5.096353
20
164.5598211
11
4.6626391
21
163.3904
0
LINE
8
DEFAULT_255_1_234
10
4.6626391
20
163.3904
11
4.5260996
21
163.3904
0
LINE
8
DEFAULT_255_1_234
10
4.5260996
20
163.3904
11
4.0931889
21
164.5598211
0
LINE
8
DEFAULT_255_1_234
10
4.0931889
20
164.5598211
11
4.2610522
21
164.5598211
0
LINE
8
DEFAULT_255_1_234
10
5.655362
20
164.3590276
11
5.655362
21
164.0176788
0
LINE
8
DEFAULT_255_1_234
10
5.655362
20
164.0176788
11
5.9814505
21
164.0176788
0
LINE
8
DEFAULT_255_1_234
10
5.9814505
20
164.0176788
11
5.9814505
21
163.8771233
0
LINE
8
DEFAULT_255_1_234
10
5.9814505
20
163.8771233
11
5.655362
21
163.8771233
0
LINE
8
DEFAULT_255_1_234
10
5.655362
20
163.8771233
11
5.655362
21
163.5076634
0
LINE
8
DEFAULT_255_1_234
10
5.655362
20
163.5076634
11
5.5059716
21
163.5076634
0
LINE
8
DEFAULT_255_1_234
10
5.5059716
20
163.5076634
11
5.5059716
21
163.8771233
0
LINE
8
DEFAULT_255_1_234
10
5.5059716
20
163.8771233
11
5.1798831
21
163.8771233
0
LINE
8
DEFAULT_255_1_234
10
5.1798831
20
163.8771233
11
5.1798831
21
164.0176788
0
LINE
8
DEFAULT_255_1_234
10
5.1798831
20
164.0176788
11
5.5059716
21
164.0176788
0
LINE
8
DEFAULT_255_1_234
10
5.5059716
20
164.0176788
11
5.5059716
21
164.3590276
0
LINE
8
DEFAULT_255_1_234
10
5.5059716
20
164.3590276
11
5.655362
21
164.3590276
0
LINE
8
DEFAULT_255_1_234
10
4.4470902
20
5.8098211
11
4.4470902
21
4.6404
0
LINE
8
DEFAULT_255_1_234
10
4.4470902
20
4.6404
11
4.2928808
21
4.6404
0
LINE
8
DEFAULT_255_1_234
10
4.2928808
20
4.6404
11
4.2928808
21
5.8098211
0
LINE
8
DEFAULT_255_1_234
10
4.2928808
20
5.8098211
11
4.4470902
21
5.8098211
0
LINE
8
DEFAULT_255_1_234
10
5.6277557
20
5.8098211
11
5.6277557
21
4.6404
0
LINE
8
DEFAULT_255_1_234
10
5.6277557
20
4.6404
11
5.4727432
21
4.6404
0
LINE
8
DEFAULT_255_1_234
10
5.4727432
20
4.6404
11
4.8840167
21
5.541561
0
LINE
8
DEFAULT_255_1_234
10
4.8840167
20
5.541561
11
4.8840167
21
4.6404
0
LINE
8
DEFAULT_255_1_234
10
4.8840167
20
4.6404
11
4.7290042
21
4.6404
0
LINE
8
DEFAULT_255_1_234
10
4.7290042
20
4.6404
11
4.7290042
21
5.8098211
0
LINE
8
DEFAULT_255_1_234
10
4.7290042
20
5.8098211
11
4.8840167
21
5.8098211
0
LINE
8
DEFAULT_255_1_234
10
4.8840167
20
5.8098211
11
5.4743495
21
4.9046442
0
LINE
8
DEFAULT_255_1_234
10
5.4743495
20
4.9046442
11
5.4743495
21
5.8098211
0
LINE
8
DEFAULT_255_1_234
10
5.4743495
20
5.8098211
11
5.6277557
21
5.8098211
0
LINE
8
DEFAULT_255_1_234
10
6.3514153
20
5.8154433
11
6.3514153
21
4.6404
0
LINE
8
DEFAULT_255_1_234
10
6.3514153
20
4.6404
11
6.202025
21
4.6404
0
LINE
8
DEFAULT_255_1_234
10
6.202025
20
4.6404
11
6.202025
21
5.6307133
0
LINE
8
DEFAULT_255_1_234
10
6.202025
20
5.6307133
11
5.9024412
21
5.5206785
0
LINE
8
DEFAULT_255_1_234
10
5.9024412
20
5.5206785
11
5.9024412
21
5.6556117
0
LINE
8
DEFAULT_255_1_234
10
5.9024412
20
5.6556117
11
6.3281233
21
5.8154433
0
LINE
8
DEFAULT_255_1_234
10
6.3281233
20
5.8154433
11
6.3514153
21
5.8154433
0
LINE
8
DEFAULT_255_1_234
10
7.343335
20
5.8106243
11
7.3698397
21
5.8106243
0
LINE
8
DEFAULT_255_1_234
10
7.3698397
20
5.8106243
11
7.3698397
21
5.684526
0
LINE
8
DEFAULT_255_1_234
10
7.3698397
20
5.684526
11
7.3425318
21
5.684526
0
LINE
8
DEFAULT_255_1_234
10
6.7955705
20
5.0853583
11
6.7955705
21
5.1423836
0
LINE
8
DEFAULT_255_1_234
10
6.9449608
20
5.1231075
11
6.9449608
21
5.0684917
0
ARC
8
DEFAULT_255_1_234
10
7.3477666
20
5.1847455
40
0.4998079
50
90.6001036
51
104.514704
0
ARC
8
DEFAULT_255_1_234
10
7.3089182
20
5.3292131
40
0.3502176
50
104.2855254
51
133.862935
0
ARC
8
DEFAULT_255_1_234
10
7.3252939
20
5.318383
40
0.3693984
50
134.5302688
51
161.6210873
0
ARC
8
DEFAULT_255_1_234
10
7.4906128
20
5.2600895
40
0.5446739
50
161.2849839
51
174.2076652
0
ARC
8
DEFAULT_255_1_234
10
7.6313065
20
5.2406787
40
0.6866274
50
173.7810589
51
174.9254635
0
ARC
8
DEFAULT_255_1_234
10
7.1762897
20
5.1023839
40
0.3033419
50
95.8330959
51
138.9954921
0
ARC
8
DEFAULT_255_1_234
10
7.1986253
20
4.9745375
40
0.4328947
50
89.8753725
51
97.0544009
0
ARC
8
DEFAULT_255_1_234
10
7.2033719
20
5.0580748
40
0.3493769
50
71.6407809
51
90.6240094
0
ARC
8
DEFAULT_255_1_234
10
7.2184292
20
5.1135082
40
0.2920396
50
39.6367836
51
71.019018
0
ARC
8
DEFAULT_255_1_234
10
7.1547765
20
5.0584998
40
0.3761538
50
10.658731
51
39.9043955
0
ARC
8
DEFAULT_255_1_234
10
6.9999848
20
5.0248686
40
0.5345136
50
359.682601
51
11.132623
0
ARC
8
DEFAULT_255_1_234
10
6.9959979
20
5.017801
40
0.5385081
50
347.2486944
51
0.4369317
0
ARC
8
DEFAULT_255_1_234
10
7.1627456
20
4.9776807
40
0.3670249
50
318.1409698
51
347.6118597
0
ARC
8
DEFAULT_255_1_234
10
7.1952449
20
4.9509702
40
0.3250007
50
275.6342139
51
317.8248465
0
ARC
8
DEFAULT_255_1_234
10
7.1731561
20
5.0809219
40
0.4565864
50
269.8874292
51
276.7917694
0
ARC
8
DEFAULT_255_1_234
10
7.1676631
20
4.9783743
40
0.3540676
50
246.9140195
51
270.7437342
0
ARC
8
DEFAULT_255_1_234
10
7.1683021
20
4.9641384
40
0.3412781
50
218.1665114
51
245.878116
0
ARC
8
DEFAULT_255_1_234
10
7.2562482
20
5.0377279
40
0.455911
50
191.4115814
51
218.6077802
0
ARC
8
DEFAULT_255_1_234
10
7.4500571
20
5.0811833
40
0.6545001
50
179.6345085
51
191.7836486
0
ARC
8
DEFAULT_255_1_234
10
8.0082908
20
5.1490697
40
1.2127388
50
171.4525249
51
180.3158839
0
ARC
8
DEFAULT_255_1_234
10
7.5687784
20
5.2174608
40
0.7679464
50
157.9802646
51
171.6246686
0
ARC
8
DEFAULT_255_1_234
10
7.3473805
20
5.3057421
40
0.5296008
50
141.4298019
51
157.854097
0
ARC
8
DEFAULT_255_1_234
10
7.2832126
20
5.3511381
40
0.4511509
50
102.8715806
51
140.8564722
0
ARC
8
DEFAULT_255_1_234
10
7.3479741
20
5.1071552
40
0.7034845
50
90.3778349
51
103.5869322
0
ARC
8
DEFAULT_255_1_234
10
7.1741517
20
5.046673
40
0.2370698
50
89.8751008
51
126.2071704
0
ARC
8
DEFAULT_255_1_234
10
7.1787307
20
5.0312303
40
0.2522934
50
124.9745049
51
144.895901
0
ARC
8
DEFAULT_255_1_234
10
7.1611498
20
5.045556
40
0.2296779
50
145.2974905
51
160.2660252
0
ARC
8
DEFAULT_255_1_234
10
7.4684036
20
5.0653071
40
0.5234525
50
179.6514266
51
190.2855912
0
ARC
8
DEFAULT_255_1_234
10
7.2990174
20
5.0333786
40
0.3510893
50
190.0945431
51
207.5098196
0
ARC
8
DEFAULT_255_1_234
10
7.2424443
20
5.0064623
40
0.288489
50
207.9583163
51
216.3251085
0
ARC
8
DEFAULT_255_1_234
10
7.2084551
20
4.9785105
40
0.2445587
50
215.7661442
51
232.5456785
0
ARC
8
DEFAULT_255_1_234
10
7.1701534
20
4.9298482
40
0.1826382
50
232.8005391
51
270.6605633
0
ARC
8
DEFAULT_255_1_234
10
7.1747235
20
4.9662612
40
0.2190529
50
269.35537
51
288.4744281
0
ARC
8
DEFAULT_255_1_234
10
7.1840132
20
4.9313118
40
0.1829749
50
289.1833337
51
322.9683818
0
ARC
8
DEFAULT_255_1_234
10
7.1228654
20
4.9795391
40
0.2608399
50
322.6007884
51
346.5182367
0
ARC
8
DEFAULT_255_1_234
10
7.007125
20
5.0090616
40
0.3802777
50
346.2582162
51
358.7741648
0
ARC
8
DEFAULT_255_1_234
10
6.9052919
20
5.0145965
40
0.4822176
50
358.3755224
51
0.0098023
0
ARC
8
DEFAULT_255_1_234
10
6.9809106
20
5.0173657
40
0.4066078
50
359.6214041
51
11.2839074
0
ARC
8
DEFAULT_255_1_234
10
7.1086253
20
5.0440066
40
0.2761514
50
11.0482309
51
31.8146458
0
ARC
8
DEFAULT_255_1_234
10
7.1395296
20
5.0607584
40
0.2410679
50
32.3035391
51
38.082671
0
ARC
8
DEFAULT_255_1_234
10
7.1815956
20
5.0988662
40
0.1844966
50
36.825067
51
85.7415724
0
ARC
8
DEFAULT_255_1_234
10
7.1748789
20
5.0488301
40
0.2349122
50
85.0140713
51
90.0513278
0
LINE
8
DEFAULT_255_1_234
10
8.0348677
20
5.1978026
11
8.0348677
21
5.0765234
0
LINE
8
DEFAULT_255_1_234
10
8.0348677
20
5.0765234
11
7.6429188
21
5.0765234
0
LINE
8
DEFAULT_255_1_234
10
7.6429188
20
5.0765234
11
7.6429188
21
5.1978026
0
LINE
8
DEFAULT_255_1_234
10
7.6429188
20
5.1978026
11
8.0348677
21
5.1978026
0
LINE
8
DEFAULT_255_1_234
10
4.4189902
20
11.1014211
11
4.4189902
21
9.932
0
LINE
8
DEFAULT_255_1_234
10
4.4189902
20
9.932
11
4.2647808
21
9.932
0
LINE
8
DEFAULT_255_1_234
10
4.2647808
20
9.932
11
4.2647808
21
11.1014211
0
LINE
8
DEFAULT_255_1_234
10
4.2647808
20
11.1014211
11
4.4189902
21
11.1014211
0
LINE
8
DEFAULT_255_1_234
10
5.5996557
20
11.1014211
11
5.5996557
21
9.932
0
LINE
8
DEFAULT_255_1_234
10
5.5996557
20
9.932
11
5.4446432
21
9.932
0
LINE
8
DEFAULT_255_1_234
10
5.4446432
20
9.932
11
4.8559167
21
10.833161
0
LINE
8
DEFAULT_255_1_234
10
4.8559167
20
10.833161
11
4.8559167
21
9.932
0
LINE
8
DEFAULT_255_1_234
10
4.8559167
20
9.932
11
4.7009042
21
9.932
0
LINE
8
DEFAULT_255_1_234
10
4.7009042
20
9.932
11
4.7009042
21
11.1014211
0
LINE
8
DEFAULT_255_1_234
10
4.7009042
20
11.1014211
11
4.8559167
21
11.1014211
0
LINE
8
DEFAULT_255_1_234
10
4.8559167
20
11.1014211
11
5.4462495
21
10.1962442
0
LINE
8
DEFAULT_255_1_234
10
5.4462495
20
10.1962442
11
5.4462495
21
11.1014211
0
LINE
8
DEFAULT_255_1_234
10
5.4462495
20
11.1014211
11
5.5996557
21
11.1014211
0
LINE
8
DEFAULT_255_1_234
10
6.3233153
20
11.1070433
11
6.3233153
21
9.932
0
LINE
8
DEFAULT_255_1_234
10
6.3233153
20
9.932
11
6.173925
21
9.932
0
LINE
8
DEFAULT_255_1_234
10
6.173925
20
9.932
11
6.173925
21
10.9223133
0
LINE
8
DEFAULT_255_1_234
10
6.173925
20
10.9223133
11
5.8743412
21
10.8122785
0
LINE
8
DEFAULT_255_1_234
10
5.8743412
20
10.8122785
11
5.8743412
21
10.9472117
0
LINE
8
DEFAULT_255_1_234
10
5.8743412
20
10.9472117
11
6.3000233
21
11.1070433
0
LINE
8
DEFAULT_255_1_234
10
6.3000233
20
11.1070433
11
6.3233153
21
11.1070433
0
LINE
8
DEFAULT_255_1_234
10
7.315235
20
11.1022243
11
7.3417397
21
11.1022243
0
LINE
8
DEFAULT_255_1_234
10
7.3417397
20
11.1022243
11
7.3417397
21
10.976126
0
LINE
8
DEFAULT_255_1_234
10
7.3417397
20
10.976126
11
7.3144318
21
10.976126
0
LINE
8
DEFAULT_255_1_234
10
6.7674705
20
10.3769583
11
6.7674705
21
10.4339836
0
LINE
8
DEFAULT_255_1_234
10
6.9168608
20
10.4147075
11
6.9168608
21
10.3600917
0
ARC
8
DEFAULT_255_1_234
10
7.3196666
20
10.4763455
40
0.4998079
50
90.6001036
51
104.514704
0
ARC
8
DEFAULT_255_1_234
10
7.2808182
20
10.6208131
40
0.3502176
50
104.2855254
51
133.862935
0
ARC
8
DEFAULT_255_1_234
10
7.2971939
20
10.609983
40
0.3693984
50
134.5302688
51
161.6210873
0
ARC
8
DEFAULT_255_1_234
10
7.4625128
20
10.5516895
40
0.5446739
50
161.2849839
51
174.2076652
0
ARC
8
DEFAULT_255_1_234
10
7.6032065
20
10.5322787
40
0.6866274
50
173.7810589
51
174.9254635
0
ARC
8
DEFAULT_255_1_234
10
7.1481897
20
10.3939839
40
0.3033419
50
95.8330959
51
138.9954921
0
ARC
8
DEFAULT_255_1_234
10
7.1705253
20
10.2661375
40
0.4328947
50
89.8753725
51
97.0544009
0
ARC
8
DEFAULT_255_1_234
10
7.1752719
20
10.3496748
40
0.3493769
50
71.6407809
51
90.6240094
0
ARC
8
DEFAULT_255_1_234
10
7.1903292
20
10.4051082
40
0.2920396
50
39.6367836
51
71.019018
0
ARC
8
DEFAULT_255_1_234
10
7.1266765
20
10.3500998
40
0.3761538
50
10.658731
51
39.9043955
0
ARC
8
DEFAULT_255_1_234
10
6.9718848
20
10.3164686
40
0.5345136
50
359.682601
51
11.132623
0
ARC
8
DEFAULT_255_1_234
10
6.9678979
20
10.309401
40
0.5385081
50
347.2486944
51
0.4369317
0
ARC
8
DEFAULT_255_1_234
10
7.1346456
20
10.2692807
40
0.3670249
50
318.1409698
51
347.6118597
0
ARC
8
DEFAULT_255_1_234
10
7.1671449
20
10.2425702
40
0.3250007
50
275.6342139
51
317.8248465
0
ARC
8
DEFAULT_255_1_234
10
7.1450561
20
10.3725219
40
0.4565864
50
269.8874292
51
276.7917694
0
ARC
8
DEFAULT_255_1_234
10
7.1395631
20
10.2699743
40
0.3540676
50
246.9140195
51
270.7437342
0
ARC
8
DEFAULT_255_1_234
10
7.1402021
20
10.2557384
40
0.3412781
50
218.1665114
51
245.878116
0
ARC
8
DEFAULT_255_1_234
10
7.2281482
20
10.3293279
40
0.455911
50
191.4115814
51
218.6077802
0
ARC
8
DEFAULT_255_1_234
10
7.4219571
20
10.3727833
40
0.6545001
50
179.6345085
51
191.7836486
0
ARC
8
DEFAULT_255_1_234
10
7.9801908
20
10.4406697
40
1.2127388
50
171.4525249
51
180.3158839
0
ARC
8
DEFAULT_255_1_234
10
7.5406784
20
10.5090608
40
0.7679464
50
157.9802646
51
171.6246686
0
ARC
8
DEFAULT_255_1_234
10
7.3192805
20
10.5973421
40
0.5296008
50
141.4298019
51
157.854097
0
ARC
8
DEFAULT_255_1_234
10
7.2551126
20
10.6427381
40
0.4511509
50
102.8715806
51
140.8564722
0
ARC
8
DEFAULT_255_1_234
10
7.3198741
20
10.3987552
40
0.7034845
50
90.3778349
51
103.5869322
0
ARC
8
DEFAULT_255_1_234
10
7.1460517
20
10.338273
40
0.2370698
50
89.8751008
51
126.2071704
0
ARC
8
DEFAULT_255_1_234
10
7.1506307
20
10.3228303
40
0.2522934
50
124.9745049
51
144.895901
0
ARC
8
DEFAULT_255_1_234
10
7.1330498
20
10.337156
40
0.2296779
50
145.2974905
51
160.2660252
0
ARC
8
DEFAULT_255_1_234
10
7.4403036
20
10.3569071
40
0.5234525
50
179.6514266
51
190.2855912
0
ARC
8
DEFAULT_255_1_234
10
7.2709174
20
10.3249786
40
0.3510893
50
190.0945431
51
207.5098196
0
ARC
8
DEFAULT_255_1_234
10
7.2143443
20
10.2980623
40
0.288489
50
207.9583163
51
216.3251085
0
ARC
8
DEFAULT_255_1_234
10
7.1803551
20
10.2701105
40
0.2445587
50
215.7661442
51
232.5456785
0
ARC
8
DEFAULT_255_1_234
10
7.1420534
20
10.2214482
40
0.1826382
50
232.8005391
51
270.6605633
0
ARC
8
DEFAULT_255_1_234
10
7.1466235
20
10.2578612
40
0.2190529
50
269.35537
51
288.4744281
0
ARC
8
DEFAULT_255_1_234
10
7.1559132
20
10.2229118
40
0.1829749
50
289.1833337
51
322.9683818
0
ARC
8
DEFAULT_255_1_234
10
7.0947654
20
10.2711391
40
0.2608399
50
322.6007884
51
346.5182367
0
ARC
8
DEFAULT_255_1_234
10
6.979025
20
10.3006616
40
0.3802777
50
346.2582162
51
358.7741648
0
ARC
8
DEFAULT_255_1_234
10
6.8771919
20
10.3061965
40
0.4822176
50
358.3755224
51
0.0098023
0
ARC
8
DEFAULT_255_1_234
10
6.9528106
20
10.3089657
40
0.4066078
50
359.6214041
51
11.2839074
0
ARC
8
DEFAULT_255_1_234
10
7.0805253
20
10.3356066
40
0.2761514
50
11.0482309
51
31.8146458
0
ARC
8
DEFAULT_255_1_234
10
7.1114296
20
10.3523584
40
0.2410679
50
32.3035391
51
38.082671
0
ARC
8
DEFAULT_255_1_234
10
7.1534956
20
10.3904662
40
0.1844966
50
36.825067
51
85.7415724
0
ARC
8
DEFAULT_255_1_234
10
7.1467789
20
10.3404301
40
0.2349122
50
85.0140713
51
90.0513278
0
LINE
8
DEFAULT_255_1_234
10
8.1232279
20
10.9006276
11
8.1232279
21
10.5592788
0
LINE
8
DEFAULT_255_1_234
10
8.1232279
20
10.5592788
11
8.4493165
21
10.5592788
0
LINE
8
DEFAULT_255_1_234
10
8.4493165
20
10.5592788
11
8.4493165
21
10.4187233
0
LINE
8
DEFAULT_255_1_234
10
8.4493165
20
10.4187233
11
8.1232279
21
10.4187233
0
LINE
8
DEFAULT_255_1_234
10
8.1232279
20
10.4187233
11
8.1232279
21
10.0492634
0
LINE
8
DEFAULT_255_1_234
10
8.1232279
20
10.0492634
11
7.9738375
21
10.0492634
0
LINE
8
DEFAULT_255_1_234
10
7.9738375
20
10.0492634
11
7.9738375
21
10.4187233
0
LINE
8
DEFAULT_255_1_234
10
7.9738375
20
10.4187233
11
7.647749
21
10.4187233
0
LINE
8
DEFAULT_255_1_234
10
7.647749
20
10.4187233
11
7.647749
21
10.5592788
0
LINE
8
DEFAULT_255_1_234
10
7.647749
20
10.5592788
11
7.9738375
21
10.5592788
0
LINE
8
DEFAULT_255_1_234
10
7.9738375
20
10.5592788
11
7.9738375
21
10.9006276
0
LINE
8
DEFAULT_255_1_234
10
7.9738375
20
10.9006276
11
8.1232279
21
10.9006276
0
LINE
8
DEFAULT_255_1_234
10
4.4470902
20
16.3931211
11
4.4470902
21
15.2237
0
LINE
8
DEFAULT_255_1_234
10
4.4470902
20
15.2237
11
4.2928808
21
15.2237
0
LINE
8
DEFAULT_255_1_234
10
4.2928808
20
15.2237
11
4.2928808
21
16.3931211
0
LINE
8
DEFAULT_255_1_234
10
4.2928808
20
16.3931211
11
4.4470902
21
16.3931211
0
LINE
8
DEFAULT_255_1_234
10
5.6277557
20
16.3931211
11
5.6277557
21
15.2237
0
LINE
8
DEFAULT_255_1_234
10
5.6277557
20
15.2237
11
5.4727432
21
15.2237
0
LINE
8
DEFAULT_255_1_234
10
5.4727432
20
15.2237
11
4.8840167
21
16.124861
0
LINE
8
DEFAULT_255_1_234
10
4.8840167
20
16.124861
11
4.8840167
21
15.2237
0
LINE
8
DEFAULT_255_1_234
10
4.8840167
20
15.2237
11
4.7290042
21
15.2237
0
LINE
8
DEFAULT_255_1_234
10
4.7290042
20
15.2237
11
4.7290042
21
16.3931211
0
LINE
8
DEFAULT_255_1_234
10
4.7290042
20
16.3931211
11
4.8840167
21
16.3931211
0
LINE
8
DEFAULT_255_1_234
10
4.8840167
20
16.3931211
11
5.4743495
21
15.4879442
0
LINE
8
DEFAULT_255_1_234
10
5.4743495
20
15.4879442
11
5.4743495
21
16.3931211
0
LINE
8
DEFAULT_255_1_234
10
5.4743495
20
16.3931211
11
5.6277557
21
16.3931211
0
LINE
8
DEFAULT_255_1_234
10
6.3514153
20
16.3987433
11
6.3514153
21
15.2237
0
LINE
8
DEFAULT_255_1_234
10
6.3514153
20
15.2237
11
6.202025
21
15.2237
0
LINE
8
DEFAULT_255_1_234
10
6.202025
20
15.2237
11
6.202025
21
16.2140133
0
LINE
8
DEFAULT_255_1_234
10
6.202025
20
16.2140133
11
5.9024412
21
16.1039785
0
LINE
8
DEFAULT_255_1_234
10
5.9024412
20
16.1039785
11
5.9024412
21
16.2389117
0
LINE
8
DEFAULT_255_1_234
10
5.9024412
20
16.2389117
11
6.3281233
21
16.3987433
0
LINE
8
DEFAULT_255_1_234
10
6.3281233
20
16.3987433
11
6.3514153
21
16.3987433
0
LINE
8
DEFAULT_255_1_234
10
6.973875
20
15.7794963
11
6.8550053
21
15.8100169
0
LINE
8
DEFAULT_255_1_234
10
6.8550053
20
15.8100169
11
6.9144402
21
16.3931211
0
LINE
8
DEFAULT_255_1_234
10
6.9144402
20
16.3931211
11
7.5136079
21
16.3931211
0
LINE
8
DEFAULT_255_1_234
10
7.5136079
20
16.3931211
11
7.5136079
21
16.2557784
0
LINE
8
DEFAULT_255_1_234
10
7.5136079
20
16.2557784
11
7.0405385
21
16.2557784
0
LINE
8
DEFAULT_255_1_234
10
7.0405385
20
16.2557784
11
7.0051988
21
15.9369184
0
LINE
8
DEFAULT_255_1_234
10
6.8132403
20
15.5313156
11
6.9537957
21
15.5313156
0
LINE
8
DEFAULT_255_1_234
10
7.0132306
20
15.8116232
11
6.973875
21
15.7794963
0
ARC
8
DEFAULT_255_1_234
10
7.1906772
20
15.618923
40
0.3681349
50
93.7182161
51
120.2538958
0
ARC
8
DEFAULT_255_1_234
10
7.2001035
20
15.5381394
40
0.449379
50
89.9660152
51
94.2496022
0
ARC
8
DEFAULT_255_1_234
10
7.2041769
20
15.5970549
40
0.390482
50
73.8043271
51
90.5585896
0
ARC
8
DEFAULT_255_1_234
10
7.2276666
20
15.6828602
40
0.3015334
50
41.3071453
51
73.5430202
0
ARC
8
DEFAULT_255_1_234
10
7.1860493
20
15.6470324
40
0.3564457
50
13.5075983
51
41.2174222
0
ARC
8
DEFAULT_255_1_234
10
7.0218697
20
15.6040486
40
0.5261351
50
1.1331335
51
13.8829381
0
ARC
8
DEFAULT_255_1_234
10
6.8807066
20
15.5964665
40
0.6674378
50
359.9919444
51
1.544251
0
ARC
8
DEFAULT_255_1_234
10
7.0083892
20
15.592328
40
0.5397702
50
347.8572367
51
0.4293338
0
ARC
8
DEFAULT_255_1_234
10
7.183421
20
15.5526736
40
0.3603188
50
323.673004
51
348.1672506
0
ARC
8
DEFAULT_255_1_234
10
7.2128718
20
15.5347168
40
0.3259678
50
316.8171152
51
323.1492751
0
ARC
8
DEFAULT_255_1_234
10
7.2189907
20
15.531046
40
0.3189975
50
281.8396411
51
316.5457803
0
ARC
8
DEFAULT_255_1_234
10
7.1814171
20
15.6865762
40
0.4789527
50
269.5770101
51
282.4214771
0
ARC
8
DEFAULT_255_1_234
10
7.1742983
20
15.6652125
40
0.45759
50
256.2427136
51
270.4486331
0
ARC
8
DEFAULT_255_1_234
10
7.1443885
20
15.5452229
40
0.3339303
50
228.9023911
51
256.3314342
0
ARC
8
DEFAULT_255_1_234
10
7.1370117
20
15.5335746
40
0.32031
50
193.753695
51
228.5271154
0
ARC
8
DEFAULT_255_1_234
10
7.2608071
20
15.56988
40
0.4492253
50
184.924711
51
194.497588
0
ARC
8
DEFAULT_255_1_234
10
7.2800638
20
15.5734591
40
0.3289787
50
187.3600538
51
198.6732863
0
ARC
8
DEFAULT_255_1_234
10
7.1750932
20
15.5370674
40
0.217884
50
198.4451669
51
217.794479
0
ARC
8
DEFAULT_255_1_234
10
7.1455107
20
15.5161085
40
0.1816698
50
218.2887171
51
228.5612368
0
ARC
8
DEFAULT_255_1_234
10
7.1552894
20
15.5292963
40
0.1980329
50
228.9654866
51
258.1234728
0
ARC
8
DEFAULT_255_1_234
10
7.1758604
20
15.6173833
40
0.2884748
50
257.7258293
51
270.401361
0
ARC
8
DEFAULT_255_1_234
10
7.1803491
20
15.5728821
40
0.2439788
50
269.4204404
51
286.4209037
0
ARC
8
DEFAULT_255_1_234
10
7.1951978
20
15.5189657
40
0.1880666
50
286.7251356
51
320.600362
0
ARC
8
DEFAULT_255_1_234
10
7.1568803
20
15.5500595
40
0.2374121
50
320.6712579
51
344.5441685
0
ARC
8
DEFAULT_255_1_234
10
7.0412129
20
15.5840045
40
0.3579479
50
344.2412205
51
356.7357071
0
ARC
8
DEFAULT_255_1_234
10
6.9163278
20
15.5943444
40
0.4832297
50
356.3548756
51
0.0500261
0
ARC
8
DEFAULT_255_1_234
10
7.0499787
20
15.597465
40
0.3495889
50
359.5576869
51
12.953486
0
ARC
8
DEFAULT_255_1_234
10
7.1554684
20
15.6230434
40
0.2410532
50
12.6490276
51
41.6081334
0
ARC
8
DEFAULT_255_1_234
10
7.1785055
20
15.6426321
40
0.2108218
50
41.7850273
51
85.9892764
0
ARC
8
DEFAULT_255_1_234
10
7.1661792
20
15.5613462
40
0.2928454
50
84.6957577
51
90.0676183
0
ARC
8
DEFAULT_255_1_234
10
7.1638276
20
15.4944716
40
0.3597255
50
89.6804936
51
99.1614436
0
ARC
8
DEFAULT_255_1_234
10
7.1432907
20
15.6172131
40
0.235281
50
98.9830931
51
113.8908934
0
ARC
8
DEFAULT_255_1_234
10
7.1203317
20
15.6713587
40
0.176479
50
114.1950727
51
127.3641004
0
LINE
8
DEFAULT_255_1_234
10
8.0348677
20
15.7811026
11
8.0348677
21
15.6598234
0
LINE
8
DEFAULT_255_1_234
10
8.0348677
20
15.6598234
11
7.6429188
21
15.6598234
0
LINE
8
DEFAULT_255_1_234
10
7.6429188
20
15.6598234
11
7.6429188
21
15.7811026
0
LINE
8
DEFAULT_255_1_234
10
7.6429188
20
15.7811026
11
8.0348677
21
15.7811026
0
LINE
8
DEFAULT_255_1_234
10
4.4189902
20
21.6848211
11
4.4189902
21
20.5154
0
LINE
8
DEFAULT_255_1_234
10
4.4189902
20
20.5154
11
4.2647808
21
20.5154
0
LINE
8
DEFAULT_255_1_234
10
4.2647808
20
20.5154
11
4.2647808
21
21.6848211
0
LINE
8
DEFAULT_255_1_234
10
4.2647808
20
21.6848211
11
4.4189902
21
21.6848211
0
LINE
8
DEFAULT_255_1_234
10
5.5996557
20
21.6848211
11
5.5996557
21
20.5154
0
LINE
8
DEFAULT_255_1_234
10
5.5996557
20
20.5154
11
5.4446432
21
20.5154
0
LINE
8
DEFAULT_255_1_234
10
5.4446432
20
20.5154
11
4.8559167
21
21.416561
0
LINE
8
DEFAULT_255_1_234
10
4.8559167
20
21.416561
11
4.8559167
21
20.5154
0
LINE
8
DEFAULT_255_1_234
10
4.8559167
20
20.5154
11
4.7009042
21
20.5154
0
LINE
8
DEFAULT_255_1_234
10
4.7009042
20
20.5154
11
4.7009042
21
21.6848211
0
LINE
8
DEFAULT_255_1_234
10
4.7009042
20
21.6848211
11
4.8559167
21
21.6848211
0
LINE
8
DEFAULT_255_1_234
10
4.8559167
20
21.6848211
11
5.4462495
21
20.7796442
0
LINE
8
DEFAULT_255_1_234
10
5.4462495
20
20.7796442
11
5.4462495
21
21.6848211
0
LINE
8
DEFAULT_255_1_234
10
5.4462495
20
21.6848211
11
5.5996557
21
21.6848211
0
LINE
8
DEFAULT_255_1_234
10
6.3233153
20
21.6904433
11
6.3233153
21
20.5154
0
LINE
8
DEFAULT_255_1_234
10
6.3233153
20
20.5154
11
6.173925
21
20.5154
0
LINE
8
DEFAULT_255_1_234
10
6.173925
20
20.5154
11
6.173925
21
21.5057133
0
LINE
8
DEFAULT_255_1_234
10
6.173925
20
21.5057133
11
5.8743412
21
21.3956785
0
LINE
8
DEFAULT_255_1_234
10
5.8743412
20
21.3956785
11
5.8743412
21
21.5306117
0
LINE
8
DEFAULT_255_1_234
10
5.8743412
20
21.5306117
11
6.3000233
21
21.6904433
0
LINE
8
DEFAULT_255_1_234
10
6.3000233
20
21.6904433
11
6.3233153
21
21.6904433
0
LINE
8
DEFAULT_255_1_234
10
6.945775
20
21.0711963
11
6.8269053
21
21.1017169
0
LINE
8
DEFAULT_255_1_234
10
6.8269053
20
21.1017169
11
6.8863402
21
21.6848211
0
LINE
8
DEFAULT_255_1_234
10
6.8863402
20
21.6848211
11
7.4855079
21
21.6848211
0
LINE
8
DEFAULT_255_1_234
10
7.4855079
20
21.6848211
11
7.4855079
21
21.5474784
0
LINE
8
DEFAULT_255_1_234
10
7.4855079
20
21.5474784
11
7.0124385
21
21.5474784
0
LINE
8
DEFAULT_255_1_234
10
7.0124385
20
21.5474784
11
6.9770988
21
21.2286184
0
LINE
8
DEFAULT_255_1_234
10
6.7851403
20
20.8230156
11
6.9256957
21
20.8230156
0
LINE
8
DEFAULT_255_1_234
10
6.9851306
20
21.1033232
11
6.945775
21
21.0711963
0
ARC
8
DEFAULT_255_1_234
10
7.1625772
20
20.910623
40
0.3681349
50
93.7182161
51
120.2538958
0
ARC
8
DEFAULT_255_1_234
10
7.1720035
20
20.8298394
40
0.449379
50
89.9660152
51
94.2496022
0
ARC
8
DEFAULT_255_1_234
10
7.1760769
20
20.8887549
40
0.390482
50
73.8043271
51
90.5585896
0
ARC
8
DEFAULT_255_1_234
10
7.1995666
20
20.9745602
40
0.3015334
50
41.3071453
51
73.5430202
0
ARC
8
DEFAULT_255_1_234
10
7.1579493
20
20.9387324
40
0.3564457
50
13.5075983
51
41.2174222
0
ARC
8
DEFAULT_255_1_234
10
6.9937697
20
20.8957486
40
0.5261351
50
1.1331335
51
13.8829381
0
ARC
8
DEFAULT_255_1_234
10
6.8526066
20
20.8881665
40
0.6674378
50
359.9919444
51
1.544251
0
ARC
8
DEFAULT_255_1_234
10
6.9802892
20
20.884028
40
0.5397702
50
347.8572367
51
0.4293338
0
ARC
8
DEFAULT_255_1_234
10
7.155321
20
20.8443736
40
0.3603188
50
323.673004
51
348.1672506
0
ARC
8
DEFAULT_255_1_234
10
7.1847718
20
20.8264168
40
0.3259678
50
316.8171152
51
323.1492751
0
ARC
8
DEFAULT_255_1_234
10
7.1908907
20
20.822746
40
0.3189975
50
281.8396411
51
316.5457803
0
ARC
8
DEFAULT_255_1_234
10
7.1533171
20
20.9782762
40
0.4789527
50
269.5770101
51
282.4214771
0
ARC
8
DEFAULT_255_1_234
10
7.1461983
20
20.9569125
40
0.45759
50
256.2427136
51
270.4486331
0
ARC
8
DEFAULT_255_1_234
10
7.1162885
20
20.8369229
40
0.3339303
50
228.9023911
51
256.3314342
0
ARC
8
DEFAULT_255_1_234
10
7.1089117
20
20.8252746
40
0.32031
50
193.753695
51
228.5271154
0
ARC
8
DEFAULT_255_1_234
10
7.2327071
20
20.86158
40
0.4492253
50
184.924711
51
194.497588
0
ARC
8
DEFAULT_255_1_234
10
7.2519638
20
20.8651591
40
0.3289787
50
187.3600538
51
198.6732863
0
ARC
8
DEFAULT_255_1_234
10
7.1469932
20
20.8287674
40
0.217884
50
198.4451669
51
217.794479
0
ARC
8
DEFAULT_255_1_234
10
7.1174107
20
20.8078085
40
0.1816698
50
218.2887171
51
228.5612368
0
ARC
8
DEFAULT_255_1_234
10
7.1271894
20
20.8209963
40
0.1980329
50
228.9654866
51
258.1234728
0
ARC
8
DEFAULT_255_1_234
10
7.1477604
20
20.9090833
40
0.2884748
50
257.7258293
51
270.401361
0
ARC
8
DEFAULT_255_1_234
10
7.1522491
20
20.8645821
40
0.2439788
50
269.4204404
51
286.4209037
0
ARC
8
DEFAULT_255_1_234
10
7.1670978
20
20.8106657
40
0.1880666
50
286.7251356
51
320.600362
0
ARC
8
DEFAULT_255_1_234
10
7.1287803
20
20.8417595
40
0.2374121
50
320.6712579
51
344.5441685
0
ARC
8
DEFAULT_255_1_234
10
7.0131129
20
20.8757045
40
0.3579479
50
344.2412205
51
356.7357071
0
ARC
8
DEFAULT_255_1_234
10
6.8882278
20
20.8860444
40
0.4832297
50
356.3548756
51
0.0500261
0
ARC
8
DEFAULT_255_1_234
10
7.0218787
20
20.889165
40
0.3495889
50
359.5576869
51
12.953486
0
ARC
8
DEFAULT_255_1_234
10
7.1273684
20
20.9147434
40
0.2410532
50
12.6490276
51
41.6081334
0
ARC
8
DEFAULT_255_1_234
10
7.1504055
20
20.9343321
40
0.2108218
50
41.7850273
51
85.9892764
0
ARC
8
DEFAULT_255_1_234
10
7.1380792
20
20.8530462
40
0.2928454
50
84.6957577
51
90.0676183
0
ARC
8
DEFAULT_255_1_234
10
7.1357276
20
20.7861716
40
0.3597255
50
89.6804936
51
99.1614436
0
ARC
8
DEFAULT_255_1_234
10
7.1151907
20
20.9089131
40
0.235281
50
98.9830931
51
113.8908934
0
ARC
8
DEFAULT_255_1_234
10
7.0922317
20
20.9630587
40
0.176479
50
114.1950727
51
127.3641004
0
LINE
8
DEFAULT_255_1_234
10
8.1232279
20
21.4840276
11
8.1232279
21
21.1426788
0
LINE
8
DEFAULT_255_1_234
10
8.1232279
20
21.1426788
11
8.4493165
21
21.1426788
0
LINE
8
DEFAULT_255_1_234
10
8.4493165
20
21.1426788
11
8.4493165
21
21.0021233
0
LINE
8
DEFAULT_255_1_234
10
8.4493165
20
21.0021233
11
8.1232279
21
21.0021233
0
LINE
8
DEFAULT_255_1_234
10
8.1232279
20
21.0021233
11
8.1232279
21
20.6326634
0
LINE
8
DEFAULT_255_1_234
10
8.1232279
20
20.6326634
11
7.9738375
21
20.6326634
0
LINE
8
DEFAULT_255_1_234
10
7.9738375
20
20.6326634
11
7.9738375
21
21.0021233
0
LINE
8
DEFAULT_255_1_234
10
7.9738375
20
21.0021233
11
7.647749
21
21.0021233
0
LINE
8
DEFAULT_255_1_234
10
7.647749
20
21.0021233
11
7.647749
21
21.1426788
0
LINE
8
DEFAULT_255_1_234
10
7.647749
20
21.1426788
11
7.9738375
21
21.1426788
0
LINE
8
DEFAULT_255_1_234
10
7.9738375
20
21.1426788
11
7.9738375
21
21.4840276
0
LINE
8
DEFAULT_255_1_234
10
7.9738375
20
21.4840276
11
8.1232279
21
21.4840276
0
LINE
8
DEFAULT_255_1_234
10
4.4470902
20
26.9764211
11
4.4470902
21
25.807
0
LINE
8
DEFAULT_255_1_234
10
4.4470902
20
25.807
11
4.2928808
21
25.807
0
LINE
8
DEFAULT_255_1_234
10
4.2928808
20
25.807
11
4.2928808
21
26.9764211
0
LINE
8
DEFAULT_255_1_234
10
4.2928808
20
26.9764211
11
4.4470902
21
26.9764211
0
LINE
8
DEFAULT_255_1_234
10
5.6277557
20
26.9764211
11
5.6277557
21
25.807
0
LINE
8
DEFAULT_255_1_234
10
5.6277557
20
25.807
11
5.4727432
21
25.807
0
LINE
8
DEFAULT_255_1_234
10
5.4727432
20
25.807
11
4.8840167
21
26.708161
0
LINE
8
DEFAULT_255_1_234
10
4.8840167
20
26.708161
11
4.8840167
21
25.807
0
LINE
8
DEFAULT_255_1_234
10
4.8840167
20
25.807
11
4.7290042
21
25.807
0
LINE
8
DEFAULT_255_1_234
10
4.7290042
20
25.807
11
4.7290042
21
26.9764211
0
LINE
8
DEFAULT_255_1_234
10
4.7290042
20
26.9764211
11
4.8840167
21
26.9764211
0
LINE
8
DEFAULT_255_1_234
10
4.8840167
20
26.9764211
11
5.4743495
21
26.0712442
0
LINE
8
DEFAULT_255_1_234
10
5.4743495
20
26.0712442
11
5.4743495
21
26.9764211
0
LINE
8
DEFAULT_255_1_234
10
5.4743495
20
26.9764211
11
5.6277557
21
26.9764211
0
LINE
8
DEFAULT_255_1_234
10
6.3514153
20
26.9820433
11
6.3514153
21
25.807
0
LINE
8
DEFAULT_255_1_234
10
6.3514153
20
25.807
11
6.202025
21
25.807
0
LINE
8
DEFAULT_255_1_234
10
6.202025
20
25.807
11
6.202025
21
26.7973133
0
LINE
8
DEFAULT_255_1_234
10
6.202025
20
26.7973133
11
5.9024412
21
26.6872785
0
LINE
8
DEFAULT_255_1_234
10
5.9024412
20
26.6872785
11
5.9024412
21
26.8222117
0
LINE
8
DEFAULT_255_1_234
10
5.9024412
20
26.8222117
11
6.3281233
21
26.9820433
0
LINE
8
DEFAULT_255_1_234
10
6.3281233
20
26.9820433
11
6.3514153
21
26.9820433
0
LINE
8
DEFAULT_255_1_234
10
7.4140143
20
26.9764211
11
7.4140143
21
26.199752
0
LINE
8
DEFAULT_255_1_234
10
7.4140143
20
26.199752
11
7.5762554
21
26.199752
0
LINE
8
DEFAULT_255_1_234
10
7.5762554
20
26.199752
11
7.5762554
21
26.0784728
0
LINE
8
DEFAULT_255_1_234
10
7.5762554
20
26.0784728
11
7.4140143
21
26.0784728
0
LINE
8
DEFAULT_255_1_234
10
7.4140143
20
26.0784728
11
7.4140143
21
25.807
0
LINE
8
DEFAULT_255_1_234
10
7.4140143
20
25.807
11
7.264624
21
25.807
0
LINE
8
DEFAULT_255_1_234
10
7.264624
20
25.807
11
7.264624
21
26.0784728
0
LINE
8
DEFAULT_255_1_234
10
7.264624
20
26.0784728
11
6.7321197
21
26.0784728
0
LINE
8
DEFAULT_255_1_234
10
6.7321197
20
26.0784728
11
6.7321197
21
26.1660187
0
LINE
8
DEFAULT_255_1_234
10
6.7321197
20
26.1660187
11
7.2557891
21
26.9764211
0
LINE
8
DEFAULT_255_1_234
10
7.2557891
20
26.9764211
11
7.4140143
21
26.9764211
0
LINE
8
DEFAULT_255_1_234
10
7.2469542
20
26.7410912
11
6.9007862
21
26.199752
0
LINE
8
DEFAULT_255_1_234
10
6.9007862
20
26.199752
11
7.264624
21
26.199752
0
LINE
8
DEFAULT_255_1_234
10
7.264624
20
26.199752
11
7.264624
21
26.7732181
0
LINE
8
DEFAULT_255_1_234
10
7.264624
20
26.7732181
11
7.2469542
21
26.7410912
0
LINE
8
DEFAULT_255_1_234
10
8.0348677
20
26.3644026
11
8.0348677
21
26.2431234
0
LINE
8
DEFAULT_255_1_234
10
8.0348677
20
26.2431234
11
7.6429188
21
26.2431234
0
LINE
8
DEFAULT_255_1_234
10
7.6429188
20
26.2431234
11
7.6429188
21
26.3644026
0
LINE
8
DEFAULT_255_1_234
10
7.6429188
20
26.3644026
11
8.0348677
21
26.3644026
0
LINE
8
DEFAULT_255_1_234
10
4.4189902
20
32.2681211
11
4.4189902
21
31.0987
0
LINE
8
DEFAULT_255_1_234
10
4.4189902
20
31.0987
11
4.2647808
21
31.0987
0
LINE
8
DEFAULT_255_1_234
10
4.2647808
20
31.0987
11
4.2647808
21
32.2681211
0
LINE
8
DEFAULT_255_1_234
10
4.2647808
20
32.2681211
11
4.4189902
21
32.2681211
0
LINE
8
DEFAULT_255_1_234
10
5.5996557
20
32.2681211
11
5.5996557
21
31.0987
0
LINE
8
DEFAULT_255_1_234
10
5.5996557
20
31.0987
11
5.4446432
21
31.0987
0
LINE
8
DEFAULT_255_1_234
10
5.4446432
20
31.0987
11
4.8559167
21
31.999861
0
LINE
8
DEFAULT_255_1_234
10
4.8559167
20
31.999861
11
4.8559167
21
31.0987
0
LINE
8
DEFAULT_255_1_234
10
4.8559167
20
31.0987
11
4.7009042
21
31.0987
0
LINE
8
DEFAULT_255_1_234
10
4.7009042
20
31.0987
11
4.7009042
21
32.2681211
0
LINE
8
DEFAULT_255_1_234
10
4.7009042
20
32.2681211
11
4.8559167
21
32.2681211
0
LINE
8
DEFAULT_255_1_234
10
4.8559167
20
32.2681211
11
5.4462495
21
31.3629442
0
LINE
8
DEFAULT_255_1_234
10
5.4462495
20
31.3629442
11
5.4462495
21
32.2681211
0
LINE
8
DEFAULT_255_1_234
10
5.4462495
20
32.2681211
11
5.5996557
21
32.2681211
0
LINE
8
DEFAULT_255_1_234
10
6.3233153
20
32.2737433
11
6.3233153
21
31.0987
0
LINE
8
DEFAULT_255_1_234
10
6.3233153
20
31.0987
11
6.173925
21
31.0987
0
LINE
8
DEFAULT_255_1_234
10
6.173925
20
31.0987
11
6.173925
21
32.0890133
0
LINE
8
DEFAULT_255_1_234
10
6.173925
20
32.0890133
11
5.8743412
21
31.9789785
0
LINE
8
DEFAULT_255_1_234
10
5.8743412
20
31.9789785
11
5.8743412
21
32.1139117
0
LINE
8
DEFAULT_255_1_234
10
5.8743412
20
32.1139117
11
6.3000233
21
32.2737433
0
LINE
8
DEFAULT_255_1_234
10
6.3000233
20
32.2737433
11
6.3233153
21
32.2737433
0
LINE
8
DEFAULT_255_1_234
10
7.3859143
20
32.2681211
11
7.3859143
21
31.491452
0
LINE
8
DEFAULT_255_1_234
10
7.3859143
20
31.491452
11
7.5481554
21
31.491452
0
LINE
8
DEFAULT_255_1_234
10
7.5481554
20
31.491452
11
7.5481554
21
31.3701728
0
LINE
8
DEFAULT_255_1_234
10
7.5481554
20
31.3701728
11
7.3859143
21
31.3701728
0
LINE
8
DEFAULT_255_1_234
10
7.3859143
20
31.3701728
11
7.3859143
21
31.0987
0
LINE
8
DEFAULT_255_1_234
10
7.3859143
20
31.0987
11
7.236524
21
31.0987
0
LINE
8
DEFAULT_255_1_234
10
7.236524
20
31.0987
11
7.236524
21
31.3701728
0
LINE
8
DEFAULT_255_1_234
10
7.236524
20
31.3701728
11
6.7040197
21
31.3701728
0
LINE
8
DEFAULT_255_1_234
10
6.7040197
20
31.3701728
11
6.7040197
21
31.4577187
0
LINE
8
DEFAULT_255_1_234
10
6.7040197
20
31.4577187
11
7.2276891
21
32.2681211
0
LINE
8
DEFAULT_255_1_234
10
7.2276891
20
32.2681211
11
7.3859143
21
32.2681211
0
LINE
8
DEFAULT_255_1_234
10
7.2188542
20
32.0327912
11
6.8726862
21
31.491452
0
LINE
8
DEFAULT_255_1_234
10
6.8726862
20
31.491452
11
7.236524
21
31.491452
0
LINE
8
DEFAULT_255_1_234
10
7.236524
20
31.491452
11
7.236524
21
32.0649181
0
LINE
8
DEFAULT_255_1_234
10
7.236524
20
32.0649181
11
7.2188542
21
32.0327912
0
LINE
8
DEFAULT_255_1_234
10
8.1232279
20
32.0673276
11
8.1232279
21
31.7259788
0
LINE
8
DEFAULT_255_1_234
10
8.1232279
20
31.7259788
11
8.4493165
21
31.7259788
0
LINE
8
DEFAULT_255_1_234
10
8.4493165
20
31.7259788
11
8.4493165
21
31.5854233
0
LINE
8
DEFAULT_255_1_234
10
8.4493165
20
31.5854233
11
8.1232279
21
31.5854233
0
LINE
8
DEFAULT_255_1_234
10
8.1232279
20
31.5854233
11
8.1232279
21
31.2159634
0
LINE
8
DEFAULT_255_1_234
10
8.1232279
20
31.2159634
11
7.9738375
21
31.2159634
0
LINE
8
DEFAULT_255_1_234
10
7.9738375
20
31.2159634
11
7.9738375
21
31.5854233
0
LINE
8
DEFAULT_255_1_234
10
7.9738375
20
31.5854233
11
7.647749
21
31.5854233
0
LINE
8
DEFAULT_255_1_234
10
7.647749
20
31.5854233
11
7.647749
21
31.7259788
0
LINE
8
DEFAULT_255_1_234
10
7.647749
20
31.7259788
11
7.9738375
21
31.7259788
0
LINE
8
DEFAULT_255_1_234
10
7.9738375
20
31.7259788
11
7.9738375
21
32.0673276
0
LINE
8
DEFAULT_255_1_234
10
7.9738375
20
32.0673276
11
8.1232279
21
32.0673276
0
LINE
8
DEFAULT_255_1_234
10
4.4470902
20
37.5598211
11
4.4470902
21
36.3904
0
LINE
8
DEFAULT_255_1_234
10
4.4470902
20
36.3904
11
4.2928808
21
36.3904
0
LINE
8
DEFAULT_255_1_234
10
4.2928808
20
36.3904
11
4.2928808
21
37.5598211
0
LINE
8
DEFAULT_255_1_234
10
4.2928808
20
37.5598211
11
4.4470902
21
37.5598211
0
LINE
8
DEFAULT_255_1_234
10
5.6277557
20
37.5598211
11
5.6277557
21
36.3904
0
LINE
8
DEFAULT_255_1_234
10
5.6277557
20
36.3904
11
5.4727432
21
36.3904
0
LINE
8
DEFAULT_255_1_234
10
5.4727432
20
36.3904
11
4.8840167
21
37.291561
0
LINE
8
DEFAULT_255_1_234
10
4.8840167
20
37.291561
11
4.8840167
21
36.3904
0
LINE
8
DEFAULT_255_1_234
10
4.8840167
20
36.3904
11
4.7290042
21
36.3904
0
LINE
8
DEFAULT_255_1_234
10
4.7290042
20
36.3904
11
4.7290042
21
37.5598211
0
LINE
8
DEFAULT_255_1_234
10
4.7290042
20
37.5598211
11
4.8840167
21
37.5598211
0
LINE
8
DEFAULT_255_1_234
10
4.8840167
20
37.5598211
11
5.4743495
21
36.6546442
0
LINE
8
DEFAULT_255_1_234
10
5.4743495
20
36.6546442
11
5.4743495
21
37.5598211
0
LINE
8
DEFAULT_255_1_234
10
5.4743495
20
37.5598211
11
5.6277557
21
37.5598211
0
LINE
8
DEFAULT_255_1_234
10
6.3514153
20
37.5654433
11
6.3514153
21
36.3904
0
LINE
8
DEFAULT_255_1_234
10
6.3514153
20
36.3904
11
6.202025
21
36.3904
0
LINE
8
DEFAULT_255_1_234
10
6.202025
20
36.3904
11
6.202025
21
37.3807133
0
LINE
8
DEFAULT_255_1_234
10
6.202025
20
37.3807133
11
5.9024412
21
37.2706785
0
LINE
8
DEFAULT_255_1_234
10
5.9024412
20
37.2706785
11
5.9024412
21
37.4056117
0
LINE
8
DEFAULT_255_1_234
10
5.9024412
20
37.4056117
11
6.3281233
21
37.5654433
0
LINE
8
DEFAULT_255_1_234
10
6.3281233
20
37.5654433
11
6.3514153
21
37.5654433
0
LINE
8
DEFAULT_255_1_234
10
7.0027893
20
36.9261169
11
7.0027893
21
37.0473962
0
LINE
8
DEFAULT_255_1_234
10
7.0027893
20
37.0473962
11
7.1144305
21
37.0473962
0
LINE
8
DEFAULT_255_1_234
10
6.9240783
20
37.2530087
11
6.7754911
21
37.2530087
0
LINE
8
DEFAULT_255_1_234
10
6.7650499
20
36.6988188
11
6.9144402
21
36.6988188
0
LINE
8
DEFAULT_255_1_234
10
7.1144305
20
36.9261169
11
7.0027893
21
36.9261169
0
ARC
8
DEFAULT_255_1_234
10
7.1115171
20
37.3866713
40
0.3392876
50
270.4919872
51
281.8951556
0
ARC
8
DEFAULT_255_1_234
10
7.1356433
20
37.2764702
40
0.2264817
50
281.6691735
51
301.2943132
0
ARC
8
DEFAULT_255_1_234
10
7.1526643
20
37.2453304
40
0.1910381
50
301.7833094
51
311.7545298
0
ARC
8
DEFAULT_255_1_234
10
7.1618219
20
37.2351748
40
0.1773635
50
311.7323931
51
354.2802411
0
ARC
8
DEFAULT_255_1_234
10
7.0891844
20
37.2476722
40
0.2509385
50
353.0937916
51
0.1181479
0
ARC
8
DEFAULT_255_1_234
10
7.0430629
20
37.2524386
40
0.2970898
50
359.1805295
51
15.0453146
0
ARC
8
DEFAULT_255_1_234
10
7.1776466
20
37.2916992
40
0.1569564
50
13.9577229
51
77.6713066
0
ARC
8
DEFAULT_255_1_234
10
7.1389995
20
37.1531949
40
0.3006298
50
76.1116566
51
90.7026153
0
ARC
8
DEFAULT_255_1_234
10
7.1330833
20
37.1805545
40
0.2732568
50
89.5324876
51
103.531937
0
ARC
8
DEFAULT_255_1_234
10
7.1130278
20
37.2604884
40
0.1908508
50
103.2931773
51
133.5619022
0
ARC
8
DEFAULT_255_1_234
10
7.1085766
20
37.2664375
40
0.1834746
50
133.8349307
51
173.5344437
0
ARC
8
DEFAULT_255_1_234
10
7.1808809
20
37.2536213
40
0.2568033
50
172.5096846
51
180.1366907
0
ARC
8
DEFAULT_255_1_234
10
7.0857703
20
37.2570622
40
0.3103056
50
155.3484492
51
180.7484736
0
ARC
8
DEFAULT_255_1_234
10
7.0808792
20
37.2541846
40
0.3070957
50
131.5744599
51
154.4798489
0
ARC
8
DEFAULT_255_1_234
10
7.1121939
20
37.222531
40
0.3515643
50
96.9875458
51
131.9690667
0
ARC
8
DEFAULT_255_1_234
10
7.1341419
20
37.0979636
40
0.4779224
50
89.8596053
51
97.7825159
0
ARC
8
DEFAULT_255_1_234
10
7.1389482
20
37.0717616
40
0.5041361
50
78.3655447
51
90.4131539
0
ARC
8
DEFAULT_255_1_234
10
7.17474
20
37.2376887
40
0.3344039
50
56.6229102
51
78.638727
0
ARC
8
DEFAULT_255_1_234
10
7.1962344
20
37.2752805
40
0.2912001
50
47.0253525
51
56.0854072
0
ARC
8
DEFAULT_255_1_234
10
7.1982124
20
37.2792223
40
0.2869704
50
10.9208013
51
46.7778124
0
ARC
8
DEFAULT_255_1_234
10
7.061819
20
37.2476857
40
0.426899
50
359.6364486
51
11.6087304
0
ARC
8
DEFAULT_255_1_234
10
7.2453035
20
37.2461752
40
0.243409
50
332.3549906
51
359.7179418
0
ARC
8
DEFAULT_255_1_234
10
7.1802636
20
37.2770142
40
0.3153459
50
325.2333722
51
332.8745602
0
ARC
8
DEFAULT_255_1_234
10
7.195526
20
37.2663828
40
0.2967456
50
292.9802137
51
325.2392345
0
ARC
8
DEFAULT_255_1_234
10
7.1680634
20
37.3197863
40
0.3566604
50
292.5402179
51
293.6924929
0
ARC
8
DEFAULT_255_1_234
10
7.2073229
20
36.6743091
40
0.3307468
50
57.6435486
51
72.8625112
0
ARC
8
DEFAULT_255_1_234
10
7.2427729
20
36.7317549
40
0.2632492
50
36.7248896
51
57.4697979
0
ARC
8
DEFAULT_255_1_234
10
7.2416362
20
36.733022
40
0.2634081
50
8.0545065
51
36.356114
0
ARC
8
DEFAULT_255_1_234
10
7.1553547
20
36.7175174
40
0.3510261
50
359.8320645
51
8.5869982
0
ARC
8
DEFAULT_255_1_234
10
7.1178323
20
36.7127101
40
0.3885653
50
343.9829931
51
0.5571613
0
ARC
8
DEFAULT_255_1_234
10
7.2064521
20
36.6884438
40
0.2966924
50
311.6359546
51
343.7651759
0
ARC
8
DEFAULT_255_1_234
10
7.168609
20
36.7311102
40
0.3537231
50
279.7829875
51
311.6255694
0
ARC
8
DEFAULT_255_1_234
10
7.1384866
20
36.874828
40
0.5004971
50
269.7286406
51
280.3856417
0
ARC
8
DEFAULT_255_1_234
10
7.1322939
20
36.8706996
40
0.4963778
50
256.6828919
51
270.4412052
0
ARC
8
DEFAULT_255_1_234
10
7.0984234
20
36.7322394
40
0.3538406
50
229.4223008
51
256.8556159
0
ARC
8
DEFAULT_255_1_234
10
7.0569627
20
36.6855736
40
0.2914296
50
181.818294
51
229.6455059
0
ARC
8
DEFAULT_255_1_234
10
7.1609583
20
36.6986496
40
0.3959084
50
179.9755256
51
183.2323064
0
ARC
8
DEFAULT_255_1_234
10
7.1437329
20
36.6966037
40
0.2293034
50
179.4465117
51
196.2869258
0
ARC
8
DEFAULT_255_1_234
10
7.0949737
20
36.6832651
40
0.1787621
50
196.5661473
51
227.705904
0
ARC
8
DEFAULT_255_1_234
10
7.1113832
20
36.7016155
40
0.2033784
50
227.7652068
51
257.8762805
0
ARC
8
DEFAULT_255_1_234
10
7.1338802
20
36.7959156
40
0.3003081
50
257.4584385
51
270.426602
0
ARC
8
DEFAULT_255_1_234
10
7.1384368
20
36.8248996
40
0.329292
50
269.5962073
51
280.8789248
0
ARC
8
DEFAULT_255_1_234
10
7.1613897
20
36.7102685
40
0.2123908
50
280.6346389
51
299.8595945
0
ARC
8
DEFAULT_255_1_234
10
7.1804804
20
36.6740212
40
0.171457
50
300.3576302
51
314.5517981
0
ARC
8
DEFAULT_255_1_234
10
7.1721864
20
36.6800919
40
0.1816095
50
315.0728369
51
345.0431014
0
ARC
8
DEFAULT_255_1_234
10
7.0798678
20
36.7069841
40
0.2777492
50
344.5986631
51
357.9269593
0
ARC
8
DEFAULT_255_1_234
10
6.9903005
20
36.7131276
40
0.3674917
50
357.4748886
51
0.0231117
0
ARC
8
DEFAULT_255_1_234
10
7.0926114
20
36.7155679
40
0.2651907
50
359.5047933
51
13.4239635
0
ARC
8
DEFAULT_255_1_234
10
7.1792758
20
36.7377478
40
0.1757509
50
12.9498199
51
48.7551375
0
ARC
8
DEFAULT_255_1_234
10
7.1610492
20
36.71284
40
0.2065134
50
49.5088623
51
72.1836453
0
ARC
8
DEFAULT_255_1_234
10
7.1252644
20
36.6066291
40
0.3185836
50
71.9010081
51
84.3554254
0
ARC
8
DEFAULT_255_1_234
10
7.1091276
20
36.4705326
40
0.4556151
50
84.0193428
51
89.333121
0
LINE
8
DEFAULT_255_1_234
10
8.0348677
20
36.9478026
11
8.0348677
21
36.8265234
0
LINE
8
DEFAULT_255_1_234
10
8.0348677
20
36.8265234
11
7.6429188
21
36.8265234
0
LINE
8
DEFAULT_255_1_234
10
7.6429188
20
36.8265234
11
7.6429188
21
36.9478026
0
LINE
8
DEFAULT_255_1_234
10
7.6429188
20
36.9478026
11
8.0348677
21
36.9478026
0
LINE
8
DEFAULT_255_1_234
10
4.4189902
20
42.8514211
11
4.4189902
21
41.682
0
LINE
8
DEFAULT_255_1_234
10
4.4189902
20
41.682
11
4.2647808
21
41.682
0
LINE
8
DEFAULT_255_1_234
10
4.2647808
20
41.682
11
4.2647808
21
42.8514211
0
LINE
8
DEFAULT_255_1_234
10
4.2647808
20
42.8514211
11
4.4189902
21
42.8514211
0
LINE
8
DEFAULT_255_1_234
10
5.5996557
20
42.8514211
11
5.5996557
21
41.682
0
LINE
8
DEFAULT_255_1_234
10
5.5996557
20
41.682
11
5.4446432
21
41.682
0
LINE
8
DEFAULT_255_1_234
10
5.4446432
20
41.682
11
4.8559167
21
42.583161
0
LINE
8
DEFAULT_255_1_234
10
4.8559167
20
42.583161
11
4.8559167
21
41.682
0
LINE
8
DEFAULT_255_1_234
10
4.8559167
20
41.682
11
4.7009042
21
41.682
0
LINE
8
DEFAULT_255_1_234
10
4.7009042
20
41.682
11
4.7009042
21
42.8514211
0
LINE
8
DEFAULT_255_1_234
10
4.7009042
20
42.8514211
11
4.8559167
21
42.8514211
0
LINE
8
DEFAULT_255_1_234
10
4.8559167
20
42.8514211
11
5.4462495
21
41.9462442
0
LINE
8
DEFAULT_255_1_234
10
5.4462495
20
41.9462442
11
5.4462495
21
42.8514211
0
LINE
8
DEFAULT_255_1_234
10
5.4462495
20
42.8514211
11
5.5996557
21
42.8514211
0
LINE
8
DEFAULT_255_1_234
10
6.3233153
20
42.8570433
11
6.3233153
21
41.682
0
LINE
8
DEFAULT_255_1_234
10
6.3233153
20
41.682
11
6.173925
21
41.682
0
LINE
8
DEFAULT_255_1_234
10
6.173925
20
41.682
11
6.173925
21
42.6723133
0
LINE
8
DEFAULT_255_1_234
10
6.173925
20
42.6723133
11
5.8743412
21
42.5622785
0
LINE
8
DEFAULT_255_1_234
10
5.8743412
20
42.5622785
11
5.8743412
21
42.6972117
0
LINE
8
DEFAULT_255_1_234
10
5.8743412
20
42.6972117
11
6.3000233
21
42.8570433
0
LINE
8
DEFAULT_255_1_234
10
6.3000233
20
42.8570433
11
6.3233153
21
42.8570433
0
LINE
8
DEFAULT_255_1_234
10
6.9746893
20
42.2177169
11
6.9746893
21
42.3389962
0
LINE
8
DEFAULT_255_1_234
10
6.9746893
20
42.3389962
11
7.0863305
21
42.3389962
0
LINE
8
DEFAULT_255_1_234
10
6.8959783
20
42.5446087
11
6.7473911
21
42.5446087
0
LINE
8
DEFAULT_255_1_234
10
6.7369499
20
41.9904187
11
6.8863402
21
41.9904187
0
LINE
8
DEFAULT_255_1_234
10
7.0863305
20
42.2177169
11
6.9746893
21
42.2177169
0
ARC
8
DEFAULT_255_1_234
10
7.0834171
20
42.6782713
40
0.3392876
50
270.4919872
51
281.8951556
0
ARC
8
DEFAULT_255_1_234
10
7.1075433
20
42.5680702
40
0.2264817
50
281.6691735
51
301.2943132
0
ARC
8
DEFAULT_255_1_234
10
7.1245643
20
42.5369304
40
0.1910381
50
301.7833094
51
311.7545298
0
ARC
8
DEFAULT_255_1_234
10
7.1337219
20
42.5267748
40
0.1773635
50
311.7323931
51
354.2802411
0
ARC
8
DEFAULT_255_1_234
10
7.0610844
20
42.5392722
40
0.2509385
50
353.0937916
51
0.1181479
0
ARC
8
DEFAULT_255_1_234
10
7.0149629
20
42.5440386
40
0.2970898
50
359.1805295
51
15.0453146
0
ARC
8
DEFAULT_255_1_234
10
7.1495466
20
42.5832992
40
0.1569564
50
13.9577229
51
77.6713066
0
ARC
8
DEFAULT_255_1_234
10
7.1108995
20
42.4447949
40
0.3006298
50
76.1116566
51
90.7026153
0
ARC
8
DEFAULT_255_1_234
10
7.1049833
20
42.4721545
40
0.2732568
50
89.5324876
51
103.531937
0
ARC
8
DEFAULT_255_1_234
10
7.0849278
20
42.5520884
40
0.1908508
50
103.2931773
51
133.5619022
0
ARC
8
DEFAULT_255_1_234
10
7.0804766
20
42.5580375
40
0.1834746
50
133.8349307
51
173.5344437
0
ARC
8
DEFAULT_255_1_234
10
7.1527809
20
42.5452213
40
0.2568033
50
172.5096846
51
180.1366907
0
ARC
8
DEFAULT_255_1_234
10
7.0576703
20
42.5486622
40
0.3103056
50
155.3484492
51
180.7484736
0
ARC
8
DEFAULT_255_1_234
10
7.0527792
20
42.5457846
40
0.3070957
50
131.5744599
51
154.4798489
0
ARC
8
DEFAULT_255_1_234
10
7.0840939
20
42.514131
40
0.3515643
50
96.9875458
51
131.9690667
0
ARC
8
DEFAULT_255_1_234
10
7.1060419
20
42.3895636
40
0.4779224
50
89.8596053
51
97.7825159
0
ARC
8
DEFAULT_255_1_234
10
7.1108482
20
42.3633616
40
0.5041361
50
78.3655447
51
90.4131539
0
ARC
8
DEFAULT_255_1_234
10
7.14664
20
42.5292887
40
0.3344039
50
56.6229102
51
78.638727
0
ARC
8
DEFAULT_255_1_234
10
7.1681344
20
42.5668805
40
0.2912001
50
47.0253525
51
56.0854072
0
ARC
8
DEFAULT_255_1_234
10
7.1701124
20
42.5708223
40
0.2869704
50
10.9208013
51
46.7778124
0
ARC
8
DEFAULT_255_1_234
10
7.033719
20
42.5392857
40
0.426899
50
359.6364486
51
11.6087304
0
ARC
8
DEFAULT_255_1_234
10
7.2172035
20
42.5377752
40
0.243409
50
332.3549906
51
359.7179418
0
ARC
8
DEFAULT_255_1_234
10
7.1521636
20
42.5686142
40
0.3153459
50
325.2333722
51
332.8745602
0
ARC
8
DEFAULT_255_1_234
10
7.167426
20
42.5579828
40
0.2967456
50
292.9802137
51
325.2392345
0
ARC
8
DEFAULT_255_1_234
10
7.1399634
20
42.6113863
40
0.3566604
50
292.5402179
51
293.6924929
0
ARC
8
DEFAULT_255_1_234
10
7.1792229
20
41.9659091
40
0.3307468
50
57.6435486
51
72.8625112
0
ARC
8
DEFAULT_255_1_234
10
7.2146729
20
42.0233549
40
0.2632492
50
36.7248896
51
57.4697979
0
ARC
8
DEFAULT_255_1_234
10
7.2135362
20
42.024622
40
0.2634081
50
8.0545065
51
36.356114
0
ARC
8
DEFAULT_255_1_234
10
7.1272547
20
42.0091174
40
0.3510261
50
359.8320645
51
8.5869982
0
ARC
8
DEFAULT_255_1_234
10
7.0897323
20
42.0043101
40
0.3885653
50
343.9829931
51
0.5571613
0
ARC
8
DEFAULT_255_1_234
10
7.1783521
20
41.9800438
40
0.2966924
50
311.6359546
51
343.7651759
0
ARC
8
DEFAULT_255_1_234
10
7.140509
20
42.0227102
40
0.3537231
50
279.7829875
51
311.6255694
0
ARC
8
DEFAULT_255_1_234
10
7.1103866
20
42.166428
40
0.5004971
50
269.7286406
51
280.3856417
0
ARC
8
DEFAULT_255_1_234
10
7.1041939
20
42.1622996
40
0.4963778
50
256.6828919
51
270.4412052
0
ARC
8
DEFAULT_255_1_234
10
7.0703234
20
42.0238394
40
0.3538406
50
229.4223008
51
256.8556159
0
ARC
8
DEFAULT_255_1_234
10
7.0288627
20
41.9771736
40
0.2914296
50
181.818294
51
229.6455059
0
ARC
8
DEFAULT_255_1_234
10
7.1328583
20
41.9902496
40
0.3959084
50
179.9755256
51
183.2323064
0
ARC
8
DEFAULT_255_1_234
10
7.1156329
20
41.9882037
40
0.2293034
50
179.4465117
51
196.2869258
0
ARC
8
DEFAULT_255_1_234
10
7.0668737
20
41.9748651
40
0.1787621
50
196.5661473
51
227.705904
0
ARC
8
DEFAULT_255_1_234
10
7.0832832
20
41.9932155
40
0.2033784
50
227.7652068
51
257.8762805
0
ARC
8
DEFAULT_255_1_234
10
7.1057802
20
42.0875156
40
0.3003081
50
257.4584385
51
270.426602
0
ARC
8
DEFAULT_255_1_234
10
7.1103368
20
42.1164996
40
0.329292
50
269.5962073
51
280.8789248
0
ARC
8
DEFAULT_255_1_234
10
7.1332897
20
42.0018685
40
0.2123908
50
280.6346389
51
299.8595945
0
ARC
8
DEFAULT_255_1_234
10
7.1523804
20
41.9656212
40
0.171457
50
300.3576302
51
314.5517981
0
ARC
8
DEFAULT_255_1_234
10
7.1440864
20
41.9716919
40
0.1816095
50
315.0728369
51
345.0431014
0
ARC
8
DEFAULT_255_1_234
10
7.0517678
20
41.9985841
40
0.2777492
50
344.5986631
51
357.9269593
0
ARC
8
DEFAULT_255_1_234
10
6.9622005
20
42.0047276
40
0.3674917
50
357.4748886
51
0.0231117
0
ARC
8
DEFAULT_255_1_234
10
7.0645114
20
42.0071679
40
0.2651907
50
359.5047933
51
13.4239635
0
ARC
8
DEFAULT_255_1_234
10
7.1511758
20
42.0293478
40
0.1757509
50
12.9498199
51
48.7551375
0
ARC
8
DEFAULT_255_1_234
10
7.1329492
20
42.00444
40
0.2065134
50
49.5088623
51
72.1836453
0
ARC
8
DEFAULT_255_1_234
10
7.0971644
20
41.8982291
40
0.3185836
50
71.9010081
51
84.3554254
0
ARC
8
DEFAULT_255_1_234
10
7.0810276
20
41.7621326
40
0.4556151
50
84.0193428
51
89.333121
0
LINE
8
DEFAULT_255_1_234
10
8.1232279
20
42.6506276
11
8.1232279
21
42.3092788
0
LINE
8
DEFAULT_255_1_234
10
8.1232279
20
42.3092788
11
8.4493165
21
42.3092788
0
LINE
8
DEFAULT_255_1_234
10
8.4493165
20
42.3092788
11
8.4493165
21
42.1687233
0
LINE
8
DEFAULT_255_1_234
10
8.4493165
20
42.1687233
11
8.1232279
21
42.1687233
0
LINE
8
DEFAULT_255_1_234
10
8.1232279
20
42.1687233
11
8.1232279
21
41.7992634
0
LINE
8
DEFAULT_255_1_234
10
8.1232279
20
41.7992634
11
7.9738375
21
41.7992634
0
LINE
8
DEFAULT_255_1_234
10
7.9738375
20
41.7992634
11
7.9738375
21
42.1687233
0
LINE
8
DEFAULT_255_1_234
10
7.9738375
20
42.1687233
11
7.647749
21
42.1687233
0
LINE
8
DEFAULT_255_1_234
10
7.647749
20
42.1687233
11
7.647749
21
42.3092788
0
LINE
8
DEFAULT_255_1_234
10
7.647749
20
42.3092788
11
7.9738375
21
42.3092788
0
LINE
8
DEFAULT_255_1_234
10
7.9738375
20
42.3092788
11
7.9738375
21
42.6506276
0
LINE
8
DEFAULT_255_1_234
10
7.9738375
20
42.6506276
11
8.1232279
21
42.6506276
0
LINE
8
DEFAULT_255_1_234
10
4.4470902
20
48.1431211
11
4.4470902
21
46.9737
0
LINE
8
DEFAULT_255_1_234
10
4.4470902
20
46.9737
11
4.2928808
21
46.9737
0
LINE
8
DEFAULT_255_1_234
10
4.2928808
20
46.9737
11
4.2928808
21
48.1431211
0
LINE
8
DEFAULT_255_1_234
10
4.2928808
20
48.1431211
11
4.4470902
21
48.1431211
0
LINE
8
DEFAULT_255_1_234
10
5.6277557
20
48.1431211
11
5.6277557
21
46.9737
0
LINE
8
DEFAULT_255_1_234
10
5.6277557
20
46.9737
11
5.4727432
21
46.9737
0
LINE
8
DEFAULT_255_1_234
10
5.4727432
20
46.9737
11
4.8840167
21
47.874861
0
LINE
8
DEFAULT_255_1_234
10
4.8840167
20
47.874861
11
4.8840167
21
46.9737
0
LINE
8
DEFAULT_255_1_234
10
4.8840167
20
46.9737
11
4.7290042
21
46.9737
0
LINE
8
DEFAULT_255_1_234
10
4.7290042
20
46.9737
11
4.7290042
21
48.1431211
0
LINE
8
DEFAULT_255_1_234
10
4.7290042
20
48.1431211
11
4.8840167
21
48.1431211
0
LINE
8
DEFAULT_255_1_234
10
4.8840167
20
48.1431211
11
5.4743495
21
47.2379442
0
LINE
8
DEFAULT_255_1_234
10
5.4743495
20
47.2379442
11
5.4743495
21
48.1431211
0
LINE
8
DEFAULT_255_1_234
10
5.4743495
20
48.1431211
11
5.6277557
21
48.1431211
0
LINE
8
DEFAULT_255_1_234
10
6.3514153
20
48.1487433
11
6.3514153
21
46.9737
0
LINE
8
DEFAULT_255_1_234
10
6.3514153
20
46.9737
11
6.202025
21
46.9737
0
LINE
8
DEFAULT_255_1_234
10
6.202025
20
46.9737
11
6.202025
21
47.9640133
0
LINE
8
DEFAULT_255_1_234
10
6.202025
20
47.9640133
11
5.9024412
21
47.8539785
0
LINE
8
DEFAULT_255_1_234
10
5.9024412
20
47.8539785
11
5.9024412
21
47.9889117
0
LINE
8
DEFAULT_255_1_234
10
5.9024412
20
47.9889117
11
6.3281233
21
48.1487433
0
LINE
8
DEFAULT_255_1_234
10
6.3281233
20
48.1487433
11
6.3514153
21
48.1487433
0
LINE
8
DEFAULT_255_1_234
10
7.5529634
20
47.0949792
11
7.5529634
21
46.9737
0
LINE
8
DEFAULT_255_1_234
10
7.5529634
20
46.9737
11
6.7867355
21
46.9737
0
LINE
8
DEFAULT_255_1_234
10
6.7867355
20
46.9737
11
6.7867355
21
47.0805221
0
LINE
8
DEFAULT_255_1_234
10
6.7867355
20
47.0805221
11
7.1915352
21
47.5302995
0
LINE
8
DEFAULT_255_1_234
10
6.9128338
20
47.7985595
11
6.7642467
21
47.7985595
0
LINE
8
DEFAULT_255_1_234
10
7.2790811
20
47.4347218
11
6.9658433
21
47.0949792
0
LINE
8
DEFAULT_255_1_234
10
6.9658433
20
47.0949792
11
7.5529634
21
47.0949792
0
ARC
8
DEFAULT_255_1_234
10
5.8425185
20
48.7232527
40
1.8008286
50
318.5132453
51
320.7828378
0
ARC
8
DEFAULT_255_1_234
10
6.3712159
20
48.2929426
40
1.1191493
50
320.7372736
51
323.9737074
0
ARC
8
DEFAULT_255_1_234
10
6.7632016
20
48.0089361
40
0.6350923
50
323.8961724
51
328.6421089
0
ARC
8
DEFAULT_255_1_234
10
6.9678611
20
47.8827031
40
0.3946393
50
328.8299013
51
331.789948
0
ARC
8
DEFAULT_255_1_234
10
7.067579
20
47.8312509
40
0.2824501
50
331.4255242
51
352.9364833
0
ARC
8
DEFAULT_255_1_234
10
7.081229
20
47.8281976
40
0.2685315
50
353.2248685
51
0.0169286
0
ARC
8
DEFAULT_255_1_234
10
7.1022167
20
47.830495
40
0.2475536
50
359.4866256
51
15.9339782
0
ARC
8
DEFAULT_255_1_234
10
7.1529152
20
47.8441286
40
0.1950618
50
16.1714718
51
43.5284424
0
ARC
8
DEFAULT_255_1_234
10
7.1606461
20
47.8518573
40
0.184134
50
43.4415429
51
83.1661404
0
ARC
8
DEFAULT_255_1_234
10
7.1472379
20
47.7781771
40
0.258926
50
82.160215
51
90.1505798
0
ARC
8
DEFAULT_255_1_234
10
7.1440807
20
47.7244865
40
0.3126255
50
89.5460705
51
102.5418777
0
ARC
8
DEFAULT_255_1_234
10
7.1197893
20
47.8275665
40
0.2067346
50
102.1739365
51
129.2061916
0
ARC
8
DEFAULT_255_1_234
10
7.1118964
20
47.8400094
40
0.1921118
50
129.7279328
51
135.7542026
0
ARC
8
DEFAULT_255_1_234
10
7.1240492
20
47.8303045
40
0.2075944
50
136.175737
51
166.3674722
0
ARC
8
DEFAULT_255_1_234
10
7.2247411
20
47.8033182
40
0.3118201
50
165.9092917
51
178.8683903
0
ARC
8
DEFAULT_255_1_234
10
7.3112273
20
47.7986179
40
0.3983935
50
178.438168
51
180.0083905
0
ARC
8
DEFAULT_255_1_234
10
7.1710875
20
47.8025231
40
0.4068601
50
163.2878735
51
180.5581814
0
ARC
8
DEFAULT_255_1_234
10
7.0909136
20
47.824584
40
0.3237344
50
133.454115
51
162.9470031
0
ARC
8
DEFAULT_255_1_234
10
7.1087677
20
47.8056
40
0.349795
50
100.7869394
51
133.4384016
0
ARC
8
DEFAULT_255_1_234
10
7.1435449
20
47.6507319
40
0.5084616
50
89.6605301
51
101.3704185
0
ARC
8
DEFAULT_255_1_234
10
7.1501788
20
47.6568496
40
0.502348
50
78.2171172
51
90.4130393
0
ARC
8
DEFAULT_255_1_234
10
7.1856866
20
47.8192637
40
0.3361092
50
55.9268222
51
78.4888551
0
ARC
8
DEFAULT_255_1_234
10
7.2053306
20
47.8531324
40
0.2970617
50
47.9292255
51
55.4054003
0
ARC
8
DEFAULT_255_1_234
10
7.2154867
20
47.8634502
40
0.2825983
50
4.3347696
51
48.0560701
0
ARC
8
DEFAULT_255_1_234
10
7.105926
20
47.8464601
40
0.393225
50
359.925209
51
5.5967654
0
ARC
8
DEFAULT_255_1_234
10
7.1488152
20
47.8520816
40
0.3503892
50
337.8914096
51
358.9967724
0
ARC
8
DEFAULT_255_1_234
10
6.8774564
20
47.9567706
40
0.6412172
50
326.9135351
51
338.3505194
0
ARC
8
DEFAULT_255_1_234
10
6.4788868
20
48.2122284
40
1.1146189
50
319.6472867
51
327.095818
0
ARC
8
DEFAULT_255_1_234
10
6.0955871
20
48.5284
40
1.6114559
50
317.2586784
51
319.9046139
0
LINE
8
DEFAULT_255_1_234
10
8.0348677
20
47.5311026
11
8.0348677
21
47.4098234
0
LINE
8
DEFAULT_255_1_234
10
8.0348677
20
47.4098234
11
7.6429188
21
47.4098234
0
LINE
8
DEFAULT_255_1_234
10
7.6429188
20
47.4098234
11
7.6429188
21
47.5311026
0
LINE
8
DEFAULT_255_1_234
10
7.6429188
20
47.5311026
11
8.0348677
21
47.5311026
0
LINE
8
DEFAULT_255_1_234
10
4.4189902
20
53.4348211
11
4.4189902
21
52.2654
0
LINE
8
DEFAULT_255_1_234
10
4.4189902
20
52.2654
11
4.2647808
21
52.2654
0
LINE
8
DEFAULT_255_1_234
10
4.2647808
20
52.2654
11
4.2647808
21
53.4348211
0
LINE
8
DEFAULT_255_1_234
10
4.2647808
20
53.4348211
11
4.4189902
21
53.4348211
0
LINE
8
DEFAULT_255_1_234
10
5.5996557
20
53.4348211
11
5.5996557
21
52.2654
0
LINE
8
DEFAULT_255_1_234
10
5.5996557
20
52.2654
11
5.4446432
21
52.2654
0
LINE
8
DEFAULT_255_1_234
10
5.4446432
20
52.2654
11
4.8559167
21
53.166561
0
LINE
8
DEFAULT_255_1_234
10
4.8559167
20
53.166561
11
4.8559167
21
52.2654
0
LINE
8
DEFAULT_255_1_234
10
4.8559167
20
52.2654
11
4.7009042
21
52.2654
0
LINE
8
DEFAULT_255_1_234
10
4.7009042
20
52.2654
11
4.7009042
21
53.4348211
0
LINE
8
DEFAULT_255_1_234
10
4.7009042
20
53.4348211
11
4.8559167
21
53.4348211
0
LINE
8
DEFAULT_255_1_234
10
4.8559167
20
53.4348211
11
5.4462495
21
52.5296442
0
LINE
8
DEFAULT_255_1_234
10
5.4462495
20
52.5296442
11
5.4462495
21
53.4348211
0
LINE
8
DEFAULT_255_1_234
10
5.4462495
20
53.4348211
11
5.5996557
21
53.4348211
0
LINE
8
DEFAULT_255_1_234
10
6.3233153
20
53.4404433
11
6.3233153
21
52.2654
0
LINE
8
DEFAULT_255_1_234
10
6.3233153
20
52.2654
11
6.173925
21
52.2654
0
LINE
8
DEFAULT_255_1_234
10
6.173925
20
52.2654
11
6.173925
21
53.2557133
0
LINE
8
DEFAULT_255_1_234
10
6.173925
20
53.2557133
11
5.8743412
21
53.1456785
0
LINE
8
DEFAULT_255_1_234
10
5.8743412
20
53.1456785
11
5.8743412
21
53.2806117
0
LINE
8
DEFAULT_255_1_234
10
5.8743412
20
53.2806117
11
6.3000233
21
53.4404433
0
LINE
8
DEFAULT_255_1_234
10
6.3000233
20
53.4404433
11
6.3233153
21
53.4404433
0
LINE
8
DEFAULT_255_1_234
10
7.5248634
20
52.3866792
11
7.5248634
21
52.2654
0
LINE
8
DEFAULT_255_1_234
10
7.5248634
20
52.2654
11
6.7586355
21
52.2654
0
LINE
8
DEFAULT_255_1_234
10
6.7586355
20
52.2654
11
6.7586355
21
52.3722221
0
LINE
8
DEFAULT_255_1_234
10
6.7586355
20
52.3722221
11
7.1634352
21
52.8219995
0
LINE
8
DEFAULT_255_1_234
10
6.8847338
20
53.0902595
11
6.7361467
21
53.0902595
0
LINE
8
DEFAULT_255_1_234
10
7.2509811
20
52.7264218
11
6.9377433
21
52.3866792
0
LINE
8
DEFAULT_255_1_234
10
6.9377433
20
52.3866792
11
7.5248634
21
52.3866792
0
ARC
8
DEFAULT_255_1_234
10
5.8144185
20
54.0149527
40
1.8008286
50
318.5132453
51
320.7828378
0
ARC
8
DEFAULT_255_1_234
10
6.3431159
20
53.5846426
40
1.1191493
50
320.7372736
51
323.9737074
0
ARC
8
DEFAULT_255_1_234
10
6.7351016
20
53.3006361
40
0.6350923
50
323.8961724
51
328.6421089
0
ARC
8
DEFAULT_255_1_234
10
6.9397611
20
53.1744031
40
0.3946393
50
328.8299013
51
331.789948
0
ARC
8
DEFAULT_255_1_234
10
7.039479
20
53.1229509
40
0.2824501
50
331.4255242
51
352.9364833
0
ARC
8
DEFAULT_255_1_234
10
7.053129
20
53.1198976
40
0.2685315
50
353.2248685
51
0.0169286
0
ARC
8
DEFAULT_255_1_234
10
7.0741167
20
53.122195
40
0.2475536
50
359.4866256
51
15.9339782
0
ARC
8
DEFAULT_255_1_234
10
7.1248152
20
53.1358286
40
0.1950618
50
16.1714718
51
43.5284424
0
ARC
8
DEFAULT_255_1_234
10
7.1325461
20
53.1435573
40
0.184134
50
43.4415429
51
83.1661404
0
ARC
8
DEFAULT_255_1_234
10
7.1191379
20
53.0698771
40
0.258926
50
82.160215
51
90.1505798
0
ARC
8
DEFAULT_255_1_234
10
7.1159807
20
53.0161865
40
0.3126255
50
89.5460705
51
102.5418777
0
ARC
8
DEFAULT_255_1_234
10
7.0916893
20
53.1192665
40
0.2067346
50
102.1739365
51
129.2061916
0
ARC
8
DEFAULT_255_1_234
10
7.0837964
20
53.1317094
40
0.1921118
50
129.7279328
51
135.7542026
0
ARC
8
DEFAULT_255_1_234
10
7.0959492
20
53.1220045
40
0.2075944
50
136.175737
51
166.3674722
0
ARC
8
DEFAULT_255_1_234
10
7.1966411
20
53.0950182
40
0.3118201
50
165.9092917
51
178.8683903
0
ARC
8
DEFAULT_255_1_234
10
7.2831273
20
53.0903179
40
0.3983935
50
178.438168
51
180.0083905
0
ARC
8
DEFAULT_255_1_234
10
7.1429875
20
53.0942231
40
0.4068601
50
163.2878735
51
180.5581814
0
ARC
8
DEFAULT_255_1_234
10
7.0628136
20
53.116284
40
0.3237344
50
133.454115
51
162.9470031
0
ARC
8
DEFAULT_255_1_234
10
7.0806677
20
53.0973
40
0.349795
50
100.7869394
51
133.4384016
0
ARC
8
DEFAULT_255_1_234
10
7.1154449
20
52.9424319
40
0.5084616
50
89.6605301
51
101.3704185
0
ARC
8
DEFAULT_255_1_234
10
7.1220788
20
52.9485496
40
0.502348
50
78.2171172
51
90.4130393
0
ARC
8
DEFAULT_255_1_234
10
7.1575866
20
53.1109637
40
0.3361092
50
55.9268222
51
78.4888551
0
ARC
8
DEFAULT_255_1_234
10
7.1772306
20
53.1448324
40
0.2970617
50
47.9292255
51
55.4054003
0
ARC
8
DEFAULT_255_1_234
10
7.1873867
20
53.1551502
40
0.2825983
50
4.3347696
51
48.0560701
0
ARC
8
DEFAULT_255_1_234
10
7.077826
20
53.1381601
40
0.393225
50
359.925209
51
5.5967654
0
ARC
8
DEFAULT_255_1_234
10
7.1207152
20
53.1437816
40
0.3503892
50
337.8914096
51
358.9967724
0
ARC
8
DEFAULT_255_1_234
10
6.8493564
20
53.2484706
40
0.6412172
50
326.9135351
51
338.3505194
0
ARC
8
DEFAULT_255_1_234
10
6.4507868
20
53.5039284
40
1.1146189
50
319.6472867
51
327.095818
0
ARC
8
DEFAULT_255_1_234
10
6.0674871
20
53.8201
40
1.6114559
50
317.2586784
51
319.9046139
0
LINE
8
DEFAULT_255_1_234
10
8.1232279
20
53.2340276
11
8.1232279
21
52.8926788
0
LINE
8
DEFAULT_255_1_234
10
8.1232279
20
52.8926788
11
8.4493165
21
52.8926788
0
LINE
8
DEFAULT_255_1_234
10
8.4493165
20
52.8926788
11
8.4493165
21
52.7521233
0
LINE
8
DEFAULT_255_1_234
10
8.4493165
20
52.7521233
11
8.1232279
21
52.7521233
0
LINE
8
DEFAULT_255_1_234
10
8.1232279
20
52.7521233
11
8.1232279
21
52.3826634
0
LINE
8
DEFAULT_255_1_234
10
8.1232279
20
52.3826634
11
7.9738375
21
52.3826634
0
LINE
8
DEFAULT_255_1_234
10
7.9738375
20
52.3826634
11
7.9738375
21
52.7521233
0
LINE
8
DEFAULT_255_1_234
10
7.9738375
20
52.7521233
11
7.647749
21
52.7521233
0
LINE
8
DEFAULT_255_1_234
10
7.647749
20
52.7521233
11
7.647749
21
52.8926788
0
LINE
8
DEFAULT_255_1_234
10
7.647749
20
52.8926788
11
7.9738375
21
52.8926788
0
LINE
8
DEFAULT_255_1_234
10
7.9738375
20
52.8926788
11
7.9738375
21
53.2340276
0
LINE
8
DEFAULT_255_1_234
10
7.9738375
20
53.2340276
11
8.1232279
21
53.2340276
0
LINE
8
DEFAULT_255_1_234
10
4.4470902
20
58.7264211
11
4.4470902
21
57.557
0
LINE
8
DEFAULT_255_1_234
10
4.4470902
20
57.557
11
4.2928808
21
57.557
0
LINE
8
DEFAULT_255_1_234
10
4.2928808
20
57.557
11
4.2928808
21
58.7264211
0
LINE
8
DEFAULT_255_1_234
10
4.2928808
20
58.7264211
11
4.4470902
21
58.7264211
0
LINE
8
DEFAULT_255_1_234
10
5.6277557
20
58.7264211
11
5.6277557
21
57.557
0
LINE
8
DEFAULT_255_1_234
10
5.6277557
20
57.557
11
5.4727432
21
57.557
0
LINE
8
DEFAULT_255_1_234
10
5.4727432
20
57.557
11
4.8840167
21
58.458161
0
LINE
8
DEFAULT_255_1_234
10
4.8840167
20
58.458161
11
4.8840167
21
57.557
0
LINE
8
DEFAULT_255_1_234
10
4.8840167
20
57.557
11
4.7290042
21
57.557
0
LINE
8
DEFAULT_255_1_234
10
4.7290042
20
57.557
11
4.7290042
21
58.7264211
0
LINE
8
DEFAULT_255_1_234
10
4.7290042
20
58.7264211
11
4.8840167
21
58.7264211
0
LINE
8
DEFAULT_255_1_234
10
4.8840167
20
58.7264211
11
5.4743495
21
57.8212442
0
LINE
8
DEFAULT_255_1_234
10
5.4743495
20
57.8212442
11
5.4743495
21
58.7264211
0
LINE
8
DEFAULT_255_1_234
10
5.4743495
20
58.7264211
11
5.6277557
21
58.7264211
0
LINE
8
DEFAULT_255_1_234
10
6.3514153
20
58.7320433
11
6.3514153
21
57.557
0
LINE
8
DEFAULT_255_1_234
10
6.3514153
20
57.557
11
6.202025
21
57.557
0
LINE
8
DEFAULT_255_1_234
10
6.202025
20
57.557
11
6.202025
21
58.5473133
0
LINE
8
DEFAULT_255_1_234
10
6.202025
20
58.5473133
11
5.9024412
21
58.4372785
0
LINE
8
DEFAULT_255_1_234
10
5.9024412
20
58.4372785
11
5.9024412
21
58.5722117
0
LINE
8
DEFAULT_255_1_234
10
5.9024412
20
58.5722117
11
6.3281233
21
58.7320433
0
LINE
8
DEFAULT_255_1_234
10
6.3281233
20
58.7320433
11
6.3514153
21
58.7320433
0
LINE
8
DEFAULT_255_1_234
10
7.2750652
20
58.7320433
11
7.2750652
21
57.557
0
LINE
8
DEFAULT_255_1_234
10
7.2750652
20
57.557
11
7.1256749
21
57.557
0
LINE
8
DEFAULT_255_1_234
10
7.1256749
20
57.557
11
7.1256749
21
58.5473133
0
LINE
8
DEFAULT_255_1_234
10
7.1256749
20
58.5473133
11
6.8260911
21
58.4372785
0
LINE
8
DEFAULT_255_1_234
10
6.8260911
20
58.4372785
11
6.8260911
21
58.5722117
0
LINE
8
DEFAULT_255_1_234
10
6.8260911
20
58.5722117
11
7.2517732
21
58.7320433
0
LINE
8
DEFAULT_255_1_234
10
7.2517732
20
58.7320433
11
7.2750652
21
58.7320433
0
LINE
8
DEFAULT_255_1_234
10
8.0348677
20
58.1144026
11
8.0348677
21
57.9931234
0
LINE
8
DEFAULT_255_1_234
10
8.0348677
20
57.9931234
11
7.6429188
21
57.9931234
0
LINE
8
DEFAULT_255_1_234
10
7.6429188
20
57.9931234
11
7.6429188
21
58.1144026
0
LINE
8
DEFAULT_255_1_234
10
7.6429188
20
58.1144026
11
8.0348677
21
58.1144026
0
LINE
8
DEFAULT_255_1_234
10
4.4189902
20
64.0181211
11
4.4189902
21
62.8487
0
LINE
8
DEFAULT_255_1_234
10
4.4189902
20
62.8487
11
4.2647808
21
62.8487
0
LINE
8
DEFAULT_255_1_234
10
4.2647808
20
62.8487
11
4.2647808
21
64.0181211
0
LINE
8
DEFAULT_255_1_234
10
4.2647808
20
64.0181211
11
4.4189902
21
64.0181211
0
LINE
8
DEFAULT_255_1_234
10
5.5996557
20
64.0181211
11
5.5996557
21
62.8487
0
LINE
8
DEFAULT_255_1_234
10
5.5996557
20
62.8487
11
5.4446432
21
62.8487
0
LINE
8
DEFAULT_255_1_234
10
5.4446432
20
62.8487
11
4.8559167
21
63.749861
0
LINE
8
DEFAULT_255_1_234
10
4.8559167
20
63.749861
11
4.8559167
21
62.8487
0
LINE
8
DEFAULT_255_1_234
10
4.8559167
20
62.8487
11
4.7009042
21
62.8487
0
LINE
8
DEFAULT_255_1_234
10
4.7009042
20
62.8487
11
4.7009042
21
64.0181211
0
LINE
8
DEFAULT_255_1_234
10
4.7009042
20
64.0181211
11
4.8559167
21
64.0181211
0
LINE
8
DEFAULT_255_1_234
10
4.8559167
20
64.0181211
11
5.4462495
21
63.1129442
0
LINE
8
DEFAULT_255_1_234
10
5.4462495
20
63.1129442
11
5.4462495
21
64.0181211
0
LINE
8
DEFAULT_255_1_234
10
5.4462495
20
64.0181211
11
5.5996557
21
64.0181211
0
LINE
8
DEFAULT_255_1_234
10
6.3233153
20
64.0237433
11
6.3233153
21
62.8487
0
LINE
8
DEFAULT_255_1_234
10
6.3233153
20
62.8487
11
6.173925
21
62.8487
0
LINE
8
DEFAULT_255_1_234
10
6.173925
20
62.8487
11
6.173925
21
63.8390133
0
LINE
8
DEFAULT_255_1_234
10
6.173925
20
63.8390133
11
5.8743412
21
63.7289785
0
LINE
8
DEFAULT_255_1_234
10
5.8743412
20
63.7289785
11
5.8743412
21
63.8639117
0
LINE
8
DEFAULT_255_1_234
10
5.8743412
20
63.8639117
11
6.3000233
21
64.0237433
0
LINE
8
DEFAULT_255_1_234
10
6.3000233
20
64.0237433
11
6.3233153
21
64.0237433
0
LINE
8
DEFAULT_255_1_234
10
7.2469652
20
64.0237433
11
7.2469652
21
62.8487
0
LINE
8
DEFAULT_255_1_234
10
7.2469652
20
62.8487
11
7.0975749
21
62.8487
0
LINE
8
DEFAULT_255_1_234
10
7.0975749
20
62.8487
11
7.0975749
21
63.8390133
0
LINE
8
DEFAULT_255_1_234
10
7.0975749
20
63.8390133
11
6.7979911
21
63.7289785
0
LINE
8
DEFAULT_255_1_234
10
6.7979911
20
63.7289785
11
6.7979911
21
63.8639117
0
LINE
8
DEFAULT_255_1_234
10
6.7979911
20
63.8639117
11
7.2236732
21
64.0237433
0
LINE
8
DEFAULT_255_1_234
10
7.2236732
20
64.0237433
11
7.2469652
21
64.0237433
0
LINE
8
DEFAULT_255_1_234
10
8.1232279
20
63.8173276
11
8.1232279
21
63.4759788
0
LINE
8
DEFAULT_255_1_234
10
8.1232279
20
63.4759788
11
8.4493165
21
63.4759788
0
LINE
8
DEFAULT_255_1_234
10
8.4493165
20
63.4759788
11
8.4493165
21
63.3354233
0
LINE
8
DEFAULT_255_1_234
10
8.4493165
20
63.3354233
11
8.1232279
21
63.3354233
0
LINE
8
DEFAULT_255_1_234
10
8.1232279
20
63.3354233
11
8.1232279
21
62.9659634
0
LINE
8
DEFAULT_255_1_234
10
8.1232279
20
62.9659634
11
7.9738375
21
62.9659634
0
LINE
8
DEFAULT_255_1_234
10
7.9738375
20
62.9659634
11
7.9738375
21
63.3354233
0
LINE
8
DEFAULT_255_1_234
10
7.9738375
20
63.3354233
11
7.647749
21
63.3354233
0
LINE
8
DEFAULT_255_1_234
10
7.647749
20
63.3354233
11
7.647749
21
63.4759788
0
LINE
8
DEFAULT_255_1_234
10
7.647749
20
63.4759788
11
7.9738375
21
63.4759788
0
LINE
8
DEFAULT_255_1_234
10
7.9738375
20
63.4759788
11
7.9738375
21
63.8173276
0
LINE
8
DEFAULT_255_1_234
10
7.9738375
20
63.8173276
11
8.1232279
21
63.8173276
0
LINE
8
DEFAULT_255_1_234
10
4.4470902
20
69.3098211
11
4.4470902
21
68.1404
0
LINE
8
DEFAULT_255_1_234
10
4.4470902
20
68.1404
11
4.2928808
21
68.1404
0
LINE
8
DEFAULT_255_1_234
10
4.2928808
20
68.1404
11
4.2928808
21
69.3098211
0
LINE
8
DEFAULT_255_1_234
10
4.2928808
20
69.3098211
11
4.4470902
21
69.3098211
0
LINE
8
DEFAULT_255_1_234
10
5.6277557
20
69.3098211
11
5.6277557
21
68.1404
0
LINE
8
DEFAULT_255_1_234
10
5.6277557
20
68.1404
11
5.4727432
21
68.1404
0
LINE
8
DEFAULT_255_1_234
10
5.4727432
20
68.1404
11
4.8840167
21
69.041561
0
LINE
8
DEFAULT_255_1_234
10
4.8840167
20
69.041561
11
4.8840167
21
68.1404
0
LINE
8
DEFAULT_255_1_234
10
4.8840167
20
68.1404
11
4.7290042
21
68.1404
0
LINE
8
DEFAULT_255_1_234
10
4.7290042
20
68.1404
11
4.7290042
21
69.3098211
0
LINE
8
DEFAULT_255_1_234
10
4.7290042
20
69.3098211
11
4.8840167
21
69.3098211
0
LINE
8
DEFAULT_255_1_234
10
4.8840167
20
69.3098211
11
5.4743495
21
68.4046442
0
LINE
8
DEFAULT_255_1_234
10
5.4743495
20
68.4046442
11
5.4743495
21
69.3098211
0
LINE
8
DEFAULT_255_1_234
10
5.4743495
20
69.3098211
11
5.6277557
21
69.3098211
0
LINE
8
DEFAULT_255_1_234
10
6.3514153
20
69.3154433
11
6.3514153
21
68.1404
0
LINE
8
DEFAULT_255_1_234
10
6.3514153
20
68.1404
11
6.202025
21
68.1404
0
LINE
8
DEFAULT_255_1_234
10
6.202025
20
68.1404
11
6.202025
21
69.1307133
0
LINE
8
DEFAULT_255_1_234
10
6.202025
20
69.1307133
11
5.9024412
21
69.0206785
0
LINE
8
DEFAULT_255_1_234
10
5.9024412
20
69.0206785
11
5.9024412
21
69.1556117
0
LINE
8
DEFAULT_255_1_234
10
5.9024412
20
69.1556117
11
6.3281233
21
69.3154433
0
LINE
8
DEFAULT_255_1_234
10
6.3281233
20
69.3154433
11
6.3514153
21
69.3154433
0
LINE
8
DEFAULT_255_1_234
10
7.5200333
20
68.8319327
11
7.5200333
21
68.6391709
0
LINE
8
DEFAULT_255_1_234
10
6.7819165
20
68.6190916
11
6.7819165
21
68.8174755
0
LINE
8
DEFAULT_255_1_234
10
7.3714461
20
68.5990123
11
7.3714461
21
68.8423739
0
LINE
8
DEFAULT_255_1_234
10
6.9305037
20
68.8536184
11
6.9305037
21
68.6158789
0
ARC
8
DEFAULT_255_1_234
10
6.2953222
20
68.6342805
40
1.2247208
50
353.8441951
51
0.2287902
0
ARC
8
DEFAULT_255_1_234
10
6.7592726
20
68.5824806
40
0.7578929
50
344.4934747
51
353.9765454
0
ARC
8
DEFAULT_255_1_234
10
7.0585316
20
68.4973981
40
0.4467846
50
329.2803592
51
344.7472793
0
ARC
8
DEFAULT_255_1_234
10
7.1578141
20
68.4429018
40
0.3336173
50
324.9352394
51
328.6160465
0
ARC
8
DEFAULT_255_1_234
10
7.195525
20
68.4165427
40
0.2876076
50
280.580143
51
324.9173126
0
ARC
8
DEFAULT_255_1_234
10
7.1554042
20
68.5836099
40
0.4592847
50
269.5977311
51
281.6734359
0
ARC
8
DEFAULT_255_1_234
10
7.1481948
20
68.5716173
40
0.4472986
50
256.6228859
51
270.51044
0
ARC
8
DEFAULT_255_1_234
10
7.1079926
20
68.4167877
40
0.2873874
50
215.8618325
51
257.2788573
0
ARC
8
DEFAULT_255_1_234
10
7.2100957
20
68.4852977
40
0.4102928
50
197.9693508
51
215.2623606
0
ARC
8
DEFAULT_255_1_234
10
7.4586073
20
68.5691709
40
0.6725652
50
187.8816417
51
198.2346507
0
ARC
8
DEFAULT_255_1_234
10
7.8544281
20
68.6263079
40
1.0724845
50
180.8976217
51
188.0055519
0
ARC
8
DEFAULT_255_1_234
10
8.1344469
20
68.6366777
40
1.3526448
50
180.7449369
51
181.1510016
0
ARC
8
DEFAULT_255_1_234
10
7.9767198
20
68.8223042
40
1.1948131
50
173.7675579
51
180.231553
0
ARC
8
DEFAULT_255_1_234
10
7.5249345
20
68.8733666
40
0.7401564
50
164.3058563
51
173.9002247
0
ARC
8
DEFAULT_255_1_234
10
7.2337414
20
68.9572656
40
0.4371288
50
148.7922025
51
164.568378
0
ARC
8
DEFAULT_255_1_234
10
7.1385866
20
69.0103929
40
0.3282386
50
144.5883898
51
148.1176286
0
ARC
8
DEFAULT_255_1_234
10
7.1042764
20
69.0343315
40
0.2864044
50
101.6440918
51
144.514236
0
ARC
8
DEFAULT_255_1_234
10
7.1467831
20
68.8654069
40
0.4604934
50
89.5284041
51
102.5819763
0
ARC
8
DEFAULT_255_1_234
10
7.1546918
20
68.8615018
40
0.464401
50
77.0437873
51
90.5081339
0
ARC
8
DEFAULT_255_1_234
10
7.194892
20
69.0257615
40
0.2953195
50
48.2778575
51
77.4994676
0
ARC
8
DEFAULT_255_1_234
10
7.2021551
20
69.0386746
40
0.2808655
50
36.3142134
51
47.6305865
0
ARC
8
DEFAULT_255_1_234
10
7.1152858
20
68.9801515
40
0.3855453
50
18.2931786
51
35.6769206
0
ARC
8
DEFAULT_255_1_234
10
6.8609617
20
68.8928593
40
0.654423
50
8.024666
51
18.5605216
0
ARC
8
DEFAULT_255_1_234
10
6.4446537
20
68.8313792
40
1.0752407
50
1.1274072
51
8.1718305
0
ARC
8
DEFAULT_255_1_234
10
6.1210728
20
68.8186885
40
1.3990231
50
0.5424119
51
1.3863029
0
ARC
8
DEFAULT_255_1_234
10
6.3032106
20
68.8459342
40
1.0682415
50
359.8090433
51
4.9407866
0
ARC
8
DEFAULT_255_1_234
10
6.724212
20
68.8835113
40
0.6455691
50
4.8362157
51
12.2904523
0
ARC
8
DEFAULT_255_1_234
10
6.9997234
20
68.9448965
40
0.3633074
50
12.0805627
51
23.8173984
0
ARC
8
DEFAULT_255_1_234
10
7.117094
20
68.9945919
40
0.2358723
50
24.2871213
51
31.3935614
0
ARC
8
DEFAULT_255_1_234
10
7.1695637
20
69.0289233
40
0.1732111
50
30.7407893
51
82.4657128
0
ARC
8
DEFAULT_255_1_234
10
7.1515771
20
68.9405691
40
0.263235
50
81.1060089
51
90.2184952
0
ARC
8
DEFAULT_255_1_234
10
7.148007
20
68.9663924
40
0.2374236
50
89.3806855
51
105.6762551
0
ARC
8
DEFAULT_255_1_234
10
7.1296701
20
69.0330567
40
0.1682847
50
105.7981136
51
149.7388061
0
ARC
8
DEFAULT_255_1_234
10
7.2360779
20
68.969095
40
0.2924306
50
149.4208916
51
163.6286378
0
ARC
8
DEFAULT_255_1_234
10
7.4451667
20
68.905325
40
0.5110213
50
163.3763315
51
172.1410975
0
ARC
8
DEFAULT_255_1_234
10
7.7752386
20
68.8580518
40
0.8444586
50
172.0259487
51
178.0703232
0
ARC
8
DEFAULT_255_1_234
10
8.0782476
20
68.8436906
40
1.1477868
50
177.8631668
51
179.5044149
0
ARC
8
DEFAULT_255_1_234
10
7.970988
20
68.6122389
40
1.0404907
50
179.7995573
51
185.2460446
0
ARC
8
DEFAULT_255_1_234
10
7.5666919
20
68.5739513
40
0.6343885
50
185.1411642
51
193.0079639
0
ARC
8
DEFAULT_255_1_234
10
7.3023392
20
68.5114641
40
0.3627568
50
192.7897626
51
205.2507664
0
ARC
8
DEFAULT_255_1_234
10
7.1976939
20
68.4647415
40
0.2481908
50
205.8005384
51
211.2537509
0
ARC
8
DEFAULT_255_1_234
10
7.1453379
20
68.429658
40
0.1852521
50
210.3789793
51
238.4008143
0
ARC
8
DEFAULT_255_1_234
10
7.1433901
20
68.4343376
40
0.1882621
50
239.6520629
51
265.9793761
0
ARC
8
DEFAULT_255_1_234
10
7.1519101
20
68.5015427
40
0.2559272
50
265.1315437
51
270.060332
0
ARC
8
DEFAULT_255_1_234
10
7.154788
20
68.4691534
40
0.2235528
50
269.3314664
51
287.2178029
0
ARC
8
DEFAULT_255_1_234
10
7.1685732
20
68.4188279
40
0.1714108
50
287.7958004
51
329.080874
0
ARC
8
DEFAULT_255_1_234
10
7.0728189
20
68.478593
40
0.2842745
50
328.6634704
51
343.3325132
0
ARC
8
DEFAULT_255_1_234
10
6.8555209
20
68.5462863
40
0.5118644
50
343.0499468
51
351.9393422
0
ARC
8
DEFAULT_255_1_234
10
6.5088509
20
68.5973949
40
0.8622784
50
351.8069023
51
357.7959224
0
ARC
8
DEFAULT_255_1_234
10
6.1853065
20
68.6141721
40
1.1862365
50
357.5871873
51
359.2677531
0
LINE
8
DEFAULT_255_1_234
10
8.0348677
20
68.6978026
11
8.0348677
21
68.5765234
0
LINE
8
DEFAULT_255_1_234
10
8.0348677
20
68.5765234
11
7.6429188
21
68.5765234
0
LINE
8
DEFAULT_255_1_234
10
7.6429188
20
68.5765234
11
7.6429188
21
68.6978026
0
LINE
8
DEFAULT_255_1_234
10
7.6429188
20
68.6978026
11
8.0348677
21
68.6978026
0
LINE
8
DEFAULT_255_1_234
10
4.4189902
20
74.6014211
11
4.4189902
21
73.432
0
LINE
8
DEFAULT_255_1_234
10
4.4189902
20
73.432
11
4.2647808
21
73.432
0
LINE
8
DEFAULT_255_1_234
10
4.2647808
20
73.432
11
4.2647808
21
74.6014211
0
LINE
8
DEFAULT_255_1_234
10
4.2647808
20
74.6014211
11
4.4189902
21
74.6014211
0
LINE
8
DEFAULT_255_1_234
10
5.5996557
20
74.6014211
11
5.5996557
21
73.432
0
LINE
8
DEFAULT_255_1_234
10
5.5996557
20
73.432
11
5.4446432
21
73.432
0
LINE
8
DEFAULT_255_1_234
10
5.4446432
20
73.432
11
4.8559167
21
74.333161
0
LINE
8
DEFAULT_255_1_234
10
4.8559167
20
74.333161
11
4.8559167
21
73.432
0
LINE
8
DEFAULT_255_1_234
10
4.8559167
20
73.432
11
4.7009042
21
73.432
0
LINE
8
DEFAULT_255_1_234
10
4.7009042
20
73.432
11
4.7009042
21
74.6014211
0
LINE
8
DEFAULT_255_1_234
10
4.7009042
20
74.6014211
11
4.8559167
21
74.6014211
0
LINE
8
DEFAULT_255_1_234
10
4.8559167
20
74.6014211
11
5.4462495
21
73.6962442
0
LINE
8
DEFAULT_255_1_234
10
5.4462495
20
73.6962442
11
5.4462495
21
74.6014211
0
LINE
8
DEFAULT_255_1_234
10
5.4462495
20
74.6014211
11
5.5996557
21
74.6014211
0
LINE
8
DEFAULT_255_1_234
10
6.3233153
20
74.6070433
11
6.3233153
21
73.432
0
LINE
8
DEFAULT_255_1_234
10
6.3233153
20
73.432
11
6.173925
21
73.432
0
LINE
8
DEFAULT_255_1_234
10
6.173925
20
73.432
11
6.173925
21
74.4223133
0
LINE
8
DEFAULT_255_1_234
10
6.173925
20
74.4223133
11
5.8743412
21
74.3122785
0
LINE
8
DEFAULT_255_1_234
10
5.8743412
20
74.3122785
11
5.8743412
21
74.4472117
0
LINE
8
DEFAULT_255_1_234
10
5.8743412
20
74.4472117
11
6.3000233
21
74.6070433
0
LINE
8
DEFAULT_255_1_234
10
6.3000233
20
74.6070433
11
6.3233153
21
74.6070433
0
LINE
8
DEFAULT_255_1_234
10
7.4919333
20
74.1235327
11
7.4919333
21
73.9307709
0
LINE
8
DEFAULT_255_1_234
10
6.7538165
20
73.9106916
11
6.7538165
21
74.1090755
0
LINE
8
DEFAULT_255_1_234
10
7.3433461
20
73.8906123
11
7.3433461
21
74.1339739
0
LINE
8
DEFAULT_255_1_234
10
6.9024037
20
74.1452184
11
6.9024037
21
73.9074789
0
ARC
8
DEFAULT_255_1_234
10
6.2672222
20
73.9258805
40
1.2247208
50
353.8441951
51
0.2287902
0
ARC
8
DEFAULT_255_1_234
10
6.7311726
20
73.8740806
40
0.7578929
50
344.4934747
51
353.9765454
0
ARC
8
DEFAULT_255_1_234
10
7.0304316
20
73.7889981
40
0.4467846
50
329.2803592
51
344.7472793
0
ARC
8
DEFAULT_255_1_234
10
7.1297141
20
73.7345018
40
0.3336173
50
324.9352394
51
328.6160465
0
ARC
8
DEFAULT_255_1_234
10
7.167425
20
73.7081427
40
0.2876076
50
280.580143
51
324.9173126
0
ARC
8
DEFAULT_255_1_234
10
7.1273042
20
73.8752099
40
0.4592847
50
269.5977311
51
281.6734359
0
ARC
8
DEFAULT_255_1_234
10
7.1200948
20
73.8632173
40
0.4472986
50
256.6228859
51
270.51044
0
ARC
8
DEFAULT_255_1_234
10
7.0798926
20
73.7083877
40
0.2873874
50
215.8618325
51
257.2788573
0
ARC
8
DEFAULT_255_1_234
10
7.1819957
20
73.7768977
40
0.4102928
50
197.9693508
51
215.2623606
0
ARC
8
DEFAULT_255_1_234
10
7.4305073
20
73.8607709
40
0.6725652
50
187.8816417
51
198.2346507
0
ARC
8
DEFAULT_255_1_234
10
7.8263281
20
73.9179079
40
1.0724845
50
180.8976217
51
188.0055519
0
ARC
8
DEFAULT_255_1_234
10
8.1063469
20
73.9282777
40
1.3526448
50
180.7449369
51
181.1510016
0
ARC
8
DEFAULT_255_1_234
10
7.9486198
20
74.1139042
40
1.1948131
50
173.7675579
51
180.231553
0
ARC
8
DEFAULT_255_1_234
10
7.4968345
20
74.1649666
40
0.7401564
50
164.3058563
51
173.9002247
0
ARC
8
DEFAULT_255_1_234
10
7.2056414
20
74.2488656
40
0.4371288
50
148.7922025
51
164.568378
0
ARC
8
DEFAULT_255_1_234
10
7.1104866
20
74.3019929
40
0.3282386
50
144.5883898
51
148.1176286
0
ARC
8
DEFAULT_255_1_234
10
7.0761764
20
74.3259315
40
0.2864044
50
101.6440918
51
144.514236
0
ARC
8
DEFAULT_255_1_234
10
7.1186831
20
74.1570069
40
0.4604934
50
89.5284041
51
102.5819763
0
ARC
8
DEFAULT_255_1_234
10
7.1265918
20
74.1531018
40
0.464401
50
77.0437873
51
90.5081339
0
ARC
8
DEFAULT_255_1_234
10
7.166792
20
74.3173615
40
0.2953195
50
48.2778575
51
77.4994676
0
ARC
8
DEFAULT_255_1_234
10
7.1740551
20
74.3302746
40
0.2808655
50
36.3142134
51
47.6305865
0
ARC
8
DEFAULT_255_1_234
10
7.0871858
20
74.2717515
40
0.3855453
50
18.2931786
51
35.6769206
0
ARC
8
DEFAULT_255_1_234
10
6.8328617
20
74.1844593
40
0.654423
50
8.024666
51
18.5605216
0
ARC
8
DEFAULT_255_1_234
10
6.4165537
20
74.1229792
40
1.0752407
50
1.1274072
51
8.1718305
0
ARC
8
DEFAULT_255_1_234
10
6.0929728
20
74.1102885
40
1.3990231
50
0.5424119
51
1.3863029
0
ARC
8
DEFAULT_255_1_234
10
6.2751106
20
74.1375342
40
1.0682415
50
359.8090433
51
4.9407866
0
ARC
8
DEFAULT_255_1_234
10
6.696112
20
74.1751113
40
0.6455691
50
4.8362157
51
12.2904523
0
ARC
8
DEFAULT_255_1_234
10
6.9716234
20
74.2364965
40
0.3633074
50
12.0805627
51
23.8173984
0
ARC
8
DEFAULT_255_1_234
10
7.088994
20
74.2861919
40
0.2358723
50
24.2871213
51
31.3935614
0
ARC
8
DEFAULT_255_1_234
10
7.1414637
20
74.3205233
40
0.1732111
50
30.7407893
51
82.4657128
0
ARC
8
DEFAULT_255_1_234
10
7.1234771
20
74.2321691
40
0.263235
50
81.1060089
51
90.2184952
0
ARC
8
DEFAULT_255_1_234
10
7.119907
20
74.2579924
40
0.2374236
50
89.3806855
51
105.6762551
0
ARC
8
DEFAULT_255_1_234
10
7.1015701
20
74.3246567
40
0.1682847
50
105.7981136
51
149.7388061
0
ARC
8
DEFAULT_255_1_234
10
7.2079779
20
74.260695
40
0.2924306
50
149.4208916
51
163.6286378
0
ARC
8
DEFAULT_255_1_234
10
7.4170667
20
74.196925
40
0.5110213
50
163.3763315
51
172.1410975
0
ARC
8
DEFAULT_255_1_234
10
7.7471386
20
74.1496518
40
0.8444586
50
172.0259487
51
178.0703232
0
ARC
8
DEFAULT_255_1_234
10
8.0501476
20
74.1352906
40
1.1477868
50
177.8631668
51
179.5044149
0
ARC
8
DEFAULT_255_1_234
10
7.942888
20
73.9038389
40
1.0404907
50
179.7995573
51
185.2460446
0
ARC
8
DEFAULT_255_1_234
10
7.5385919
20
73.8655513
40
0.6343885
50
185.1411642
51
193.0079639
0
ARC
8
DEFAULT_255_1_234
10
7.2742392
20
73.8030641
40
0.3627568
50
192.7897626
51
205.2507664
0
ARC
8
DEFAULT_255_1_234
10
7.1695939
20
73.7563415
40
0.2481908
50
205.8005384
51
211.2537509
0
ARC
8
DEFAULT_255_1_234
10
7.1172379
20
73.721258
40
0.1852521
50
210.3789793
51
238.4008143
0
ARC
8
DEFAULT_255_1_234
10
7.1152901
20
73.7259376
40
0.1882621
50
239.6520629
51
265.9793761
0
ARC
8
DEFAULT_255_1_234
10
7.1238101
20
73.7931427
40
0.2559272
50
265.1315437
51
270.060332
0
ARC
8
DEFAULT_255_1_234
10
7.126688
20
73.7607534
40
0.2235528
50
269.3314664
51
287.2178029
0
ARC
8
DEFAULT_255_1_234
10
7.1404732
20
73.7104279
40
0.1714108
50
287.7958004
51
329.080874
0
ARC
8
DEFAULT_255_1_234
10
7.0447189
20
73.770193
40
0.2842745
50
328.6634704
51
343.3325132
0
ARC
8
DEFAULT_255_1_234
10
6.8274209
20
73.8378863
40
0.5118644
50
343.0499468
51
351.9393422
0
ARC
8
DEFAULT_255_1_234
10
6.4807509
20
73.8889949
40
0.8622784
50
351.8069023
51
357.7959224
0
ARC
8
DEFAULT_255_1_234
10
6.1572065
20
73.9057721
40
1.1862365
50
357.5871873
51
359.2677531
0
LINE
8
DEFAULT_255_1_234
10
8.1232279
20
74.4006276
11
8.1232279
21
74.0592788
0
LINE
8
DEFAULT_255_1_234
10
8.1232279
20
74.0592788
11
8.4493165
21
74.0592788
0
LINE
8
DEFAULT_255_1_234
10
8.4493165
20
74.0592788
11
8.4493165
21
73.9187233
0
LINE
8
DEFAULT_255_1_234
10
8.4493165
20
73.9187233
11
8.1232279
21
73.9187233
0
LINE
8
DEFAULT_255_1_234
10
8.1232279
20
73.9187233
11
8.1232279
21
73.5492634
0
LINE
8
DEFAULT_255_1_234
10
8.1232279
20
73.5492634
11
7.9738375
21
73.5492634
0
LINE
8
DEFAULT_255_1_234
10
7.9738375
20
73.5492634
11
7.9738375
21
73.9187233
0
LINE
8
DEFAULT_255_1_234
10
7.9738375
20
73.9187233
11
7.647749
21
73.9187233
0
LINE
8
DEFAULT_255_1_234
10
7.647749
20
73.9187233
11
7.647749
21
74.0592788
0
LINE
8
DEFAULT_255_1_234
10
7.647749
20
74.0592788
11
7.9738375
21
74.0592788
0
LINE
8
DEFAULT_255_1_234
10
7.9738375
20
74.0592788
11
7.9738375
21
74.4006276
0
LINE
8
DEFAULT_255_1_234
10
7.9738375
20
74.4006276
11
8.1232279
21
74.4006276
0
LINE
8
DEFAULT_255_1_234
10
4.3873902
20
79.8931211
11
4.3873902
21
78.7237
0
LINE
8
DEFAULT_255_1_234
10
4.3873902
20
78.7237
11
4.2331808
21
78.7237
0
LINE
8
DEFAULT_255_1_234
10
4.2331808
20
78.7237
11
4.2331808
21
79.8931211
0
LINE
8
DEFAULT_255_1_234
10
4.2331808
20
79.8931211
11
4.3873902
21
79.8931211
0
LINE
8
DEFAULT_255_1_234
10
5.5680557
20
79.8931211
11
5.5680557
21
78.7237
0
LINE
8
DEFAULT_255_1_234
10
5.5680557
20
78.7237
11
5.4130432
21
78.7237
0
LINE
8
DEFAULT_255_1_234
10
5.4130432
20
78.7237
11
4.8243167
21
79.624861
0
LINE
8
DEFAULT_255_1_234
10
4.8243167
20
79.624861
11
4.8243167
21
78.7237
0
LINE
8
DEFAULT_255_1_234
10
4.8243167
20
78.7237
11
4.6693042
21
78.7237
0
LINE
8
DEFAULT_255_1_234
10
4.6693042
20
78.7237
11
4.6693042
21
79.8931211
0
LINE
8
DEFAULT_255_1_234
10
4.6693042
20
79.8931211
11
4.8243167
21
79.8931211
0
LINE
8
DEFAULT_255_1_234
10
4.8243167
20
79.8931211
11
5.4146495
21
78.9879442
0
LINE
8
DEFAULT_255_1_234
10
5.4146495
20
78.9879442
11
5.4146495
21
79.8931211
0
LINE
8
DEFAULT_255_1_234
10
5.4146495
20
79.8931211
11
5.5680557
21
79.8931211
0
LINE
8
DEFAULT_255_1_234
10
6.5222262
20
79.4256739
11
6.5222262
21
79.3823025
0
LINE
8
DEFAULT_255_1_234
10
5.9800839
20
78.7228968
11
5.9511696
21
78.7228968
0
LINE
8
DEFAULT_255_1_234
10
5.9511696
20
78.7228968
11
5.9511696
21
78.8481919
0
LINE
8
DEFAULT_255_1_234
10
5.9511696
20
78.8481919
11
5.9824934
21
78.8481919
0
LINE
8
DEFAULT_255_1_234
10
6.3736391
20
79.3967597
11
6.3736391
21
79.4561945
0
ARC
8
DEFAULT_255_1_234
10
6.094266
20
79.4713403
40
0.3635579
50
297.4037347
51
320.016758
0
ARC
8
DEFAULT_255_1_234
10
6.1232609
20
79.415624
40
0.3007486
50
270.2633101
51
297.3851877
0
ARC
8
DEFAULT_255_1_234
10
6.1198565
20
79.4619904
40
0.3471448
50
269.9966443
51
270.7900392
0
ARC
8
DEFAULT_255_1_234
10
6.1173046
20
79.4618143
40
0.3469779
50
254.5999133
51
270.4180344
0
ARC
8
DEFAULT_255_1_234
10
6.1030406
20
79.4053647
40
0.2887697
50
236.4717942
51
254.3541279
0
ARC
8
DEFAULT_255_1_234
10
6.1186623
20
79.4263711
40
0.3149125
50
208.4727207
51
236.2134933
0
ARC
8
DEFAULT_255_1_234
10
6.1825398
20
79.4654455
40
0.3897115
50
204.3447514
51
209.0453999
0
ARC
8
DEFAULT_255_1_234
10
6.2504974
20
79.4942656
40
0.4635101
50
183.9375985
51
204.1276318
0
ARC
8
DEFAULT_255_1_234
10
6.3413225
20
79.5040482
40
0.5548037
50
179.9652252
51
184.3013875
0
ARC
8
DEFAULT_255_1_234
10
6.3173272
20
79.5073507
40
0.5308164
50
166.7585989
51
180.3201225
0
ARC
8
DEFAULT_255_1_234
10
6.2326885
20
79.5257488
40
0.4442163
50
154.6955053
51
166.5679793
0
ARC
8
DEFAULT_255_1_234
10
6.1473755
20
79.568721
40
0.3487299
50
136.3324195
51
155.0871442
0
ARC
8
DEFAULT_255_1_234
10
6.1192828
20
79.5927954
40
0.3117924
50
121.236733
51
135.9680508
0
ARC
8
DEFAULT_255_1_234
10
6.1333326
20
79.5667743
40
0.3413302
50
96.845628
51
120.9881519
0
ARC
8
DEFAULT_255_1_234
10
6.1478908
20
79.4732515
40
0.4359341
50
89.8870174
51
97.2802754
0
ARC
8
DEFAULT_255_1_234
10
6.1531346
20
79.5370095
40
0.3722009
50
70.6505584
51
90.6749113
0
ARC
8
DEFAULT_255_1_234
10
6.1662625
20
79.5883361
40
0.3194571
50
36.7492984
51
69.8219918
0
ARC
8
DEFAULT_255_1_234
10
6.066379
20
79.5104993
40
0.4460685
50
15.39587
51
37.0840084
0
ARC
8
DEFAULT_255_1_234
10
5.8534223
20
79.4484242
40
0.6678714
50
3.9488873
51
15.6798563
0
ARC
8
DEFAULT_255_1_234
10
5.6132851
20
79.4267964
40
0.9089418
50
359.929245
51
4.2665314
0
ARC
8
DEFAULT_255_1_234
10
5.1527288
20
79.3756513
40
1.3695135
50
352.8366322
51
0.2782669
0
ARC
8
DEFAULT_255_1_234
10
5.6814967
20
79.3069629
40
0.8363105
50
341.8359505
51
352.9884176
0
ARC
8
DEFAULT_255_1_234
10
6.0033686
20
79.19847
40
0.4966642
50
322.8578092
51
342.1527901
0
ARC
8
DEFAULT_255_1_234
10
6.0897642
20
79.1395384
40
0.3922466
50
319.334325
51
322.0998941
0
ARC
8
DEFAULT_255_1_234
10
6.0587979
20
79.1706209
40
0.4360033
50
285.9541367
51
318.8878087
0
ARC
8
DEFAULT_255_1_234
10
5.986124
20
79.40166
40
0.678149
50
272.9281676
51
286.4922826
0
ARC
8
DEFAULT_255_1_234
10
5.9671358
20
79.6267587
40
0.9039547
50
270.8207226
51
273.4012994
0
ARC
8
DEFAULT_255_1_234
10
5.9760209
20
79.4448666
40
0.5967098
50
270.6214993
51
281.4062806
0
ARC
8
DEFAULT_255_1_234
10
6.019019
20
79.2392833
40
0.3866861
50
281.1852553
51
299.0621114
0
ARC
8
DEFAULT_255_1_234
10
6.0563761
20
79.1671798
40
0.3055236
50
299.5067782
51
313.1200873
0
ARC
8
DEFAULT_255_1_234
10
6.0585728
20
79.1592554
40
0.2982623
50
313.8526205
51
338.5989322
0
ARC
8
DEFAULT_255_1_234
10
5.8961802
20
79.2259781
40
0.4738131
50
338.2523585
51
351.2430902
0
ARC
8
DEFAULT_255_1_234
10
5.6551098
20
79.2669447
40
0.7183203
50
350.9409515
51
357.6691871
0
ARC
8
DEFAULT_255_1_234
10
6.1441528
20
79.4671764
40
0.2294452
50
269.9447023
51
306.8248917
0
ARC
8
DEFAULT_255_1_234
10
6.1204443
20
79.5094898
40
0.2775994
50
305.5072438
51
327.0773448
0
ARC
8
DEFAULT_255_1_234
10
6.1322884
20
79.5000025
40
0.2625056
50
327.4104943
51
336.840169
0
ARC
8
DEFAULT_255_1_234
10
5.8228949
20
79.4594302
40
0.5507537
50
359.6633817
51
10.117533
0
ARC
8
DEFAULT_255_1_234
10
5.9982747
20
79.4918777
40
0.372403
50
9.9430141
51
26.7700076
0
ARC
8
DEFAULT_255_1_234
10
6.0579959
20
79.5194187
40
0.3066865
50
27.2015464
51
34.6829435
0
ARC
8
DEFAULT_255_1_234
10
6.106944
20
79.5561977
40
0.245519
50
34.1250343
51
50.3070065
0
ARC
8
DEFAULT_255_1_234
10
6.1516119
20
79.6096385
40
0.1758693
50
50.3851167
51
90.6705993
0
ARC
8
DEFAULT_255_1_234
10
6.1469352
20
79.5791799
40
0.2063326
50
89.272901
51
111.9140407
0
ARC
8
DEFAULT_255_1_234
10
6.144988
20
79.593244
40
0.1925887
50
112.9382311
51
142.5320782
0
ARC
8
DEFAULT_255_1_234
10
6.199606
20
79.5488969
40
0.2629232
50
142.1021256
51
166.3835592
0
ARC
8
DEFAULT_255_1_234
10
6.3177365
20
79.5183915
40
0.3849193
50
166.1100289
51
178.665427
0
ARC
8
DEFAULT_255_1_234
10
6.4224955
20
79.5125117
40
0.4897989
50
178.2632126
51
180.0111093
0
ARC
8
DEFAULT_255_1_234
10
6.3423075
20
79.5096728
40
0.40962
50
179.6161962
51
191.8787166
0
ARC
8
DEFAULT_255_1_234
10
6.2202914
20
79.4826896
40
0.2846655
50
191.6191692
51
215.2972286
0
ARC
8
DEFAULT_255_1_234
10
6.2006105
20
79.4711918
40
0.2619665
50
215.7320102
51
216.5355409
0
ARC
8
DEFAULT_255_1_234
10
6.1467191
20
79.4279647
40
0.1929497
50
215.7486685
51
239.9727502
0
ARC
8
DEFAULT_255_1_234
10
6.1397107
20
79.4228894
40
0.1850822
50
241.0650169
51
269.2810483
0
ARC
8
DEFAULT_255_1_234
10
6.1439022
20
79.4719371
40
0.2342059
50
268.4062526
51
270.0071348
0
LINE
8
DEFAULT_255_1_234
10
7.0515178
20
79.2811026
11
7.0515178
21
79.1598234
0
LINE
8
DEFAULT_255_1_234
10
7.0515178
20
79.1598234
11
6.6595689
21
79.1598234
0
LINE
8
DEFAULT_255_1_234
10
6.6595689
20
79.1598234
11
6.6595689
21
79.2811026
0
LINE
8
DEFAULT_255_1_234
10
6.6595689
20
79.2811026
11
7.0515178
21
79.2811026
0
LINE
8
DEFAULT_255_1_234
10
4.3591902
20
85.1848211
11
4.3591902
21
84.0154
0
LINE
8
DEFAULT_255_1_234
10
4.3591902
20
84.0154
11
4.2049808
21
84.0154
0
LINE
8
DEFAULT_255_1_234
10
4.2049808
20
84.0154
11
4.2049808
21
85.1848211
0
LINE
8
DEFAULT_255_1_234
10
4.2049808
20
85.1848211
11
4.3591902
21
85.1848211
0
LINE
8
DEFAULT_255_1_234
10
5.5398557
20
85.1848211
11
5.5398557
21
84.0154
0
LINE
8
DEFAULT_255_1_234
10
5.5398557
20
84.0154
11
5.3848432
21
84.0154
0
LINE
8
DEFAULT_255_1_234
10
5.3848432
20
84.0154
11
4.7961167
21
84.916561
0
LINE
8
DEFAULT_255_1_234
10
4.7961167
20
84.916561
11
4.7961167
21
84.0154
0
LINE
8
DEFAULT_255_1_234
10
4.7961167
20
84.0154
11
4.6411042
21
84.0154
0
LINE
8
DEFAULT_255_1_234
10
4.6411042
20
84.0154
11
4.6411042
21
85.1848211
0
LINE
8
DEFAULT_255_1_234
10
4.6411042
20
85.1848211
11
4.7961167
21
85.1848211
0
LINE
8
DEFAULT_255_1_234
10
4.7961167
20
85.1848211
11
5.3864495
21
84.2796442
0
LINE
8
DEFAULT_255_1_234
10
5.3864495
20
84.2796442
11
5.3864495
21
85.1848211
0
LINE
8
DEFAULT_255_1_234
10
5.3864495
20
85.1848211
11
5.5398557
21
85.1848211
0
LINE
8
DEFAULT_255_1_234
10
6.4940262
20
84.7173739
11
6.4940262
21
84.6740025
0
LINE
8
DEFAULT_255_1_234
10
5.9518839
20
84.0145968
11
5.9229696
21
84.0145968
0
LINE
8
DEFAULT_255_1_234
10
5.9229696
20
84.0145968
11
5.9229696
21
84.1398919
0
LINE
8
DEFAULT_255_1_234
10
5.9229696
20
84.1398919
11
5.9542934
21
84.1398919
0
LINE
8
DEFAULT_255_1_234
10
6.3454391
20
84.6884597
11
6.3454391
21
84.7478945
0
ARC
8
DEFAULT_255_1_234
10
6.066066
20
84.7630403
40
0.3635579
50
297.4037347
51
320.016758
0
ARC
8
DEFAULT_255_1_234
10
6.0950609
20
84.707324
40
0.3007486
50
270.2633101
51
297.3851877
0
ARC
8
DEFAULT_255_1_234
10
6.0916565
20
84.7536904
40
0.3471448
50
269.9966443
51
270.7900392
0
ARC
8
DEFAULT_255_1_234
10
6.0891046
20
84.7535143
40
0.3469779
50
254.5999133
51
270.4180344
0
ARC
8
DEFAULT_255_1_234
10
6.0748406
20
84.6970647
40
0.2887697
50
236.4717942
51
254.3541279
0
ARC
8
DEFAULT_255_1_234
10
6.0904623
20
84.7180711
40
0.3149125
50
208.4727207
51
236.2134933
0
ARC
8
DEFAULT_255_1_234
10
6.1543398
20
84.7571455
40
0.3897115
50
204.3447514
51
209.0453999
0
ARC
8
DEFAULT_255_1_234
10
6.2222974
20
84.7859656
40
0.4635101
50
183.9375985
51
204.1276318
0
ARC
8
DEFAULT_255_1_234
10
6.3131225
20
84.7957482
40
0.5548037
50
179.9652252
51
184.3013875
0
ARC
8
DEFAULT_255_1_234
10
6.2891272
20
84.7990507
40
0.5308164
50
166.7585989
51
180.3201225
0
ARC
8
DEFAULT_255_1_234
10
6.2044885
20
84.8174488
40
0.4442163
50
154.6955053
51
166.5679793
0
ARC
8
DEFAULT_255_1_234
10
6.1191755
20
84.860421
40
0.3487299
50
136.3324195
51
155.0871442
0
ARC
8
DEFAULT_255_1_234
10
6.0910828
20
84.8844954
40
0.3117924
50
121.236733
51
135.9680508
0
ARC
8
DEFAULT_255_1_234
10
6.1051326
20
84.8584743
40
0.3413302
50
96.845628
51
120.9881519
0
ARC
8
DEFAULT_255_1_234
10
6.1196908
20
84.7649515
40
0.4359341
50
89.8870174
51
97.2802754
0
ARC
8
DEFAULT_255_1_234
10
6.1249346
20
84.8287095
40
0.3722009
50
70.6505584
51
90.6749113
0
ARC
8
DEFAULT_255_1_234
10
6.1380625
20
84.8800361
40
0.3194571
50
36.7492984
51
69.8219918
0
ARC
8
DEFAULT_255_1_234
10
6.038179
20
84.8021993
40
0.4460685
50
15.39587
51
37.0840084
0
ARC
8
DEFAULT_255_1_234
10
5.8252223
20
84.7401242
40
0.6678714
50
3.9488873
51
15.6798563
0
ARC
8
DEFAULT_255_1_234
10
5.5850851
20
84.7184964
40
0.9089418
50
359.929245
51
4.2665314
0
ARC
8
DEFAULT_255_1_234
10
5.1245288
20
84.6673513
40
1.3695135
50
352.8366322
51
0.2782669
0
ARC
8
DEFAULT_255_1_234
10
5.6532967
20
84.5986629
40
0.8363105
50
341.8359505
51
352.9884176
0
ARC
8
DEFAULT_255_1_234
10
5.9751686
20
84.49017
40
0.4966642
50
322.8578092
51
342.1527901
0
ARC
8
DEFAULT_255_1_234
10
6.0615642
20
84.4312384
40
0.3922466
50
319.334325
51
322.0998941
0
ARC
8
DEFAULT_255_1_234
10
6.0305979
20
84.4623209
40
0.4360033
50
285.9541367
51
318.8878087
0
ARC
8
DEFAULT_255_1_234
10
5.957924
20
84.69336
40
0.678149
50
272.9281676
51
286.4922826
0
ARC
8
DEFAULT_255_1_234
10
5.9389358
20
84.9184587
40
0.9039547
50
270.8207226
51
273.4012994
0
ARC
8
DEFAULT_255_1_234
10
5.9478209
20
84.7365666
40
0.5967098
50
270.6214993
51
281.4062806
0
ARC
8
DEFAULT_255_1_234
10
5.990819
20
84.5309833
40
0.3866861
50
281.1852553
51
299.0621114
0
ARC
8
DEFAULT_255_1_234
10
6.0281761
20
84.4588798
40
0.3055236
50
299.5067782
51
313.1200873
0
ARC
8
DEFAULT_255_1_234
10
6.0303728
20
84.4509554
40
0.2982623
50
313.8526205
51
338.5989322
0
ARC
8
DEFAULT_255_1_234
10
5.8679802
20
84.5176781
40
0.4738131
50
338.2523585
51
351.2430902
0
ARC
8
DEFAULT_255_1_234
10
5.6269098
20
84.5586447
40
0.7183203
50
350.9409515
51
357.6691871
0
ARC
8
DEFAULT_255_1_234
10
6.1159528
20
84.7588764
40
0.2294452
50
269.9447023
51
306.8248917
0
ARC
8
DEFAULT_255_1_234
10
6.0922443
20
84.8011898
40
0.2775994
50
305.5072438
51
327.0773448
0
ARC
8
DEFAULT_255_1_234
10
6.1040884
20
84.7917025
40
0.2625056
50
327.4104943
51
336.840169
0
ARC
8
DEFAULT_255_1_234
10
5.7946949
20
84.7511302
40
0.5507537
50
359.6633817
51
10.117533
0
ARC
8
DEFAULT_255_1_234
10
5.9700747
20
84.7835777
40
0.372403
50
9.9430141
51
26.7700076
0
ARC
8
DEFAULT_255_1_234
10
6.0297959
20
84.8111187
40
0.3066865
50
27.2015464
51
34.6829435
0
ARC
8
DEFAULT_255_1_234
10
6.078744
20
84.8478977
40
0.245519
50
34.1250343
51
50.3070065
0
ARC
8
DEFAULT_255_1_234
10
6.1234119
20
84.9013385
40
0.1758693
50
50.3851167
51
90.6705993
0
ARC
8
DEFAULT_255_1_234
10
6.1187352
20
84.8708799
40
0.2063326
50
89.272901
51
111.9140407
0
ARC
8
DEFAULT_255_1_234
10
6.116788
20
84.884944
40
0.1925887
50
112.9382311
51
142.5320782
0
ARC
8
DEFAULT_255_1_234
10
6.171406
20
84.8405969
40
0.2629232
50
142.1021256
51
166.3835592
0
ARC
8
DEFAULT_255_1_234
10
6.2895365
20
84.8100915
40
0.3849193
50
166.1100289
51
178.665427
0
ARC
8
DEFAULT_255_1_234
10
6.3942955
20
84.8042117
40
0.4897989
50
178.2632126
51
180.0111093
0
ARC
8
DEFAULT_255_1_234
10
6.3141075
20
84.8013728
40
0.40962
50
179.6161962
51
191.8787166
0
ARC
8
DEFAULT_255_1_234
10
6.1920914
20
84.7743896
40
0.2846655
50
191.6191692
51
215.2972286
0
ARC
8
DEFAULT_255_1_234
10
6.1724105
20
84.7628918
40
0.2619665
50
215.7320102
51
216.5355409
0
ARC
8
DEFAULT_255_1_234
10
6.1185191
20
84.7196647
40
0.1929497
50
215.7486685
51
239.9727502
0
ARC
8
DEFAULT_255_1_234
10
6.1115107
20
84.7145894
40
0.1850822
50
241.0650169
51
269.2810483
0
ARC
8
DEFAULT_255_1_234
10
6.1157022
20
84.7636371
40
0.2342059
50
268.4062526
51
270.0071348
0
LINE
8
DEFAULT_255_1_234
10
7.139778
20
84.9840276
11
7.139778
21
84.6426788
0
LINE
8
DEFAULT_255_1_234
10
7.139778
20
84.6426788
11
7.4658666
21
84.6426788
0
LINE
8
DEFAULT_255_1_234
10
7.4658666
20
84.6426788
11
7.4658666
21
84.5021233
0
LINE
8
DEFAULT_255_1_234
10
7.4658666
20
84.5021233
11
7.139778
21
84.5021233
0
LINE
8
DEFAULT_255_1_234
10
7.139778
20
84.5021233
11
7.139778
21
84.1326634
0
LINE
8
DEFAULT_255_1_234
10
7.139778
20
84.1326634
11
6.9903876
21
84.1326634
0
LINE
8
DEFAULT_255_1_234
10
6.9903876
20
84.1326634
11
6.9903876
21
84.5021233
0
LINE
8
DEFAULT_255_1_234
10
6.9903876
20
84.5021233
11
6.6642991
21
84.5021233
0
LINE
8
DEFAULT_255_1_234
10
6.6642991
20
84.5021233
11
6.6642991
21
84.6426788
0
LINE
8
DEFAULT_255_1_234
10
6.6642991
20
84.6426788
11
6.9903876
21
84.6426788
0
LINE
8
DEFAULT_255_1_234
10
6.9903876
20
84.6426788
11
6.9903876
21
84.9840276
0
LINE
8
DEFAULT_255_1_234
10
6.9903876
20
84.9840276
11
7.139778
21
84.9840276
0
LINE
8
DEFAULT_255_1_234
10
4.3873902
20
90.4764211
11
4.3873902
21
89.307
0
LINE
8
DEFAULT_255_1_234
10
4.3873902
20
89.307
11
4.2331808
21
89.307
0
LINE
8
DEFAULT_255_1_234
10
4.2331808
20
89.307
11
4.2331808
21
90.4764211
0
LINE
8
DEFAULT_255_1_234
10
4.2331808
20
90.4764211
11
4.3873902
21
90.4764211
0
LINE
8
DEFAULT_255_1_234
10
5.5680557
20
90.4764211
11
5.5680557
21
89.307
0
LINE
8
DEFAULT_255_1_234
10
5.5680557
20
89.307
11
5.4130432
21
89.307
0
LINE
8
DEFAULT_255_1_234
10
5.4130432
20
89.307
11
4.8243167
21
90.208161
0
LINE
8
DEFAULT_255_1_234
10
4.8243167
20
90.208161
11
4.8243167
21
89.307
0
LINE
8
DEFAULT_255_1_234
10
4.8243167
20
89.307
11
4.6693042
21
89.307
0
LINE
8
DEFAULT_255_1_234
10
4.6693042
20
89.307
11
4.6693042
21
90.4764211
0
LINE
8
DEFAULT_255_1_234
10
4.6693042
20
90.4764211
11
4.8243167
21
90.4764211
0
LINE
8
DEFAULT_255_1_234
10
4.8243167
20
90.4764211
11
5.4146495
21
89.5712442
0
LINE
8
DEFAULT_255_1_234
10
5.4146495
20
89.5712442
11
5.4146495
21
90.4764211
0
LINE
8
DEFAULT_255_1_234
10
5.4146495
20
90.4764211
11
5.5680557
21
90.4764211
0
ARC
8
DEFAULT_255_1_234
10
6.230364
20
90.1686703
40
0.2822356
50
338.8763615
51
0.5166041
0
ARC
8
DEFAULT_255_1_234
10
6.2472294
20
90.1641208
40
0.2648703
50
325.8412414
51
338.4795939
0
ARC
8
DEFAULT_255_1_234
10
6.2081662
20
90.1912042
40
0.3124019
50
296.7586019
51
325.753654
0
ARC
8
DEFAULT_255_1_234
10
6.179377
20
90.2396789
40
0.368668
50
296.0902311
51
297.3618122
0
ARC
8
DEFAULT_255_1_234
10
6.2051228
20
89.5842041
40
0.3518806
50
47.9009248
51
67.1946869
0
ARC
8
DEFAULT_255_1_234
10
6.224747
20
89.6088395
40
0.320451
50
35.236241
51
47.551371
0
ARC
8
DEFAULT_255_1_234
10
6.2509088
20
89.6262993
40
0.2890103
50
359.2759738
51
35.4014081
0
ARC
8
DEFAULT_255_1_234
10
6.1764119
20
89.6189826
40
0.3635026
50
343.1294516
51
0.5776525
0
ARC
8
DEFAULT_255_1_234
10
6.2488664
20
89.599033
40
0.2883832
50
310.8497458
51
342.744803
0
ARC
8
DEFAULT_255_1_234
10
6.2070777
20
89.6467294
40
0.3517954
50
281.5473923
51
310.9169905
0
ARC
8
DEFAULT_255_1_234
10
6.1714227
20
89.8020084
40
0.5110832
50
269.6192722
51
281.9789957
0
ARC
8
DEFAULT_255_1_234
10
6.1642016
20
89.8020828
40
0.5111606
50
257.4584469
51
270.4287458
0
ARC
8
DEFAULT_255_1_234
10
6.1261159
20
89.6417344
40
0.3463762
50
228.7553743
51
257.8484423
0
ARC
8
DEFAULT_255_1_234
10
6.0951357
20
89.6044442
40
0.297916
50
184.0104442
51
228.5071787
0
ARC
8
DEFAULT_255_1_234
10
6.2114301
20
89.6221512
40
0.4152734
50
179.9315461
51
185.3254504
0
ARC
8
DEFAULT_255_1_234
10
6.0937947
20
89.6258992
40
0.2976554
50
145.6795913
51
180.6259649
0
ARC
8
DEFAULT_255_1_234
10
6.1101296
20
89.6144929
40
0.3175776
50
115.5537925
51
145.6416199
0
ARC
8
DEFAULT_255_1_234
10
6.1442227
20
89.5534028
40
0.3874232
50
113.2437915
51
116.2054627
0
ARC
8
DEFAULT_255_1_234
10
6.1289439
20
90.193258
40
0.3154751
50
222.9548379
51
244.1372485
0
ARC
8
DEFAULT_255_1_234
10
6.1167514
20
90.1795834
40
0.2972382
50
213.3439227
51
222.6271327
0
ARC
8
DEFAULT_255_1_234
10
6.0975449
20
90.1665308
40
0.274019
50
180.4316517
51
213.2713999
0
ARC
8
DEFAULT_255_1_234
10
6.155045
20
90.171211
40
0.33158
50
179.9992944
51
181.1655061
0
ARC
8
DEFAULT_255_1_234
10
6.1959867
20
90.1746561
40
0.3725376
50
164.6186108
51
180.5292368
0
ARC
8
DEFAULT_255_1_234
10
6.106173
20
90.1988101
40
0.2795349
50
132.2454369
51
164.5092287
0
ARC
8
DEFAULT_255_1_234
10
6.1348834
20
90.1663028
40
0.3229019
50
100.7052766
51
132.1387266
0
ARC
8
DEFAULT_255_1_234
10
6.1653806
20
90.0285086
40
0.4639835
50
89.6732617
51
101.2449487
0
ARC
8
DEFAULT_255_1_234
10
6.1716004
20
90.045999
40
0.4464999
50
76.2876631
51
90.4586123
0
ARC
8
DEFAULT_255_1_234
10
6.2022236
20
90.168222
40
0.3205023
50
47.8240157
51
76.4266918
0
ARC
8
DEFAULT_255_1_234
10
6.2244786
20
90.194259
40
0.2862661
50
6.9168658
51
47.6261438
0
ARC
8
DEFAULT_255_1_234
10
6.1058189
20
90.172337
40
0.4067708
50
359.8419705
51
7.9694496
0
ARC
8
DEFAULT_255_1_234
10
6.1400086
20
89.6282925
40
0.2513121
50
359.4454068
51
16.9256425
0
ARC
8
DEFAULT_255_1_234
10
6.1868897
20
89.6412033
40
0.2027071
50
17.292259
51
45.462717
0
ARC
8
DEFAULT_255_1_234
10
6.1814833
20
89.6365434
40
0.2098212
50
45.3028762
51
83.1921472
0
ARC
8
DEFAULT_255_1_234
10
6.1671517
20
89.5563895
40
0.2911472
50
82.2614531
51
90.143954
0
ARC
8
DEFAULT_255_1_234
10
6.1640637
20
89.579695
40
0.2678513
50
89.4959189
51
104.8579811
0
ARC
8
DEFAULT_255_1_234
10
6.1463896
20
89.646689
40
0.1985654
50
104.8855873
51
135.2448349
0
ARC
8
DEFAULT_255_1_234
10
6.1513669
20
89.6422336
40
0.2052373
50
135.3398955
51
172.104394
0
ARC
8
DEFAULT_255_1_234
10
6.2320727
20
89.6267925
40
0.2873299
50
171.2651929
51
180.1859362
0
ARC
8
DEFAULT_255_1_234
10
6.2151428
20
89.6235733
40
0.2704083
50
179.515471
51
193.6466734
0
ARC
8
DEFAULT_255_1_234
10
6.1335197
20
89.6027777
40
0.1861855
50
193.3540587
51
225.8256931
0
ARC
8
DEFAULT_255_1_234
10
6.1375955
20
89.6098524
40
0.1941102
50
226.418029
51
255.8553723
0
ARC
8
DEFAULT_255_1_234
10
6.1632387
20
89.7034998
40
0.2911917
50
255.4655572
51
268.7985967
0
ARC
8
DEFAULT_255_1_234
10
6.1679579
20
89.7873491
40
0.3751331
50
268.3464808
51
270.0104874
0
ARC
8
DEFAULT_255_1_234
10
6.1702967
20
89.7189138
40
0.3067064
50
269.575914
51
282.0823146
0
ARC
8
DEFAULT_255_1_234
10
6.1927876
20
89.6194803
40
0.2047712
50
281.7522535
51
306.6056425
0
ARC
8
DEFAULT_255_1_234
10
6.2026302
20
89.6033487
40
0.1859604
50
307.1350025
51
314.0277951
0
ARC
8
DEFAULT_255_1_234
10
6.1990386
20
89.6059766
40
0.1903475
50
314.2553419
51
350.169324
0
ARC
8
DEFAULT_255_1_234
10
6.1138855
20
89.6244409
40
0.2774269
50
349.4145679
51
0.2930737
0
ARC
8
DEFAULT_255_1_234
10
6.1659288
20
90.1403353
40
0.2300764
50
89.477591
51
105.729794
0
ARC
8
DEFAULT_255_1_234
10
6.1523202
20
90.1908637
40
0.1777519
50
105.922966
51
135.1662921
0
ARC
8
DEFAULT_255_1_234
10
6.1543704
20
90.1894419
40
0.1802087
50
135.3053131
51
168.9882338
0
ARC
8
DEFAULT_255_1_234
10
6.2371277
20
90.1704721
40
0.2650806
50
168.3802067
51
180.3602358
0
ARC
8
DEFAULT_255_1_234
10
6.2142856
20
90.1667041
40
0.2422425
50
179.5029707
51
194.9126783
0
ARC
8
DEFAULT_255_1_234
10
6.1557517
20
90.151311
40
0.1817188
50
194.9722181
51
224.1943972
0
ARC
8
DEFAULT_255_1_234
10
6.1529384
20
90.1490169
40
0.1781027
50
224.2961434
51
262.0157375
0
ARC
8
DEFAULT_255_1_234
10
6.1671627
20
90.2221661
40
0.2525492
50
261.1250369
51
270.1959853
0
ARC
8
DEFAULT_255_1_234
10
6.1701382
20
90.2034339
40
0.233825
50
269.4825617
51
285.0988277
0
ARC
8
DEFAULT_255_1_234
10
6.1855541
20
90.145599
40
0.1739712
50
285.1585659
51
315.9484648
0
ARC
8
DEFAULT_255_1_234
10
6.1766553
20
90.1537886
40
0.1860616
50
316.0412958
51
351.9162715
0
ARC
8
DEFAULT_255_1_234
10
6.1033508
20
90.1679245
40
0.2606517
50
351.1056823
51
0.1936567
0
ARC
8
DEFAULT_255_1_234
10
6.1296337
20
90.1709369
40
0.234377
50
359.4789506
51
16.0679113
0
ARC
8
DEFAULT_255_1_234
10
6.1772296
20
90.183781
40
0.1850875
50
16.3251951
51
44.791304
0
ARC
8
DEFAULT_255_1_234
10
6.1754577
20
90.1838339
40
0.186312
50
44.3958661
51
88.2498933
0
ARC
8
DEFAULT_255_1_234
10
6.1681131
20
90.1227154
40
0.2476868
50
86.9833827
51
90.0200148
0
LINE
8
DEFAULT_255_1_234
10
7.0515178
20
89.8644026
11
7.0515178
21
89.7431234
0
LINE
8
DEFAULT_255_1_234
10
7.0515178
20
89.7431234
11
6.6595689
21
89.7431234
0
LINE
8
DEFAULT_255_1_234
10
6.6595689
20
89.7431234
11
6.6595689
21
89.8644026
0
LINE
8
DEFAULT_255_1_234
10
6.6595689
20
89.8644026
11
7.0515178
21
89.8644026
0
LINE
8
DEFAULT_255_1_234
10
4.3591902
20
95.7681211
11
4.3591902
21
94.5987
0
LINE
8
DEFAULT_255_1_234
10
4.3591902
20
94.5987
11
4.2049808
21
94.5987
0
LINE
8
DEFAULT_255_1_234
10
4.2049808
20
94.5987
11
4.2049808
21
95.7681211
0
LINE
8
DEFAULT_255_1_234
10
4.2049808
20
95.7681211
11
4.3591902
21
95.7681211
0
LINE
8
DEFAULT_255_1_234
10
5.5398557
20
95.7681211
11
5.5398557
21
94.5987
0
LINE
8
DEFAULT_255_1_234
10
5.5398557
20
94.5987
11
5.3848432
21
94.5987
0
LINE
8
DEFAULT_255_1_234
10
5.3848432
20
94.5987
11
4.7961167
21
95.499861
0
LINE
8
DEFAULT_255_1_234
10
4.7961167
20
95.499861
11
4.7961167
21
94.5987
0
LINE
8
DEFAULT_255_1_234
10
4.7961167
20
94.5987
11
4.6411042
21
94.5987
0
LINE
8
DEFAULT_255_1_234
10
4.6411042
20
94.5987
11
4.6411042
21
95.7681211
0
LINE
8
DEFAULT_255_1_234
10
4.6411042
20
95.7681211
11
4.7961167
21
95.7681211
0
LINE
8
DEFAULT_255_1_234
10
4.7961167
20
95.7681211
11
5.3864495
21
94.8629442
0
LINE
8
DEFAULT_255_1_234
10
5.3864495
20
94.8629442
11
5.3864495
21
95.7681211
0
LINE
8
DEFAULT_255_1_234
10
5.3864495
20
95.7681211
11
5.5398557
21
95.7681211
0
ARC
8
DEFAULT_255_1_234
10
6.202164
20
95.4603703
40
0.2822356
50
338.8763615
51
0.5166041
0
ARC
8
DEFAULT_255_1_234
10
6.2190294
20
95.4558208
40
0.2648703
50
325.8412414
51
338.4795939
0
ARC
8
DEFAULT_255_1_234
10
6.1799662
20
95.4829042
40
0.3124019
50
296.7586019
51
325.753654
0
ARC
8
DEFAULT_255_1_234
10
6.151177
20
95.5313789
40
0.368668
50
296.0902311
51
297.3618122
0
ARC
8
DEFAULT_255_1_234
10
6.1769228
20
94.8759041
40
0.3518806
50
47.9009248
51
67.1946869
0
ARC
8
DEFAULT_255_1_234
10
6.196547
20
94.9005395
40
0.320451
50
35.236241
51
47.551371
0
ARC
8
DEFAULT_255_1_234
10
6.2227088
20
94.9179993
40
0.2890103
50
359.2759738
51
35.4014081
0
ARC
8
DEFAULT_255_1_234
10
6.1482119
20
94.9106826
40
0.3635026
50
343.1294516
51
0.5776525
0
ARC
8
DEFAULT_255_1_234
10
6.2206664
20
94.890733
40
0.2883832
50
310.8497458
51
342.744803
0
ARC
8
DEFAULT_255_1_234
10
6.1788777
20
94.9384294
40
0.3517954
50
281.5473923
51
310.9169905
0
ARC
8
DEFAULT_255_1_234
10
6.1432227
20
95.0937084
40
0.5110832
50
269.6192722
51
281.9789957
0
ARC
8
DEFAULT_255_1_234
10
6.1360016
20
95.0937828
40
0.5111606
50
257.4584469
51
270.4287458
0
ARC
8
DEFAULT_255_1_234
10
6.0979159
20
94.9334344
40
0.3463762
50
228.7553743
51
257.8484423
0
ARC
8
DEFAULT_255_1_234
10
6.0669357
20
94.8961442
40
0.297916
50
184.0104442
51
228.5071787
0
ARC
8
DEFAULT_255_1_234
10
6.1832301
20
94.9138512
40
0.4152734
50
179.9315461
51
185.3254504
0
ARC
8
DEFAULT_255_1_234
10
6.0655947
20
94.9175992
40
0.2976554
50
145.6795913
51
180.6259649
0
ARC
8
DEFAULT_255_1_234
10
6.0819296
20
94.9061929
40
0.3175776
50
115.5537925
51
145.6416199
0
ARC
8
DEFAULT_255_1_234
10
6.1160227
20
94.8451028
40
0.3874232
50
113.2437915
51
116.2054627
0
ARC
8
DEFAULT_255_1_234
10
6.1007439
20
95.484958
40
0.3154751
50
222.9548379
51
244.1372485
0
ARC
8
DEFAULT_255_1_234
10
6.0885514
20
95.4712834
40
0.2972382
50
213.3439227
51
222.6271327
0
ARC
8
DEFAULT_255_1_234
10
6.0693449
20
95.4582308
40
0.274019
50
180.4316517
51
213.2713999
0
ARC
8
DEFAULT_255_1_234
10
6.126845
20
95.462911
40
0.33158
50
179.9992944
51
181.1655061
0
ARC
8
DEFAULT_255_1_234
10
6.1677867
20
95.4663561
40
0.3725376
50
164.6186108
51
180.5292368
0
ARC
8
DEFAULT_255_1_234
10
6.077973
20
95.4905101
40
0.2795349
50
132.2454369
51
164.5092287
0
ARC
8
DEFAULT_255_1_234
10
6.1066834
20
95.4580028
40
0.3229019
50
100.7052766
51
132.1387266
0
ARC
8
DEFAULT_255_1_234
10
6.1371806
20
95.3202086
40
0.4639835
50
89.6732617
51
101.2449487
0
ARC
8
DEFAULT_255_1_234
10
6.1434004
20
95.337699
40
0.4464999
50
76.2876631
51
90.4586123
0
ARC
8
DEFAULT_255_1_234
10
6.1740236
20
95.459922
40
0.3205023
50
47.8240157
51
76.4266918
0
ARC
8
DEFAULT_255_1_234
10
6.1962786
20
95.485959
40
0.2862661
50
6.9168658
51
47.6261438
0
ARC
8
DEFAULT_255_1_234
10
6.0776189
20
95.464037
40
0.4067708
50
359.8419705
51
7.9694496
0
ARC
8
DEFAULT_255_1_234
10
6.1118086
20
94.9199925
40
0.2513121
50
359.4454068
51
16.9256425
0
ARC
8
DEFAULT_255_1_234
10
6.1586897
20
94.9329033
40
0.2027071
50
17.292259
51
45.462717
0
ARC
8
DEFAULT_255_1_234
10
6.1532833
20
94.9282434
40
0.2098212
50
45.3028762
51
83.1921472
0
ARC
8
DEFAULT_255_1_234
10
6.1389517
20
94.8480895
40
0.2911472
50
82.2614531
51
90.143954
0
ARC
8
DEFAULT_255_1_234
10
6.1358637
20
94.871395
40
0.2678513
50
89.4959189
51
104.8579811
0
ARC
8
DEFAULT_255_1_234
10
6.1181896
20
94.938389
40
0.1985654
50
104.8855873
51
135.2448349
0
ARC
8
DEFAULT_255_1_234
10
6.1231669
20
94.9339336
40
0.2052373
50
135.3398955
51
172.104394
0
ARC
8
DEFAULT_255_1_234
10
6.2038727
20
94.9184925
40
0.2873299
50
171.2651929
51
180.1859362
0
ARC
8
DEFAULT_255_1_234
10
6.1869428
20
94.9152733
40
0.2704083
50
179.515471
51
193.6466734
0
ARC
8
DEFAULT_255_1_234
10
6.1053197
20
94.8944777
40
0.1861855
50
193.3540587
51
225.8256931
0
ARC
8
DEFAULT_255_1_234
10
6.1093955
20
94.9015524
40
0.1941102
50
226.418029
51
255.8553723
0
ARC
8
DEFAULT_255_1_234
10
6.1350387
20
94.9951998
40
0.2911917
50
255.4655572
51
268.7985967
0
ARC
8
DEFAULT_255_1_234
10
6.1397579
20
95.0790491
40
0.3751331
50
268.3464808
51
270.0104874
0
ARC
8
DEFAULT_255_1_234
10
6.1420967
20
95.0106138
40
0.3067064
50
269.575914
51
282.0823146
0
ARC
8
DEFAULT_255_1_234
10
6.1645876
20
94.9111803
40
0.2047712
50
281.7522535
51
306.6056425
0
ARC
8
DEFAULT_255_1_234
10
6.1744302
20
94.8950487
40
0.1859604
50
307.1350025
51
314.0277951
0
ARC
8
DEFAULT_255_1_234
10
6.1708386
20
94.8976766
40
0.1903475
50
314.2553419
51
350.169324
0
ARC
8
DEFAULT_255_1_234
10
6.0856855
20
94.9161409
40
0.2774269
50
349.4145679
51
0.2930737
0
ARC
8
DEFAULT_255_1_234
10
6.1377288
20
95.4320353
40
0.2300764
50
89.477591
51
105.729794
0
ARC
8
DEFAULT_255_1_234
10
6.1241202
20
95.4825637
40
0.1777519
50
105.922966
51
135.1662921
0
ARC
8
DEFAULT_255_1_234
10
6.1261704
20
95.4811419
40
0.1802087
50
135.3053131
51
168.9882338
0
ARC
8
DEFAULT_255_1_234
10
6.2089277
20
95.4621721
40
0.2650806
50
168.3802067
51
180.3602358
0
ARC
8
DEFAULT_255_1_234
10
6.1860856
20
95.4584041
40
0.2422425
50
179.5029707
51
194.9126783
0
ARC
8
DEFAULT_255_1_234
10
6.1275517
20
95.443011
40
0.1817188
50
194.9722181
51
224.1943972
0
ARC
8
DEFAULT_255_1_234
10
6.1247384
20
95.4407169
40
0.1781027
50
224.2961434
51
262.0157375
0
ARC
8
DEFAULT_255_1_234
10
6.1389627
20
95.5138661
40
0.2525492
50
261.1250369
51
270.1959853
0
ARC
8
DEFAULT_255_1_234
10
6.1419382
20
95.4951339
40
0.233825
50
269.4825617
51
285.0988277
0
ARC
8
DEFAULT_255_1_234
10
6.1573541
20
95.437299
40
0.1739712
50
285.1585659
51
315.9484648
0
ARC
8
DEFAULT_255_1_234
10
6.1484553
20
95.4454886
40
0.1860616
50
316.0412958
51
351.9162715
0
ARC
8
DEFAULT_255_1_234
10
6.0751508
20
95.4596245
40
0.2606517
50
351.1056823
51
0.1936567
0
ARC
8
DEFAULT_255_1_234
10
6.1014337
20
95.4626369
40
0.234377
50
359.4789506
51
16.0679113
0
ARC
8
DEFAULT_255_1_234
10
6.1490296
20
95.475481
40
0.1850875
50
16.3251951
51
44.791304
0
ARC
8
DEFAULT_255_1_234
10
6.1472577
20
95.4755339
40
0.186312
50
44.3958661
51
88.2498933
0
ARC
8
DEFAULT_255_1_234
10
6.1399131
20
95.4144154
40
0.2476868
50
86.9833827
51
90.0200148
0
LINE
8
DEFAULT_255_1_234
10
7.139778
20
95.5673276
11
7.139778
21
95.2259788
0
LINE
8
DEFAULT_255_1_234
10
7.139778
20
95.2259788
11
7.4658666
21
95.2259788
0
LINE
8
DEFAULT_255_1_234
10
7.4658666
20
95.2259788
11
7.4658666
21
95.0854233
0
LINE
8
DEFAULT_255_1_234
10
7.4658666
20
95.0854233
11
7.139778
21
95.0854233
0
LINE
8
DEFAULT_255_1_234
10
7.139778
20
95.0854233
11
7.139778
21
94.7159634
0
LINE
8
DEFAULT_255_1_234
10
7.139778
20
94.7159634
11
6.9903876
21
94.7159634
0
LINE
8
DEFAULT_255_1_234
10
6.9903876
20
94.7159634
11
6.9903876
21
95.0854233
0
LINE
8
DEFAULT_255_1_234
10
6.9903876
20
95.0854233
11
6.6642991
21
95.0854233
0
LINE
8
DEFAULT_255_1_234
10
6.6642991
20
95.0854233
11
6.6642991
21
95.2259788
0
LINE
8
DEFAULT_255_1_234
10
6.6642991
20
95.2259788
11
6.9903876
21
95.2259788
0
LINE
8
DEFAULT_255_1_234
10
6.9903876
20
95.2259788
11
6.9903876
21
95.5673276
0
LINE
8
DEFAULT_255_1_234
10
6.9903876
20
95.5673276
11
7.139778
21
95.5673276
0
LINE
8
DEFAULT_255_1_234
10
4.3873902
20
101.0598211
11
4.3873902
21
99.8904
0
LINE
8
DEFAULT_255_1_234
10
4.3873902
20
99.8904
11
4.2331808
21
99.8904
0
LINE
8
DEFAULT_255_1_234
10
4.2331808
20
99.8904
11
4.2331808
21
101.0598211
0
LINE
8
DEFAULT_255_1_234
10
4.2331808
20
101.0598211
11
4.3873902
21
101.0598211
0
LINE
8
DEFAULT_255_1_234
10
5.5680557
20
101.0598211
11
5.5680557
21
99.8904
0
LINE
8
DEFAULT_255_1_234
10
5.5680557
20
99.8904
11
5.4130432
21
99.8904
0
LINE
8
DEFAULT_255_1_234
10
5.4130432
20
99.8904
11
4.8243167
21
100.791561
0
LINE
8
DEFAULT_255_1_234
10
4.8243167
20
100.791561
11
4.8243167
21
99.8904
0
LINE
8
DEFAULT_255_1_234
10
4.8243167
20
99.8904
11
4.6693042
21
99.8904
0
LINE
8
DEFAULT_255_1_234
10
4.6693042
20
99.8904
11
4.6693042
21
101.0598211
0
LINE
8
DEFAULT_255_1_234
10
4.6693042
20
101.0598211
11
4.8243167
21
101.0598211
0
LINE
8
DEFAULT_255_1_234
10
4.8243167
20
101.0598211
11
5.4146495
21
100.1546442
0
LINE
8
DEFAULT_255_1_234
10
5.4146495
20
100.1546442
11
5.4146495
21
101.0598211
0
LINE
8
DEFAULT_255_1_234
10
5.4146495
20
101.0598211
11
5.5680557
21
101.0598211
0
LINE
8
DEFAULT_255_1_234
10
6.558369
20
101.0598211
11
6.558369
21
100.976291
0
LINE
8
DEFAULT_255_1_234
10
6.558369
20
100.976291
11
6.0740552
21
99.8904
0
LINE
8
DEFAULT_255_1_234
10
6.0740552
20
99.8904
11
5.9182395
21
99.8904
0
LINE
8
DEFAULT_255_1_234
10
5.9182395
20
99.8904
11
6.400947
21
100.9377387
0
LINE
8
DEFAULT_255_1_234
10
6.400947
20
100.9377387
11
5.768046
21
100.9377387
0
LINE
8
DEFAULT_255_1_234
10
5.768046
20
100.9377387
11
5.768046
21
101.0598211
0
LINE
8
DEFAULT_255_1_234
10
5.768046
20
101.0598211
11
6.558369
21
101.0598211
0
LINE
8
DEFAULT_255_1_234
10
7.0515178
20
100.4478026
11
7.0515178
21
100.3265234
0
LINE
8
DEFAULT_255_1_234
10
7.0515178
20
100.3265234
11
6.6595689
21
100.3265234
0
LINE
8
DEFAULT_255_1_234
10
6.6595689
20
100.3265234
11
6.6595689
21
100.4478026
0
LINE
8
DEFAULT_255_1_234
10
6.6595689
20
100.4478026
11
7.0515178
21
100.4478026
0
LINE
8
DEFAULT_255_1_234
10
4.3591902
20
106.3514211
11
4.3591902
21
105.182
0
LINE
8
DEFAULT_255_1_234
10
4.3591902
20
105.182
11
4.2049808
21
105.182
0
LINE
8
DEFAULT_255_1_234
10
4.2049808
20
105.182
11
4.2049808
21
106.3514211
0
LINE
8
DEFAULT_255_1_234
10
4.2049808
20
106.3514211
11
4.3591902
21
106.3514211
0
LINE
8
DEFAULT_255_1_234
10
5.5398557
20
106.3514211
11
5.5398557
21
105.182
0
LINE
8
DEFAULT_255_1_234
10
5.5398557
20
105.182
11
5.3848432
21
105.182
0
LINE
8
DEFAULT_255_1_234
10
5.3848432
20
105.182
11
4.7961167
21
106.083161
0
LINE
8
DEFAULT_255_1_234
10
4.7961167
20
106.083161
11
4.7961167
21
105.182
0
LINE
8
DEFAULT_255_1_234
10
4.7961167
20
105.182
11
4.6411042
21
105.182
0
LINE
8
DEFAULT_255_1_234
10
4.6411042
20
105.182
11
4.6411042
21
106.3514211
0
LINE
8
DEFAULT_255_1_234
10
4.6411042
20
106.3514211
11
4.7961167
21
106.3514211
0
LINE
8
DEFAULT_255_1_234
10
4.7961167
20
106.3514211
11
5.3864495
21
105.4462442
0
LINE
8
DEFAULT_255_1_234
10
5.3864495
20
105.4462442
11
5.3864495
21
106.3514211
0
LINE
8
DEFAULT_255_1_234
10
5.3864495
20
106.3514211
11
5.5398557
21
106.3514211
0
LINE
8
DEFAULT_255_1_234
10
6.530169
20
106.3514211
11
6.530169
21
106.267891
0
LINE
8
DEFAULT_255_1_234
10
6.530169
20
106.267891
11
6.0458552
21
105.182
0
LINE
8
DEFAULT_255_1_234
10
6.0458552
20
105.182
11
5.8900395
21
105.182
0
LINE
8
DEFAULT_255_1_234
10
5.8900395
20
105.182
11
6.372747
21
106.2293387
0
LINE
8
DEFAULT_255_1_234
10
6.372747
20
106.2293387
11
5.739846
21
106.2293387
0
LINE
8
DEFAULT_255_1_234
10
5.739846
20
106.2293387
11
5.739846
21
106.3514211
0
LINE
8
DEFAULT_255_1_234
10
5.739846
20
106.3514211
11
6.530169
21
106.3514211
0
LINE
8
DEFAULT_255_1_234
10
7.139778
20
106.1506276
11
7.139778
21
105.8092788
0
LINE
8
DEFAULT_255_1_234
10
7.139778
20
105.8092788
11
7.4658666
21
105.8092788
0
LINE
8
DEFAULT_255_1_234
10
7.4658666
20
105.8092788
11
7.4658666
21
105.6687233
0
LINE
8
DEFAULT_255_1_234
10
7.4658666
20
105.6687233
11
7.139778
21
105.6687233
0
LINE
8
DEFAULT_255_1_234
10
7.139778
20
105.6687233
11
7.139778
21
105.2992634
0
LINE
8
DEFAULT_255_1_234
10
7.139778
20
105.2992634
11
6.9903876
21
105.2992634
0
LINE
8
DEFAULT_255_1_234
10
6.9903876
20
105.2992634
11
6.9903876
21
105.6687233
0
LINE
8
DEFAULT_255_1_234
10
6.9903876
20
105.6687233
11
6.6642991
21
105.6687233
0
LINE
8
DEFAULT_255_1_234
10
6.6642991
20
105.6687233
11
6.6642991
21
105.8092788
0
LINE
8
DEFAULT_255_1_234
10
6.6642991
20
105.8092788
11
6.9903876
21
105.8092788
0
LINE
8
DEFAULT_255_1_234
10
6.9903876
20
105.8092788
11
6.9903876
21
106.1506276
0
LINE
8
DEFAULT_255_1_234
10
6.9903876
20
106.1506276
11
7.139778
21
106.1506276
0
LINE
8
DEFAULT_255_1_234
10
4.3873902
20
111.6431211
11
4.3873902
21
110.4737
0
LINE
8
DEFAULT_255_1_234
10
4.3873902
20
110.4737
11
4.2331808
21
110.4737
0
LINE
8
DEFAULT_255_1_234
10
4.2331808
20
110.4737
11
4.2331808
21
111.6431211
0
LINE
8
DEFAULT_255_1_234
10
4.2331808
20
111.6431211
11
4.3873902
21
111.6431211
0
LINE
8
DEFAULT_255_1_234
10
5.5680557
20
111.6431211
11
5.5680557
21
110.4737
0
LINE
8
DEFAULT_255_1_234
10
5.5680557
20
110.4737
11
5.4130432
21
110.4737
0
LINE
8
DEFAULT_255_1_234
10
5.4130432
20
110.4737
11
4.8243167
21
111.374861
0
LINE
8
DEFAULT_255_1_234
10
4.8243167
20
111.374861
11
4.8243167
21
110.4737
0
LINE
8
DEFAULT_255_1_234
10
4.8243167
20
110.4737
11
4.6693042
21
110.4737
0
LINE
8
DEFAULT_255_1_234
10
4.6693042
20
110.4737
11
4.6693042
21
111.6431211
0
LINE
8
DEFAULT_255_1_234
10
4.6693042
20
111.6431211
11
4.8243167
21
111.6431211
0
LINE
8
DEFAULT_255_1_234
10
4.8243167
20
111.6431211
11
5.4146495
21
110.7379442
0
LINE
8
DEFAULT_255_1_234
10
5.4146495
20
110.7379442
11
5.4146495
21
111.6431211
0
LINE
8
DEFAULT_255_1_234
10
5.4146495
20
111.6431211
11
5.5680557
21
111.6431211
0
LINE
8
DEFAULT_255_1_234
10
6.3599851
20
111.6439243
11
6.3864898
21
111.6439243
0
LINE
8
DEFAULT_255_1_234
10
6.3864898
20
111.6439243
11
6.3864898
21
111.517826
0
LINE
8
DEFAULT_255_1_234
10
6.3864898
20
111.517826
11
6.3591819
21
111.517826
0
LINE
8
DEFAULT_255_1_234
10
5.8122206
20
110.9186583
11
5.8122206
21
110.9756836
0
LINE
8
DEFAULT_255_1_234
10
5.9616109
20
110.9564075
11
5.9616109
21
110.9017917
0
ARC
8
DEFAULT_255_1_234
10
6.3644167
20
111.0180455
40
0.4998079
50
90.6001036
51
104.514704
0
ARC
8
DEFAULT_255_1_234
10
6.3255683
20
111.1625131
40
0.3502176
50
104.2855254
51
133.862935
0
ARC
8
DEFAULT_255_1_234
10
6.341944
20
111.151683
40
0.3693984
50
134.5302688
51
161.6210873
0
ARC
8
DEFAULT_255_1_234
10
6.5072629
20
111.0933895
40
0.5446739
50
161.2849839
51
174.2076652
0
ARC
8
DEFAULT_255_1_234
10
6.6479566
20
111.0739787
40
0.6866274
50
173.7810589
51
174.9254635
0
ARC
8
DEFAULT_255_1_234
10
6.1929398
20
110.9356839
40
0.3033419
50
95.8330959
51
138.9954921
0
ARC
8
DEFAULT_255_1_234
10
6.2152754
20
110.8078375
40
0.4328947
50
89.8753725
51
97.0544009
0
ARC
8
DEFAULT_255_1_234
10
6.220022
20
110.8913748
40
0.3493769
50
71.6407809
51
90.6240094
0
ARC
8
DEFAULT_255_1_234
10
6.2350793
20
110.9468082
40
0.2920396
50
39.6367836
51
71.019018
0
ARC
8
DEFAULT_255_1_234
10
6.1714266
20
110.8917998
40
0.3761538
50
10.658731
51
39.9043955
0
ARC
8
DEFAULT_255_1_234
10
6.0166349
20
110.8581686
40
0.5345136
50
359.682601
51
11.132623
0
ARC
8
DEFAULT_255_1_234
10
6.012648
20
110.851101
40
0.5385081
50
347.2486944
51
0.4369317
0
ARC
8
DEFAULT_255_1_234
10
6.1793957
20
110.8109807
40
0.3670249
50
318.1409698
51
347.6118597
0
ARC
8
DEFAULT_255_1_234
10
6.211895
20
110.7842702
40
0.3250007
50
275.6342139
51
317.8248465
0
ARC
8
DEFAULT_255_1_234
10
6.1898062
20
110.9142219
40
0.4565864
50
269.8874292
51
276.7917694
0
ARC
8
DEFAULT_255_1_234
10
6.1843132
20
110.8116743
40
0.3540676
50
246.9140195
51
270.7437342
0
ARC
8
DEFAULT_255_1_234
10
6.1849522
20
110.7974384
40
0.3412781
50
218.1665114
51
245.878116
0
ARC
8
DEFAULT_255_1_234
10
6.2728983
20
110.8710279
40
0.455911
50
191.4115814
51
218.6077802
0
ARC
8
DEFAULT_255_1_234
10
6.4667072
20
110.9144833
40
0.6545001
50
179.6345085
51
191.7836486
0
ARC
8
DEFAULT_255_1_234
10
7.0249409
20
110.9823697
40
1.2127388
50
171.4525249
51
180.3158839
0
ARC
8
DEFAULT_255_1_234
10
6.5854285
20
111.0507608
40
0.7679464
50
157.9802646
51
171.6246686
0
ARC
8
DEFAULT_255_1_234
10
6.3640306
20
111.1390421
40
0.5296008
50
141.4298019
51
157.854097
0
ARC
8
DEFAULT_255_1_234
10
6.2998627
20
111.1844381
40
0.4511509
50
102.8715806
51
140.8564722
0
ARC
8
DEFAULT_255_1_234
10
6.3646242
20
110.9404552
40
0.7034845
50
90.3778349
51
103.5869322
0
ARC
8
DEFAULT_255_1_234
10
6.1908018
20
110.879973
40
0.2370698
50
89.8751008
51
126.2071704
0
ARC
8
DEFAULT_255_1_234
10
6.1953808
20
110.8645303
40
0.2522934
50
124.9745049
51
144.895901
0
ARC
8
DEFAULT_255_1_234
10
6.1777999
20
110.878856
40
0.2296779
50
145.2974905
51
160.2660252
0
ARC
8
DEFAULT_255_1_234
10
6.4850537
20
110.8986071
40
0.5234525
50
179.6514266
51
190.2855912
0
ARC
8
DEFAULT_255_1_234
10
6.3156675
20
110.8666786
40
0.3510893
50
190.0945431
51
207.5098196
0
ARC
8
DEFAULT_255_1_234
10
6.2590944
20
110.8397623
40
0.288489
50
207.9583163
51
216.3251085
0
ARC
8
DEFAULT_255_1_234
10
6.2251052
20
110.8118105
40
0.2445587
50
215.7661442
51
232.5456785
0
ARC
8
DEFAULT_255_1_234
10
6.1868035
20
110.7631482
40
0.1826382
50
232.8005391
51
270.6605633
0
ARC
8
DEFAULT_255_1_234
10
6.1913736
20
110.7995612
40
0.2190529
50
269.35537
51
288.4744281
0
ARC
8
DEFAULT_255_1_234
10
6.2006633
20
110.7646118
40
0.1829749
50
289.1833337
51
322.9683818
0
ARC
8
DEFAULT_255_1_234
10
6.1395155
20
110.8128391
40
0.2608399
50
322.6007884
51
346.5182367
0
ARC
8
DEFAULT_255_1_234
10
6.0237751
20
110.8423616
40
0.3802777
50
346.2582162
51
358.7741648
0
ARC
8
DEFAULT_255_1_234
10
5.921942
20
110.8478965
40
0.4822176
50
358.3755224
51
0.0098023
0
ARC
8
DEFAULT_255_1_234
10
5.9975607
20
110.8506657
40
0.4066078
50
359.6214041
51
11.2839074
0
ARC
8
DEFAULT_255_1_234
10
6.1252754
20
110.8773066
40
0.2761514
50
11.0482309
51
31.8146458
0
ARC
8
DEFAULT_255_1_234
10
6.1561797
20
110.8940584
40
0.2410679
50
32.3035391
51
38.082671
0
ARC
8
DEFAULT_255_1_234
10
6.1982457
20
110.9321662
40
0.1844966
50
36.825067
51
85.7415724
0
ARC
8
DEFAULT_255_1_234
10
6.191529
20
110.8821301
40
0.2349122
50
85.0140713
51
90.0513278
0
LINE
8
DEFAULT_255_1_234
10
7.0515178
20
111.0311026
11
7.0515178
21
110.9098234
0
LINE
8
DEFAULT_255_1_234
10
7.0515178
20
110.9098234
11
6.6595689
21
110.9098234
0
LINE
8
DEFAULT_255_1_234
10
6.6595689
20
110.9098234
11
6.6595689
21
111.0311026
0
LINE
8
DEFAULT_255_1_234
10
6.6595689
20
111.0311026
11
7.0515178
21
111.0311026
0
LINE
8
DEFAULT_255_1_234
10
4.3591902
20
116.9348211
11
4.3591902
21
115.7654
0
LINE
8
DEFAULT_255_1_234
10
4.3591902
20
115.7654
11
4.2049808
21
115.7654
0
LINE
8
DEFAULT_255_1_234
10
4.2049808
20
115.7654
11
4.2049808
21
116.9348211
0
LINE
8
DEFAULT_255_1_234
10
4.2049808
20
116.9348211
11
4.3591902
21
116.9348211
0
LINE
8
DEFAULT_255_1_234
10
5.5398557
20
116.9348211
11
5.5398557
21
115.7654
0
LINE
8
DEFAULT_255_1_234
10
5.5398557
20
115.7654
11
5.3848432
21
115.7654
0
LINE
8
DEFAULT_255_1_234
10
5.3848432
20
115.7654
11
4.7961167
21
116.666561
0
LINE
8
DEFAULT_255_1_234
10
4.7961167
20
116.666561
11
4.7961167
21
115.7654
0
LINE
8
DEFAULT_255_1_234
10
4.7961167
20
115.7654
11
4.6411042
21
115.7654
0
LINE
8
DEFAULT_255_1_234
10
4.6411042
20
115.7654
11
4.6411042
21
116.9348211
0
LINE
8
DEFAULT_255_1_234
10
4.6411042
20
116.9348211
11
4.7961167
21
116.9348211
0
LINE
8
DEFAULT_255_1_234
10
4.7961167
20
116.9348211
11
5.3864495
21
116.0296442
0
LINE
8
DEFAULT_255_1_234
10
5.3864495
20
116.0296442
11
5.3864495
21
116.9348211
0
LINE
8
DEFAULT_255_1_234
10
5.3864495
20
116.9348211
11
5.5398557
21
116.9348211
0
LINE
8
DEFAULT_255_1_234
10
6.3317851
20
116.9356243
11
6.3582898
21
116.9356243
0
LINE
8
DEFAULT_255_1_234
10
6.3582898
20
116.9356243
11
6.3582898
21
116.809526
0
LINE
8
DEFAULT_255_1_234
10
6.3582898
20
116.809526
11
6.3309819
21
116.809526
0
LINE
8
DEFAULT_255_1_234
10
5.7840206
20
116.2103583
11
5.7840206
21
116.2673836
0
LINE
8
DEFAULT_255_1_234
10
5.9334109
20
116.2481075
11
5.9334109
21
116.1934917
0
ARC
8
DEFAULT_255_1_234
10
6.3362167
20
116.3097455
40
0.4998079
50
90.6001036
51
104.514704
0
ARC
8
DEFAULT_255_1_234
10
6.2973683
20
116.4542131
40
0.3502176
50
104.2855254
51
133.862935
0
ARC
8
DEFAULT_255_1_234
10
6.313744
20
116.443383
40
0.3693984
50
134.5302688
51
161.6210873
0
ARC
8
DEFAULT_255_1_234
10
6.4790629
20
116.3850895
40
0.5446739
50
161.2849839
51
174.2076652
0
ARC
8
DEFAULT_255_1_234
10
6.6197566
20
116.3656787
40
0.6866274
50
173.7810589
51
174.9254635
0
ARC
8
DEFAULT_255_1_234
10
6.1647398
20
116.2273839
40
0.3033419
50
95.8330959
51
138.9954921
0
ARC
8
DEFAULT_255_1_234
10
6.1870754
20
116.0995375
40
0.4328947
50
89.8753725
51
97.0544009
0
ARC
8
DEFAULT_255_1_234
10
6.191822
20
116.1830748
40
0.3493769
50
71.6407809
51
90.6240094
0
ARC
8
DEFAULT_255_1_234
10
6.2068793
20
116.2385082
40
0.2920396
50
39.6367836
51
71.019018
0
ARC
8
DEFAULT_255_1_234
10
6.1432266
20
116.1834998
40
0.3761538
50
10.658731
51
39.9043955
0
ARC
8
DEFAULT_255_1_234
10
5.9884349
20
116.1498686
40
0.5345136
50
359.682601
51
11.132623
0
ARC
8
DEFAULT_255_1_234
10
5.984448
20
116.142801
40
0.5385081
50
347.2486944
51
0.4369317
0
ARC
8
DEFAULT_255_1_234
10
6.1511957
20
116.1026807
40
0.3670249
50
318.1409698
51
347.6118597
0
ARC
8
DEFAULT_255_1_234
10
6.183695
20
116.0759702
40
0.3250007
50
275.6342139
51
317.8248465
0
ARC
8
DEFAULT_255_1_234
10
6.1616062
20
116.2059219
40
0.4565864
50
269.8874292
51
276.7917694
0
ARC
8
DEFAULT_255_1_234
10
6.1561132
20
116.1033743
40
0.3540676
50
246.9140195
51
270.7437342
0
ARC
8
DEFAULT_255_1_234
10
6.1567522
20
116.0891384
40
0.3412781
50
218.1665114
51
245.878116
0
ARC
8
DEFAULT_255_1_234
10
6.2446983
20
116.1627279
40
0.455911
50
191.4115814
51
218.6077802
0
ARC
8
DEFAULT_255_1_234
10
6.4385072
20
116.2061833
40
0.6545001
50
179.6345085
51
191.7836486
0
ARC
8
DEFAULT_255_1_234
10
6.9967409
20
116.2740697
40
1.2127388
50
171.4525249
51
180.3158839
0
ARC
8
DEFAULT_255_1_234
10
6.5572285
20
116.3424608
40
0.7679464
50
157.9802646
51
171.6246686
0
ARC
8
DEFAULT_255_1_234
10
6.3358306
20
116.4307421
40
0.5296008
50
141.4298019
51
157.854097
0
ARC
8
DEFAULT_255_1_234
10
6.2716627
20
116.4761381
40
0.4511509
50
102.8715806
51
140.8564722
0
ARC
8
DEFAULT_255_1_234
10
6.3364242
20
116.2321552
40
0.7034845
50
90.3778349
51
103.5869322
0
ARC
8
DEFAULT_255_1_234
10
6.1626018
20
116.171673
40
0.2370698
50
89.8751008
51
126.2071704
0
ARC
8
DEFAULT_255_1_234
10
6.1671808
20
116.1562303
40
0.2522934
50
124.9745049
51
144.895901
0
ARC
8
DEFAULT_255_1_234
10
6.1495999
20
116.170556
40
0.2296779
50
145.2974905
51
160.2660252
0
ARC
8
DEFAULT_255_1_234
10
6.4568537
20
116.1903071
40
0.5234525
50
179.6514266
51
190.2855912
0
ARC
8
DEFAULT_255_1_234
10
6.2874675
20
116.1583786
40
0.3510893
50
190.0945431
51
207.5098196
0
ARC
8
DEFAULT_255_1_234
10
6.2308944
20
116.1314623
40
0.288489
50
207.9583163
51
216.3251085
0
ARC
8
DEFAULT_255_1_234
10
6.1969052
20
116.1035105
40
0.2445587
50
215.7661442
51
232.5456785
0
ARC
8
DEFAULT_255_1_234
10
6.1586035
20
116.0548482
40
0.1826382
50
232.8005391
51
270.6605633
0
ARC
8
DEFAULT_255_1_234
10
6.1631736
20
116.0912612
40
0.2190529
50
269.35537
51
288.4744281
0
ARC
8
DEFAULT_255_1_234
10
6.1724633
20
116.0563118
40
0.1829749
50
289.1833337
51
322.9683818
0
ARC
8
DEFAULT_255_1_234
10
6.1113155
20
116.1045391
40
0.2608399
50
322.6007884
51
346.5182367
0
ARC
8
DEFAULT_255_1_234
10
5.9955751
20
116.1340616
40
0.3802777
50
346.2582162
51
358.7741648
0
ARC
8
DEFAULT_255_1_234
10
5.893742
20
116.1395965
40
0.4822176
50
358.3755224
51
0.0098023
0
ARC
8
DEFAULT_255_1_234
10
5.9693607
20
116.1423657
40
0.4066078
50
359.6214041
51
11.2839074
0
ARC
8
DEFAULT_255_1_234
10
6.0970754
20
116.1690066
40
0.2761514
50
11.0482309
51
31.8146458
0
ARC
8
DEFAULT_255_1_234
10
6.1279797
20
116.1857584
40
0.2410679
50
32.3035391
51
38.082671
0
ARC
8
DEFAULT_255_1_234
10
6.1700457
20
116.2238662
40
0.1844966
50
36.825067
51
85.7415724
0
ARC
8
DEFAULT_255_1_234
10
6.163329
20
116.1738301
40
0.2349122
50
85.0140713
51
90.0513278
0
LINE
8
DEFAULT_255_1_234
10
7.139778
20
116.7340276
11
7.139778
21
116.3926788
0
LINE
8
DEFAULT_255_1_234
10
7.139778
20
116.3926788
11
7.4658666
21
116.3926788
0
LINE
8
DEFAULT_255_1_234
10
7.4658666
20
116.3926788
11
7.4658666
21
116.2521233
0
LINE
8
DEFAULT_255_1_234
10
7.4658666
20
116.2521233
11
7.139778
21
116.2521233
0
LINE
8
DEFAULT_255_1_234
10
7.139778
20
116.2521233
11
7.139778
21
115.8826634
0
LINE
8
DEFAULT_255_1_234
10
7.139778
20
115.8826634
11
6.9903876
21
115.8826634
0
LINE
8
DEFAULT_255_1_234
10
6.9903876
20
115.8826634
11
6.9903876
21
116.2521233
0
LINE
8
DEFAULT_255_1_234
10
6.9903876
20
116.2521233
11
6.6642991
21
116.2521233
0
LINE
8
DEFAULT_255_1_234
10
6.6642991
20
116.2521233
11
6.6642991
21
116.3926788
0
LINE
8
DEFAULT_255_1_234
10
6.6642991
20
116.3926788
11
6.9903876
21
116.3926788
0
LINE
8
DEFAULT_255_1_234
10
6.9903876
20
116.3926788
11
6.9903876
21
116.7340276
0
LINE
8
DEFAULT_255_1_234
10
6.9903876
20
116.7340276
11
7.139778
21
116.7340276
0
LINE
8
DEFAULT_255_1_234
10
4.3873902
20
122.2264211
11
4.3873902
21
121.057
0
LINE
8
DEFAULT_255_1_234
10
4.3873902
20
121.057
11
4.2331808
21
121.057
0
LINE
8
DEFAULT_255_1_234
10
4.2331808
20
121.057
11
4.2331808
21
122.2264211
0
LINE
8
DEFAULT_255_1_234
10
4.2331808
20
122.2264211
11
4.3873902
21
122.2264211
0
LINE
8
DEFAULT_255_1_234
10
5.5680557
20
122.2264211
11
5.5680557
21
121.057
0
LINE
8
DEFAULT_255_1_234
10
5.5680557
20
121.057
11
5.4130432
21
121.057
0
LINE
8
DEFAULT_255_1_234
10
5.4130432
20
121.057
11
4.8243167
21
121.958161
0
LINE
8
DEFAULT_255_1_234
10
4.8243167
20
121.958161
11
4.8243167
21
121.057
0
LINE
8
DEFAULT_255_1_234
10
4.8243167
20
121.057
11
4.6693042
21
121.057
0
LINE
8
DEFAULT_255_1_234
10
4.6693042
20
121.057
11
4.6693042
21
122.2264211
0
LINE
8
DEFAULT_255_1_234
10
4.6693042
20
122.2264211
11
4.8243167
21
122.2264211
0
LINE
8
DEFAULT_255_1_234
10
4.8243167
20
122.2264211
11
5.4146495
21
121.3212442
0
LINE
8
DEFAULT_255_1_234
10
5.4146495
20
121.3212442
11
5.4146495
21
122.2264211
0
LINE
8
DEFAULT_255_1_234
10
5.4146495
20
122.2264211
11
5.5680557
21
122.2264211
0
LINE
8
DEFAULT_255_1_234
10
5.9905251
20
121.6127963
11
5.8716554
21
121.6433169
0
LINE
8
DEFAULT_255_1_234
10
5.8716554
20
121.6433169
11
5.9310903
21
122.2264211
0
LINE
8
DEFAULT_255_1_234
10
5.9310903
20
122.2264211
11
6.530258
21
122.2264211
0
LINE
8
DEFAULT_255_1_234
10
6.530258
20
122.2264211
11
6.530258
21
122.0890784
0
LINE
8
DEFAULT_255_1_234
10
6.530258
20
122.0890784
11
6.0571886
21
122.0890784
0
LINE
8
DEFAULT_255_1_234
10
6.0571886
20
122.0890784
11
6.0218489
21
121.7702184
0
LINE
8
DEFAULT_255_1_234
10
5.8298904
20
121.3646156
11
5.9704458
21
121.3646156
0
LINE
8
DEFAULT_255_1_234
10
6.0298807
20
121.6449232
11
5.9905251
21
121.6127963
0
ARC
8
DEFAULT_255_1_234
10
6.2073273
20
121.452223
40
0.3681349
50
93.7182161
51
120.2538958
0
ARC
8
DEFAULT_255_1_234
10
6.2167536
20
121.3714394
40
0.449379
50
89.9660152
51
94.2496022
0
ARC
8
DEFAULT_255_1_234
10
6.220827
20
121.4303549
40
0.390482
50
73.8043271
51
90.5585896
0
ARC
8
DEFAULT_255_1_234
10
6.2443167
20
121.5161602
40
0.3015334
50
41.3071453
51
73.5430202
0
ARC
8
DEFAULT_255_1_234
10
6.2026994
20
121.4803324
40
0.3564457
50
13.5075983
51
41.2174222
0
ARC
8
DEFAULT_255_1_234
10
6.0385198
20
121.4373486
40
0.5261351
50
1.1331335
51
13.8829381
0
ARC
8
DEFAULT_255_1_234
10
5.8973567
20
121.4297665
40
0.6674378
50
359.9919444
51
1.544251
0
ARC
8
DEFAULT_255_1_234
10
6.0250393
20
121.425628
40
0.5397702
50
347.8572367
51
0.4293338
0
ARC
8
DEFAULT_255_1_234
10
6.2000711
20
121.3859736
40
0.3603188
50
323.673004
51
348.1672506
0
ARC
8
DEFAULT_255_1_234
10
6.2295219
20
121.3680168
40
0.3259678
50
316.8171152
51
323.1492751
0
ARC
8
DEFAULT_255_1_234
10
6.2356408
20
121.364346
40
0.3189975
50
281.8396411
51
316.5457803
0
ARC
8
DEFAULT_255_1_234
10
6.1980672
20
121.5198762
40
0.4789527
50
269.5770101
51
282.4214771
0
ARC
8
DEFAULT_255_1_234
10
6.1909483
20
121.4985125
40
0.45759
50
256.2427136
51
270.4486331
0
ARC
8
DEFAULT_255_1_234
10
6.1610386
20
121.3785229
40
0.3339303
50
228.9023911
51
256.3314342
0
ARC
8
DEFAULT_255_1_234
10
6.1536618
20
121.3668746
40
0.32031
50
193.753695
51
228.5271154
0
ARC
8
DEFAULT_255_1_234
10
6.2774572
20
121.40318
40
0.4492253
50
184.924711
51
194.497588
0
ARC
8
DEFAULT_255_1_234
10
6.2967139
20
121.4067591
40
0.3289787
50
187.3600538
51
198.6732863
0
ARC
8
DEFAULT_255_1_234
10
6.1917433
20
121.3703674
40
0.217884
50
198.4451669
51
217.794479
0
ARC
8
DEFAULT_255_1_234
10
6.1621608
20
121.3494085
40
0.1816698
50
218.2887171
51
228.5612368
0
ARC
8
DEFAULT_255_1_234
10
6.1719395
20
121.3625963
40
0.1980329
50
228.9654866
51
258.1234728
0
ARC
8
DEFAULT_255_1_234
10
6.1925105
20
121.4506833
40
0.2884748
50
257.7258293
51
270.401361
0
ARC
8
DEFAULT_255_1_234
10
6.1969992
20
121.4061821
40
0.2439788
50
269.4204404
51
286.4209037
0
ARC
8
DEFAULT_255_1_234
10
6.2118479
20
121.3522657
40
0.1880666
50
286.7251356
51
320.600362
0
ARC
8
DEFAULT_255_1_234
10
6.1735304
20
121.3833595
40
0.2374121
50
320.6712579
51
344.5441685
0
ARC
8
DEFAULT_255_1_234
10
6.057863
20
121.4173045
40
0.3579479
50
344.2412205
51
356.7357071
0
ARC
8
DEFAULT_255_1_234
10
5.9329779
20
121.4276444
40
0.4832297
50
356.3548756
51
0.0500261
0
ARC
8
DEFAULT_255_1_234
10
6.0666288
20
121.430765
40
0.3495889
50
359.5576869
51
12.953486
0
ARC
8
DEFAULT_255_1_234
10
6.1721185
20
121.4563434
40
0.2410532
50
12.6490276
51
41.6081334
0
ARC
8
DEFAULT_255_1_234
10
6.1951556
20
121.4759321
40
0.2108218
50
41.7850273
51
85.9892764
0
ARC
8
DEFAULT_255_1_234
10
6.1828293
20
121.3946462
40
0.2928454
50
84.6957577
51
90.0676183
0
ARC
8
DEFAULT_255_1_234
10
6.1804777
20
121.3277716
40
0.3597255
50
89.6804936
51
99.1614436
0
ARC
8
DEFAULT_255_1_234
10
6.1599408
20
121.4505131
40
0.235281
50
98.9830931
51
113.8908934
0
ARC
8
DEFAULT_255_1_234
10
6.1369818
20
121.5046587
40
0.176479
50
114.1950727
51
127.3641004
0
LINE
8
DEFAULT_255_1_234
10
7.0515178
20
121.6144026
11
7.0515178
21
121.4931234
0
LINE
8
DEFAULT_255_1_234
10
7.0515178
20
121.4931234
11
6.6595689
21
121.4931234
0
LINE
8
DEFAULT_255_1_234
10
6.6595689
20
121.4931234
11
6.6595689
21
121.6144026
0
LINE
8
DEFAULT_255_1_234
10
6.6595689
20
121.6144026
11
7.0515178
21
121.6144026
0
LINE
8
DEFAULT_255_1_234
10
4.3591902
20
127.5181211
11
4.3591902
21
126.3487
0
LINE
8
DEFAULT_255_1_234
10
4.3591902
20
126.3487
11
4.2049808
21
126.3487
0
LINE
8
DEFAULT_255_1_234
10
4.2049808
20
126.3487
11
4.2049808
21
127.5181211
0
LINE
8
DEFAULT_255_1_234
10
4.2049808
20
127.5181211
11
4.3591902
21
127.5181211
0
LINE
8
DEFAULT_255_1_234
10
5.5398557
20
127.5181211
11
5.5398557
21
126.3487
0
LINE
8
DEFAULT_255_1_234
10
5.5398557
20
126.3487
11
5.3848432
21
126.3487
0
LINE
8
DEFAULT_255_1_234
10
5.3848432
20
126.3487
11
4.7961167
21
127.249861
0
LINE
8
DEFAULT_255_1_234
10
4.7961167
20
127.249861
11
4.7961167
21
126.3487
0
LINE
8
DEFAULT_255_1_234
10
4.7961167
20
126.3487
11
4.6411042
21
126.3487
0
LINE
8
DEFAULT_255_1_234
10
4.6411042
20
126.3487
11
4.6411042
21
127.5181211
0
LINE
8
DEFAULT_255_1_234
10
4.6411042
20
127.5181211
11
4.7961167
21
127.5181211
0
LINE
8
DEFAULT_255_1_234
10
4.7961167
20
127.5181211
11
5.3864495
21
126.6129442
0
LINE
8
DEFAULT_255_1_234
10
5.3864495
20
126.6129442
11
5.3864495
21
127.5181211
0
LINE
8
DEFAULT_255_1_234
10
5.3864495
20
127.5181211
11
5.5398557
21
127.5181211
0
LINE
8
DEFAULT_255_1_234
10
5.9623251
20
126.9044963
11
5.8434554
21
126.9350169
0
LINE
8
DEFAULT_255_1_234
10
5.8434554
20
126.9350169
11
5.9028903
21
127.5181211
0
LINE
8
DEFAULT_255_1_234
10
5.9028903
20
127.5181211
11
6.502058
21
127.5181211
0
LINE
8
DEFAULT_255_1_234
10
6.502058
20
127.5181211
11
6.502058
21
127.3807784
0
LINE
8
DEFAULT_255_1_234
10
6.502058
20
127.3807784
11
6.0289886
21
127.3807784
0
LINE
8
DEFAULT_255_1_234
10
6.0289886
20
127.3807784
11
5.9936489
21
127.0619184
0
LINE
8
DEFAULT_255_1_234
10
5.8016904
20
126.6563156
11
5.9422458
21
126.6563156
0
LINE
8
DEFAULT_255_1_234
10
6.0016807
20
126.9366232
11
5.9623251
21
126.9044963
0
ARC
8
DEFAULT_255_1_234
10
6.1791273
20
126.743923
40
0.3681349
50
93.7182161
51
120.2538958
0
ARC
8
DEFAULT_255_1_234
10
6.1885536
20
126.6631394
40
0.449379
50
89.9660152
51
94.2496022
0
ARC
8
DEFAULT_255_1_234
10
6.192627
20
126.7220549
40
0.390482
50
73.8043271
51
90.5585896
0
ARC
8
DEFAULT_255_1_234
10
6.2161167
20
126.8078602
40
0.3015334
50
41.3071453
51
73.5430202
0
ARC
8
DEFAULT_255_1_234
10
6.1744994
20
126.7720324
40
0.3564457
50
13.5075983
51
41.2174222
0
ARC
8
DEFAULT_255_1_234
10
6.0103198
20
126.7290486
40
0.5261351
50
1.1331335
51
13.8829381
0
ARC
8
DEFAULT_255_1_234
10
5.8691567
20
126.7214665
40
0.6674378
50
359.9919444
51
1.544251
0
ARC
8
DEFAULT_255_1_234
10
5.9968393
20
126.717328
40
0.5397702
50
347.8572367
51
0.4293338
0
ARC
8
DEFAULT_255_1_234
10
6.1718711
20
126.6776736
40
0.3603188
50
323.673004
51
348.1672506
0
ARC
8
DEFAULT_255_1_234
10
6.2013219
20
126.6597168
40
0.3259678
50
316.8171152
51
323.1492751
0
ARC
8
DEFAULT_255_1_234
10
6.2074408
20
126.656046
40
0.3189975
50
281.8396411
51
316.5457803
0
ARC
8
DEFAULT_255_1_234
10
6.1698672
20
126.8115762
40
0.4789527
50
269.5770101
51
282.4214771
0
ARC
8
DEFAULT_255_1_234
10
6.1627483
20
126.7902125
40
0.45759
50
256.2427136
51
270.4486331
0
ARC
8
DEFAULT_255_1_234
10
6.1328386
20
126.6702229
40
0.3339303
50
228.9023911
51
256.3314342
0
ARC
8
DEFAULT_255_1_234
10
6.1254618
20
126.6585746
40
0.32031
50
193.753695
51
228.5271154
0
ARC
8
DEFAULT_255_1_234
10
6.2492572
20
126.69488
40
0.4492253
50
184.924711
51
194.497588
0
ARC
8
DEFAULT_255_1_234
10
6.2685139
20
126.6984591
40
0.3289787
50
187.3600538
51
198.6732863
0
ARC
8
DEFAULT_255_1_234
10
6.1635433
20
126.6620674
40
0.217884
50
198.4451669
51
217.794479
0
ARC
8
DEFAULT_255_1_234
10
6.1339608
20
126.6411085
40
0.1816698
50
218.2887171
51
228.5612368
0
ARC
8
DEFAULT_255_1_234
10
6.1437395
20
126.6542963
40
0.1980329
50
228.9654866
51
258.1234728
0
ARC
8
DEFAULT_255_1_234
10
6.1643105
20
126.7423833
40
0.2884748
50
257.7258293
51
270.401361
0
ARC
8
DEFAULT_255_1_234
10
6.1687992
20
126.6978821
40
0.2439788
50
269.4204404
51
286.4209037
0
ARC
8
DEFAULT_255_1_234
10
6.1836479
20
126.6439657
40
0.1880666
50
286.7251356
51
320.600362
0
ARC
8
DEFAULT_255_1_234
10
6.1453304
20
126.6750595
40
0.2374121
50
320.6712579
51
344.5441685
0
ARC
8
DEFAULT_255_1_234
10
6.029663
20
126.7090045
40
0.3579479
50
344.2412205
51
356.7357071
0
ARC
8
DEFAULT_255_1_234
10
5.9047779
20
126.7193444
40
0.4832297
50
356.3548756
51
0.0500261
0
ARC
8
DEFAULT_255_1_234
10
6.0384288
20
126.722465
40
0.3495889
50
359.5576869
51
12.953486
0
ARC
8
DEFAULT_255_1_234
10
6.1439185
20
126.7480434
40
0.2410532
50
12.6490276
51
41.6081334
0
ARC
8
DEFAULT_255_1_234
10
6.1669556
20
126.7676321
40
0.2108218
50
41.7850273
51
85.9892764
0
ARC
8
DEFAULT_255_1_234
10
6.1546293
20
126.6863462
40
0.2928454
50
84.6957577
51
90.0676183
0
ARC
8
DEFAULT_255_1_234
10
6.1522777
20
126.6194716
40
0.3597255
50
89.6804936
51
99.1614436
0
ARC
8
DEFAULT_255_1_234
10
6.1317408
20
126.7422131
40
0.235281
50
98.9830931
51
113.8908934
0
ARC
8
DEFAULT_255_1_234
10
6.1087818
20
126.7963587
40
0.176479
50
114.1950727
51
127.3641004
0
LINE
8
DEFAULT_255_1_234
10
7.139778
20
127.3173276
11
7.139778
21
126.9759788
0
LINE
8
DEFAULT_255_1_234
10
7.139778
20
126.9759788
11
7.4658666
21
126.9759788
0
LINE
8
DEFAULT_255_1_234
10
7.4658666
20
126.9759788
11
7.4658666
21
126.8354233
0
LINE
8
DEFAULT_255_1_234
10
7.4658666
20
126.8354233
11
7.139778
21
126.8354233
0
LINE
8
DEFAULT_255_1_234
10
7.139778
20
126.8354233
11
7.139778
21
126.4659634
0
LINE
8
DEFAULT_255_1_234
10
7.139778
20
126.4659634
11
6.9903876
21
126.4659634
0
LINE
8
DEFAULT_255_1_234
10
6.9903876
20
126.4659634
11
6.9903876
21
126.8354233
0
LINE
8
DEFAULT_255_1_234
10
6.9903876
20
126.8354233
11
6.6642991
21
126.8354233
0
LINE
8
DEFAULT_255_1_234
10
6.6642991
20
126.8354233
11
6.6642991
21
126.9759788
0
LINE
8
DEFAULT_255_1_234
10
6.6642991
20
126.9759788
11
6.9903876
21
126.9759788
0
LINE
8
DEFAULT_255_1_234
10
6.9903876
20
126.9759788
11
6.9903876
21
127.3173276
0
LINE
8
DEFAULT_255_1_234
10
6.9903876
20
127.3173276
11
7.139778
21
127.3173276
0
LINE
8
DEFAULT_255_1_234
10
4.3873902
20
132.8098211
11
4.3873902
21
131.6404
0
LINE
8
DEFAULT_255_1_234
10
4.3873902
20
131.6404
11
4.2331808
21
131.6404
0
LINE
8
DEFAULT_255_1_234
10
4.2331808
20
131.6404
11
4.2331808
21
132.8098211
0
LINE
8
DEFAULT_255_1_234
10
4.2331808
20
132.8098211
11
4.3873902
21
132.8098211
0
LINE
8
DEFAULT_255_1_234
10
5.5680557
20
132.8098211
11
5.5680557
21
131.6404
0
LINE
8
DEFAULT_255_1_234
10
5.5680557
20
131.6404
11
5.4130432
21
131.6404
0
LINE
8
DEFAULT_255_1_234
10
5.4130432
20
131.6404
11
4.8243167
21
132.541561
0
LINE
8
DEFAULT_255_1_234
10
4.8243167
20
132.541561
11
4.8243167
21
131.6404
0
LINE
8
DEFAULT_255_1_234
10
4.8243167
20
131.6404
11
4.6693042
21
131.6404
0
LINE
8
DEFAULT_255_1_234
10
4.6693042
20
131.6404
11
4.6693042
21
132.8098211
0
LINE
8
DEFAULT_255_1_234
10
4.6693042
20
132.8098211
11
4.8243167
21
132.8098211
0
LINE
8
DEFAULT_255_1_234
10
4.8243167
20
132.8098211
11
5.4146495
21
131.9046442
0
LINE
8
DEFAULT_255_1_234
10
5.4146495
20
131.9046442
11
5.4146495
21
132.8098211
0
LINE
8
DEFAULT_255_1_234
10
5.4146495
20
132.8098211
11
5.5680557
21
132.8098211
0
LINE
8
DEFAULT_255_1_234
10
6.0194394
20
132.1761169
11
6.0194394
21
132.2973962
0
LINE
8
DEFAULT_255_1_234
10
6.0194394
20
132.2973962
11
6.1310806
21
132.2973962
0
LINE
8
DEFAULT_255_1_234
10
5.9407284
20
132.5030087
11
5.7921412
21
132.5030087
0
LINE
8
DEFAULT_255_1_234
10
5.7817
20
131.9488188
11
5.9310903
21
131.9488188
0
LINE
8
DEFAULT_255_1_234
10
6.1310806
20
132.1761169
11
6.0194394
21
132.1761169
0
ARC
8
DEFAULT_255_1_234
10
6.1281672
20
132.6366713
40
0.3392876
50
270.4919872
51
281.8951556
0
ARC
8
DEFAULT_255_1_234
10
6.1522934
20
132.5264702
40
0.2264817
50
281.6691735
51
301.2943132
0
ARC
8
DEFAULT_255_1_234
10
6.1693144
20
132.4953304
40
0.1910381
50
301.7833094
51
311.7545298
0
ARC
8
DEFAULT_255_1_234
10
6.178472
20
132.4851748
40
0.1773635
50
311.7323931
51
354.2802411
0
ARC
8
DEFAULT_255_1_234
10
6.1058345
20
132.4976722
40
0.2509385
50
353.0937916
51
0.1181479
0
ARC
8
DEFAULT_255_1_234
10
6.059713
20
132.5024386
40
0.2970898
50
359.1805295
51
15.0453146
0
ARC
8
DEFAULT_255_1_234
10
6.1942967
20
132.5416992
40
0.1569564
50
13.9577229
51
77.6713066
0
ARC
8
DEFAULT_255_1_234
10
6.1556496
20
132.4031949
40
0.3006298
50
76.1116566
51
90.7026153
0
ARC
8
DEFAULT_255_1_234
10
6.1497334
20
132.4305545
40
0.2732568
50
89.5324876
51
103.531937
0
ARC
8
DEFAULT_255_1_234
10
6.1296779
20
132.5104884
40
0.1908508
50
103.2931773
51
133.5619022
0
ARC
8
DEFAULT_255_1_234
10
6.1252267
20
132.5164375
40
0.1834746
50
133.8349307
51
173.5344437
0
ARC
8
DEFAULT_255_1_234
10
6.197531
20
132.5036213
40
0.2568033
50
172.5096846
51
180.1366907
0
ARC
8
DEFAULT_255_1_234
10
6.1024204
20
132.5070622
40
0.3103056
50
155.3484492
51
180.7484736
0
ARC
8
DEFAULT_255_1_234
10
6.0975293
20
132.5041846
40
0.3070957
50
131.5744599
51
154.4798489
0
ARC
8
DEFAULT_255_1_234
10
6.128844
20
132.472531
40
0.3515643
50
96.9875458
51
131.9690667
0
ARC
8
DEFAULT_255_1_234
10
6.150792
20
132.3479636
40
0.4779224
50
89.8596053
51
97.7825159
0
ARC
8
DEFAULT_255_1_234
10
6.1555983
20
132.3217616
40
0.5041361
50
78.3655447
51
90.4131539
0
ARC
8
DEFAULT_255_1_234
10
6.1913901
20
132.4876887
40
0.3344039
50
56.6229102
51
78.638727
0
ARC
8
DEFAULT_255_1_234
10
6.2128845
20
132.5252805
40
0.2912001
50
47.0253525
51
56.0854072
0
ARC
8
DEFAULT_255_1_234
10
6.2148625
20
132.5292223
40
0.2869704
50
10.9208013
51
46.7778124
0
ARC
8
DEFAULT_255_1_234
10
6.0784691
20
132.4976857
40
0.426899
50
359.6364486
51
11.6087304
0
ARC
8
DEFAULT_255_1_234
10
6.2619536
20
132.4961752
40
0.243409
50
332.3549906
51
359.7179418
0
ARC
8
DEFAULT_255_1_234
10
6.1969137
20
132.5270142
40
0.3153459
50
325.2333722
51
332.8745602
0
ARC
8
DEFAULT_255_1_234
10
6.2121761
20
132.5163828
40
0.2967456
50
292.9802137
51
325.2392345
0
ARC
8
DEFAULT_255_1_234
10
6.1847135
20
132.5697863
40
0.3566604
50
292.5402179
51
293.6924929
0
ARC
8
DEFAULT_255_1_234
10
6.223973
20
131.9243091
40
0.3307468
50
57.6435486
51
72.8625112
0
ARC
8
DEFAULT_255_1_234
10
6.259423
20
131.9817549
40
0.2632492
50
36.7248896
51
57.4697979
0
ARC
8
DEFAULT_255_1_234
10
6.2582863
20
131.983022
40
0.2634081
50
8.0545065
51
36.356114
0
ARC
8
DEFAULT_255_1_234
10
6.1720048
20
131.9675174
40
0.3510261
50
359.8320645
51
8.5869982
0
ARC
8
DEFAULT_255_1_234
10
6.1344824
20
131.9627101
40
0.3885653
50
343.9829931
51
0.5571613
0
ARC
8
DEFAULT_255_1_234
10
6.2231022
20
131.9384438
40
0.2966924
50
311.6359546
51
343.7651759
0
ARC
8
DEFAULT_255_1_234
10
6.1852591
20
131.9811102
40
0.3537231
50
279.7829875
51
311.6255694
0
ARC
8
DEFAULT_255_1_234
10
6.1551367
20
132.124828
40
0.5004971
50
269.7286406
51
280.3856417
0
ARC
8
DEFAULT_255_1_234
10
6.1489439
20
132.1206996
40
0.4963778
50
256.6828919
51
270.4412052
0
ARC
8
DEFAULT_255_1_234
10
6.1150735
20
131.9822394
40
0.3538406
50
229.4223008
51
256.8556159
0
ARC
8
DEFAULT_255_1_234
10
6.0736128
20
131.9355736
40
0.2914296
50
181.818294
51
229.6455059
0
ARC
8
DEFAULT_255_1_234
10
6.1776084
20
131.9486496
40
0.3959084
50
179.9755256
51
183.2323064
0
ARC
8
DEFAULT_255_1_234
10
6.160383
20
131.9466037
40
0.2293034
50
179.4465117
51
196.2869258
0
ARC
8
DEFAULT_255_1_234
10
6.1116238
20
131.9332651
40
0.1787621
50
196.5661473
51
227.705904
0
ARC
8
DEFAULT_255_1_234
10
6.1280333
20
131.9516155
40
0.2033784
50
227.7652068
51
257.8762805
0
ARC
8
DEFAULT_255_1_234
10
6.1505303
20
132.0459156
40
0.3003081
50
257.4584385
51
270.426602
0
ARC
8
DEFAULT_255_1_234
10
6.1550869
20
132.0748996
40
0.329292
50
269.5962073
51
280.8789248
0
ARC
8
DEFAULT_255_1_234
10
6.1780398
20
131.9602685
40
0.2123908
50
280.6346389
51
299.8595945
0
ARC
8
DEFAULT_255_1_234
10
6.1971305
20
131.9240212
40
0.171457
50
300.3576302
51
314.5517981
0
ARC
8
DEFAULT_255_1_234
10
6.1888365
20
131.9300919
40
0.1816095
50
315.0728369
51
345.0431014
0
ARC
8
DEFAULT_255_1_234
10
6.0965179
20
131.9569841
40
0.2777492
50
344.5986631
51
357.9269593
0
ARC
8
DEFAULT_255_1_234
10
6.0069506
20
131.9631276
40
0.3674917
50
357.4748886
51
0.0231117
0
ARC
8
DEFAULT_255_1_234
10
6.1092615
20
131.9655679
40
0.2651907
50
359.5047933
51
13.4239635
0
ARC
8
DEFAULT_255_1_234
10
6.1959259
20
131.9877478
40
0.1757509
50
12.9498199
51
48.7551375
0
ARC
8
DEFAULT_255_1_234
10
6.1776993
20
131.96284
40
0.2065134
50
49.5088623
51
72.1836453
0
ARC
8
DEFAULT_255_1_234
10
6.1419145
20
131.8566291
40
0.3185836
50
71.9010081
51
84.3554254
0
ARC
8
DEFAULT_255_1_234
10
6.1257777
20
131.7205326
40
0.4556151
50
84.0193428
51
89.333121
0
LINE
8
DEFAULT_255_1_234
10
7.0515178
20
132.1978026
11
7.0515178
21
132.0765234
0
LINE
8
DEFAULT_255_1_234
10
7.0515178
20
132.0765234
11
6.6595689
21
132.0765234
0
LINE
8
DEFAULT_255_1_234
10
6.6595689
20
132.0765234
11
6.6595689
21
132.1978026
0
LINE
8
DEFAULT_255_1_234
10
6.6595689
20
132.1978026
11
7.0515178
21
132.1978026
0
LINE
8
DEFAULT_255_1_234
10
4.3591902
20
138.1014211
11
4.3591902
21
136.932
0
LINE
8
DEFAULT_255_1_234
10
4.3591902
20
136.932
11
4.2049808
21
136.932
0
LINE
8
DEFAULT_255_1_234
10
4.2049808
20
136.932
11
4.2049808
21
138.1014211
0
LINE
8
DEFAULT_255_1_234
10
4.2049808
20
138.1014211
11
4.3591902
21
138.1014211
0
LINE
8
DEFAULT_255_1_234
10
5.5398557
20
138.1014211
11
5.5398557
21
136.932
0
LINE
8
DEFAULT_255_1_234
10
5.5398557
20
136.932
11
5.3848432
21
136.932
0
LINE
8
DEFAULT_255_1_234
10
5.3848432
20
136.932
11
4.7961167
21
137.833161
0
LINE
8
DEFAULT_255_1_234
10
4.7961167
20
137.833161
11
4.7961167
21
136.932
0
LINE
8
DEFAULT_255_1_234
10
4.7961167
20
136.932
11
4.6411042
21
136.932
0
LINE
8
DEFAULT_255_1_234
10
4.6411042
20
136.932
11
4.6411042
21
138.1014211
0
LINE
8
DEFAULT_255_1_234
10
4.6411042
20
138.1014211
11
4.7961167
21
138.1014211
0
LINE
8
DEFAULT_255_1_234
10
4.7961167
20
138.1014211
11
5.3864495
21
137.1962442
0
LINE
8
DEFAULT_255_1_234
10
5.3864495
20
137.1962442
11
5.3864495
21
138.1014211
0
LINE
8
DEFAULT_255_1_234
10
5.3864495
20
138.1014211
11
5.5398557
21
138.1014211
0
LINE
8
DEFAULT_255_1_234
10
5.9912394
20
137.4677169
11
5.9912394
21
137.5889962
0
LINE
8
DEFAULT_255_1_234
10
5.9912394
20
137.5889962
11
6.1028806
21
137.5889962
0
LINE
8
DEFAULT_255_1_234
10
5.9125284
20
137.7946087
11
5.7639412
21
137.7946087
0
LINE
8
DEFAULT_255_1_234
10
5.7535
20
137.2404188
11
5.9028903
21
137.2404188
0
LINE
8
DEFAULT_255_1_234
10
6.1028806
20
137.4677169
11
5.9912394
21
137.4677169
0
ARC
8
DEFAULT_255_1_234
10
6.0999672
20
137.9282713
40
0.3392876
50
270.4919872
51
281.8951556
0
ARC
8
DEFAULT_255_1_234
10
6.1240934
20
137.8180702
40
0.2264817
50
281.6691735
51
301.2943132
0
ARC
8
DEFAULT_255_1_234
10
6.1411144
20
137.7869304
40
0.1910381
50
301.7833094
51
311.7545298
0
ARC
8
DEFAULT_255_1_234
10
6.150272
20
137.7767748
40
0.1773635
50
311.7323931
51
354.2802411
0
ARC
8
DEFAULT_255_1_234
10
6.0776345
20
137.7892722
40
0.2509385
50
353.0937916
51
0.1181479
0
ARC
8
DEFAULT_255_1_234
10
6.031513
20
137.7940386
40
0.2970898
50
359.1805295
51
15.0453146
0
ARC
8
DEFAULT_255_1_234
10
6.1660967
20
137.8332992
40
0.1569564
50
13.9577229
51
77.6713066
0
ARC
8
DEFAULT_255_1_234
10
6.1274496
20
137.6947949
40
0.3006298
50
76.1116566
51
90.7026153
0
ARC
8
DEFAULT_255_1_234
10
6.1215334
20
137.7221545
40
0.2732568
50
89.5324876
51
103.531937
0
ARC
8
DEFAULT_255_1_234
10
6.1014779
20
137.8020884
40
0.1908508
50
103.2931773
51
133.5619022
0
ARC
8
DEFAULT_255_1_234
10
6.0970267
20
137.8080375
40
0.1834746
50
133.8349307
51
173.5344437
0
ARC
8
DEFAULT_255_1_234
10
6.169331
20
137.7952213
40
0.2568033
50
172.5096846
51
180.1366907
0
ARC
8
DEFAULT_255_1_234
10
6.0742204
20
137.7986622
40
0.3103056
50
155.3484492
51
180.7484736
0
ARC
8
DEFAULT_255_1_234
10
6.0693293
20
137.7957846
40
0.3070957
50
131.5744599
51
154.4798489
0
ARC
8
DEFAULT_255_1_234
10
6.100644
20
137.764131
40
0.3515643
50
96.9875458
51
131.9690667
0
ARC
8
DEFAULT_255_1_234
10
6.122592
20
137.6395636
40
0.4779224
50
89.8596053
51
97.7825159
0
ARC
8
DEFAULT_255_1_234
10
6.1273983
20
137.6133616
40
0.5041361
50
78.3655447
51
90.4131539
0
ARC
8
DEFAULT_255_1_234
10
6.1631901
20
137.7792887
40
0.3344039
50
56.6229102
51
78.638727
0
ARC
8
DEFAULT_255_1_234
10
6.1846845
20
137.8168805
40
0.2912001
50
47.0253525
51
56.0854072
0
ARC
8
DEFAULT_255_1_234
10
6.1866625
20
137.8208223
40
0.2869704
50
10.9208013
51
46.7778124
0
ARC
8
DEFAULT_255_1_234
10
6.0502691
20
137.7892857
40
0.426899
50
359.6364486
51
11.6087304
0
ARC
8
DEFAULT_255_1_234
10
6.2337536
20
137.7877752
40
0.243409
50
332.3549906
51
359.7179418
0
ARC
8
DEFAULT_255_1_234
10
6.1687137
20
137.8186142
40
0.3153459
50
325.2333722
51
332.8745602
0
ARC
8
DEFAULT_255_1_234
10
6.1839761
20
137.8079828
40
0.2967456
50
292.9802137
51
325.2392345
0
ARC
8
DEFAULT_255_1_234
10
6.1565135
20
137.8613863
40
0.3566604
50
292.5402179
51
293.6924929
0
ARC
8
DEFAULT_255_1_234
10
6.195773
20
137.2159091
40
0.3307468
50
57.6435486
51
72.8625112
0
ARC
8
DEFAULT_255_1_234
10
6.231223
20
137.2733549
40
0.2632492
50
36.7248896
51
57.4697979
0
ARC
8
DEFAULT_255_1_234
10
6.2300863
20
137.274622
40
0.2634081
50
8.0545065
51
36.356114
0
ARC
8
DEFAULT_255_1_234
10
6.1438048
20
137.2591174
40
0.3510261
50
359.8320645
51
8.5869982
0
ARC
8
DEFAULT_255_1_234
10
6.1062824
20
137.2543101
40
0.3885653
50
343.9829931
51
0.5571613
0
ARC
8
DEFAULT_255_1_234
10
6.1949022
20
137.2300438
40
0.2966924
50
311.6359546
51
343.7651759
0
ARC
8
DEFAULT_255_1_234
10
6.1570591
20
137.2727102
40
0.3537231
50
279.7829875
51
311.6255694
0
ARC
8
DEFAULT_255_1_234
10
6.1269367
20
137.416428
40
0.5004971
50
269.7286406
51
280.3856417
0
ARC
8
DEFAULT_255_1_234
10
6.1207439
20
137.4122996
40
0.4963778
50
256.6828919
51
270.4412052
0
ARC
8
DEFAULT_255_1_234
10
6.0868735
20
137.2738394
40
0.3538406
50
229.4223008
51
256.8556159
0
ARC
8
DEFAULT_255_1_234
10
6.0454128
20
137.2271736
40
0.2914296
50
181.818294
51
229.6455059
0
ARC
8
DEFAULT_255_1_234
10
6.1494084
20
137.2402496
40
0.3959084
50
179.9755256
51
183.2323064
0
ARC
8
DEFAULT_255_1_234
10
6.132183
20
137.2382037
40
0.2293034
50
179.4465117
51
196.2869258
0
ARC
8
DEFAULT_255_1_234
10
6.0834238
20
137.2248651
40
0.1787621
50
196.5661473
51
227.705904
0
ARC
8
DEFAULT_255_1_234
10
6.0998333
20
137.2432155
40
0.2033784
50
227.7652068
51
257.8762805
0
ARC
8
DEFAULT_255_1_234
10
6.1223303
20
137.3375156
40
0.3003081
50
257.4584385
51
270.426602
0
ARC
8
DEFAULT_255_1_234
10
6.1268869
20
137.3664996
40
0.329292
50
269.5962073
51
280.8789248
0
ARC
8
DEFAULT_255_1_234
10
6.1498398
20
137.2518685
40
0.2123908
50
280.6346389
51
299.8595945
0
ARC
8
DEFAULT_255_1_234
10
6.1689305
20
137.2156212
40
0.171457
50
300.3576302
51
314.5517981
0
ARC
8
DEFAULT_255_1_234
10
6.1606365
20
137.2216919
40
0.1816095
50
315.0728369
51
345.0431014
0
ARC
8
DEFAULT_255_1_234
10
6.0683179
20
137.2485841
40
0.2777492
50
344.5986631
51
357.9269593
0
ARC
8
DEFAULT_255_1_234
10
5.9787506
20
137.2547276
40
0.3674917
50
357.4748886
51
0.0231117
0
ARC
8
DEFAULT_255_1_234
10
6.0810615
20
137.2571679
40
0.2651907
50
359.5047933
51
13.4239635
0
ARC
8
DEFAULT_255_1_234
10
6.1677259
20
137.2793478
40
0.1757509
50
12.9498199
51
48.7551375
0
ARC
8
DEFAULT_255_1_234
10
6.1494993
20
137.25444
40
0.2065134
50
49.5088623
51
72.1836453
0
ARC
8
DEFAULT_255_1_234
10
6.1137145
20
137.1482291
40
0.3185836
50
71.9010081
51
84.3554254
0
ARC
8
DEFAULT_255_1_234
10
6.0975777
20
137.0121326
40
0.4556151
50
84.0193428
51
89.333121
0
LINE
8
DEFAULT_255_1_234
10
7.139778
20
137.9006276
11
7.139778
21
137.5592788
0
LINE
8
DEFAULT_255_1_234
10
7.139778
20
137.5592788
11
7.4658666
21
137.5592788
0
LINE
8
DEFAULT_255_1_234
10
7.4658666
20
137.5592788
11
7.4658666
21
137.4187233
0
LINE
8
DEFAULT_255_1_234
10
7.4658666
20
137.4187233
11
7.139778
21
137.4187233
0
LINE
8
DEFAULT_255_1_234
10
7.139778
20
137.4187233
11
7.139778
21
137.0492634
0
LINE
8
DEFAULT_255_1_234
10
7.139778
20
137.0492634
11
6.9903876
21
137.0492634
0
LINE
8
DEFAULT_255_1_234
10
6.9903876
20
137.0492634
11
6.9903876
21
137.4187233
0
LINE
8
DEFAULT_255_1_234
10
6.9903876
20
137.4187233
11
6.6642991
21
137.4187233
0
LINE
8
DEFAULT_255_1_234
10
6.6642991
20
137.4187233
11
6.6642991
21
137.5592788
0
LINE
8
DEFAULT_255_1_234
10
6.6642991
20
137.5592788
11
6.9903876
21
137.5592788
0
LINE
8
DEFAULT_255_1_234
10
6.9903876
20
137.5592788
11
6.9903876
21
137.9006276
0
LINE
8
DEFAULT_255_1_234
10
6.9903876
20
137.9006276
11
7.139778
21
137.9006276
0
LINE
8
DEFAULT_255_1_234
10
4.3873902
20
143.3931211
11
4.3873902
21
142.2237
0
LINE
8
DEFAULT_255_1_234
10
4.3873902
20
142.2237
11
4.2331808
21
142.2237
0
LINE
8
DEFAULT_255_1_234
10
4.2331808
20
142.2237
11
4.2331808
21
143.3931211
0
LINE
8
DEFAULT_255_1_234
10
4.2331808
20
143.3931211
11
4.3873902
21
143.3931211
0
LINE
8
DEFAULT_255_1_234
10
5.5680557
20
143.3931211
11
5.5680557
21
142.2237
0
LINE
8
DEFAULT_255_1_234
10
5.5680557
20
142.2237
11
5.4130432
21
142.2237
0
LINE
8
DEFAULT_255_1_234
10
5.4130432
20
142.2237
11
4.8243167
21
143.124861
0
LINE
8
DEFAULT_255_1_234
10
4.8243167
20
143.124861
11
4.8243167
21
142.2237
0
LINE
8
DEFAULT_255_1_234
10
4.8243167
20
142.2237
11
4.6693042
21
142.2237
0
LINE
8
DEFAULT_255_1_234
10
4.6693042
20
142.2237
11
4.6693042
21
143.3931211
0
LINE
8
DEFAULT_255_1_234
10
4.6693042
20
143.3931211
11
4.8243167
21
143.3931211
0
LINE
8
DEFAULT_255_1_234
10
4.8243167
20
143.3931211
11
5.4146495
21
142.4879442
0
LINE
8
DEFAULT_255_1_234
10
5.4146495
20
142.4879442
11
5.4146495
21
143.3931211
0
LINE
8
DEFAULT_255_1_234
10
5.4146495
20
143.3931211
11
5.5680557
21
143.3931211
0
LINE
8
DEFAULT_255_1_234
10
6.5696135
20
142.3449792
11
6.5696135
21
142.2237
0
LINE
8
DEFAULT_255_1_234
10
6.5696135
20
142.2237
11
5.8033856
21
142.2237
0
LINE
8
DEFAULT_255_1_234
10
5.8033856
20
142.2237
11
5.8033856
21
142.3305221
0
LINE
8
DEFAULT_255_1_234
10
5.8033856
20
142.3305221
11
6.2081853
21
142.7802995
0
LINE
8
DEFAULT_255_1_234
10
5.9294839
20
143.0485595
11
5.7808968
21
143.0485595
0
LINE
8
DEFAULT_255_1_234
10
6.2957312
20
142.6847218
11
5.9824934
21
142.3449792
0
LINE
8
DEFAULT_255_1_234
10
5.9824934
20
142.3449792
11
6.5696135
21
142.3449792
0
ARC
8
DEFAULT_255_1_234
10
4.8591686
20
143.9732527
40
1.8008286
50
318.5132453
51
320.7828378
0
ARC
8
DEFAULT_255_1_234
10
5.387866
20
143.5429426
40
1.1191493
50
320.7372736
51
323.9737074
0
ARC
8
DEFAULT_255_1_234
10
5.7798517
20
143.2589361
40
0.6350923
50
323.8961724
51
328.6421089
0
ARC
8
DEFAULT_255_1_234
10
5.9845112
20
143.1327031
40
0.3946393
50
328.8299013
51
331.789948
0
ARC
8
DEFAULT_255_1_234
10
6.0842291
20
143.0812509
40
0.2824501
50
331.4255242
51
352.9364833
0
ARC
8
DEFAULT_255_1_234
10
6.0978791
20
143.0781976
40
0.2685315
50
353.2248685
51
0.0169286
0
ARC
8
DEFAULT_255_1_234
10
6.1188668
20
143.080495
40
0.2475536
50
359.4866256
51
15.9339782
0
ARC
8
DEFAULT_255_1_234
10
6.1695653
20
143.0941286
40
0.1950618
50
16.1714718
51
43.5284424
0
ARC
8
DEFAULT_255_1_234
10
6.1772962
20
143.1018573
40
0.184134
50
43.4415429
51
83.1661404
0
ARC
8
DEFAULT_255_1_234
10
6.163888
20
143.0281771
40
0.258926
50
82.160215
51
90.1505798
0
ARC
8
DEFAULT_255_1_234
10
6.1607308
20
142.9744865
40
0.3126255
50
89.5460705
51
102.5418777
0
ARC
8
DEFAULT_255_1_234
10
6.1364394
20
143.0775665
40
0.2067346
50
102.1739365
51
129.2061916
0
ARC
8
DEFAULT_255_1_234
10
6.1285465
20
143.0900094
40
0.1921118
50
129.7279328
51
135.7542026
0
ARC
8
DEFAULT_255_1_234
10
6.1406993
20
143.0803045
40
0.2075944
50
136.175737
51
166.3674722
0
ARC
8
DEFAULT_255_1_234
10
6.2413912
20
143.0533182
40
0.3118201
50
165.9092917
51
178.8683903
0
ARC
8
DEFAULT_255_1_234
10
6.3278774
20
143.0486179
40
0.3983935
50
178.438168
51
180.0083905
0
ARC
8
DEFAULT_255_1_234
10
6.1877376
20
143.0525231
40
0.4068601
50
163.2878735
51
180.5581814
0
ARC
8
DEFAULT_255_1_234
10
6.1075637
20
143.074584
40
0.3237344
50
133.454115
51
162.9470031
0
ARC
8
DEFAULT_255_1_234
10
6.1254178
20
143.0556
40
0.349795
50
100.7869394
51
133.4384016
0
ARC
8
DEFAULT_255_1_234
10
6.160195
20
142.9007319
40
0.5084616
50
89.6605301
51
101.3704185
0
ARC
8
DEFAULT_255_1_234
10
6.1668289
20
142.9068496
40
0.502348
50
78.2171172
51
90.4130393
0
ARC
8
DEFAULT_255_1_234
10
6.2023367
20
143.0692637
40
0.3361092
50
55.9268222
51
78.4888551
0
ARC
8
DEFAULT_255_1_234
10
6.2219807
20
143.1031324
40
0.2970617
50
47.9292255
51
55.4054003
0
ARC
8
DEFAULT_255_1_234
10
6.2321368
20
143.1134502
40
0.2825983
50
4.3347696
51
48.0560701
0
ARC
8
DEFAULT_255_1_234
10
6.1225761
20
143.0964601
40
0.393225
50
359.925209
51
5.5967654
0
ARC
8
DEFAULT_255_1_234
10
6.1654653
20
143.1020816
40
0.3503892
50
337.8914096
51
358.9967724
0
ARC
8
DEFAULT_255_1_234
10
5.8941065
20
143.2067706
40
0.6412172
50
326.9135351
51
338.3505194
0
ARC
8
DEFAULT_255_1_234
10
5.4955369
20
143.4622284
40
1.1146189
50
319.6472867
51
327.095818
0
ARC
8
DEFAULT_255_1_234
10
5.1122372
20
143.7784
40
1.6114559
50
317.2586784
51
319.9046139
0
LINE
8
DEFAULT_255_1_234
10
7.0515178
20
142.7811026
11
7.0515178
21
142.6598234
0
LINE
8
DEFAULT_255_1_234
10
7.0515178
20
142.6598234
11
6.6595689
21
142.6598234
0
LINE
8
DEFAULT_255_1_234
10
6.6595689
20
142.6598234
11
6.6595689
21
142.7811026
0
LINE
8
DEFAULT_255_1_234
10
6.6595689
20
142.7811026
11
7.0515178
21
142.7811026
0
LINE
8
DEFAULT_255_1_234
10
4.3591902
20
148.6848211
11
4.3591902
21
147.5154
0
LINE
8
DEFAULT_255_1_234
10
4.3591902
20
147.5154
11
4.2049808
21
147.5154
0
LINE
8
DEFAULT_255_1_234
10
4.2049808
20
147.5154
11
4.2049808
21
148.6848211
0
LINE
8
DEFAULT_255_1_234
10
4.2049808
20
148.6848211
11
4.3591902
21
148.6848211
0
LINE
8
DEFAULT_255_1_234
10
5.5398557
20
148.6848211
11
5.5398557
21
147.5154
0
LINE
8
DEFAULT_255_1_234
10
5.5398557
20
147.5154
11
5.3848432
21
147.5154
0
LINE
8
DEFAULT_255_1_234
10
5.3848432
20
147.5154
11
4.7961167
21
148.416561
0
LINE
8
DEFAULT_255_1_234
10
4.7961167
20
148.416561
11
4.7961167
21
147.5154
0
LINE
8
DEFAULT_255_1_234
10
4.7961167
20
147.5154
11
4.6411042
21
147.5154
0
LINE
8
DEFAULT_255_1_234
10
4.6411042
20
147.5154
11
4.6411042
21
148.6848211
0
LINE
8
DEFAULT_255_1_234
10
4.6411042
20
148.6848211
11
4.7961167
21
148.6848211
0
LINE
8
DEFAULT_255_1_234
10
4.7961167
20
148.6848211
11
5.3864495
21
147.7796442
0
LINE
8
DEFAULT_255_1_234
10
5.3864495
20
147.7796442
11
5.3864495
21
148.6848211
0
LINE
8
DEFAULT_255_1_234
10
5.3864495
20
148.6848211
11
5.5398557
21
148.6848211
0
LINE
8
DEFAULT_255_1_234
10
6.5414135
20
147.6366792
11
6.5414135
21
147.5154
0
LINE
8
DEFAULT_255_1_234
10
6.5414135
20
147.5154
11
5.7751856
21
147.5154
0
LINE
8
DEFAULT_255_1_234
10
5.7751856
20
147.5154
11
5.7751856
21
147.6222221
0
LINE
8
DEFAULT_255_1_234
10
5.7751856
20
147.6222221
11
6.1799853
21
148.0719995
0
LINE
8
DEFAULT_255_1_234
10
5.9012839
20
148.3402595
11
5.7526968
21
148.3402595
0
LINE
8
DEFAULT_255_1_234
10
6.2675312
20
147.9764218
11
5.9542934
21
147.6366792
0
LINE
8
DEFAULT_255_1_234
10
5.9542934
20
147.6366792
11
6.5414135
21
147.6366792
0
ARC
8
DEFAULT_255_1_234
10
4.8309686
20
149.2649527
40
1.8008286
50
318.5132453
51
320.7828378
0
ARC
8
DEFAULT_255_1_234
10
5.359666
20
148.8346426
40
1.1191493
50
320.7372736
51
323.9737074
0
ARC
8
DEFAULT_255_1_234
10
5.7516517
20
148.5506361
40
0.6350923
50
323.8961724
51
328.6421089
0
ARC
8
DEFAULT_255_1_234
10
5.9563112
20
148.4244031
40
0.3946393
50
328.8299013
51
331.789948
0
ARC
8
DEFAULT_255_1_234
10
6.0560291
20
148.3729509
40
0.2824501
50
331.4255242
51
352.9364833
0
ARC
8
DEFAULT_255_1_234
10
6.0696791
20
148.3698976
40
0.2685315
50
353.2248685
51
0.0169286
0
ARC
8
DEFAULT_255_1_234
10
6.0906668
20
148.372195
40
0.2475536
50
359.4866256
51
15.9339782
0
ARC
8
DEFAULT_255_1_234
10
6.1413653
20
148.3858286
40
0.1950618
50
16.1714718
51
43.5284424
0
ARC
8
DEFAULT_255_1_234
10
6.1490962
20
148.3935573
40
0.184134
50
43.4415429
51
83.1661404
0
ARC
8
DEFAULT_255_1_234
10
6.135688
20
148.3198771
40
0.258926
50
82.160215
51
90.1505798
0
ARC
8
DEFAULT_255_1_234
10
6.1325308
20
148.2661865
40
0.3126255
50
89.5460705
51
102.5418777
0
ARC
8
DEFAULT_255_1_234
10
6.1082394
20
148.3692665
40
0.2067346
50
102.1739365
51
129.2061916
0
ARC
8
DEFAULT_255_1_234
10
6.1003465
20
148.3817094
40
0.1921118
50
129.7279328
51
135.7542026
0
ARC
8
DEFAULT_255_1_234
10
6.1124993
20
148.3720045
40
0.2075944
50
136.175737
51
166.3674722
0
ARC
8
DEFAULT_255_1_234
10
6.2131912
20
148.3450182
40
0.3118201
50
165.9092917
51
178.8683903
0
ARC
8
DEFAULT_255_1_234
10
6.2996774
20
148.3403179
40
0.3983935
50
178.438168
51
180.0083905
0
ARC
8
DEFAULT_255_1_234
10
6.1595376
20
148.3442231
40
0.4068601
50
163.2878735
51
180.5581814
0
ARC
8
DEFAULT_255_1_234
10
6.0793637
20
148.366284
40
0.3237344
50
133.454115
51
162.9470031
0
ARC
8
DEFAULT_255_1_234
10
6.0972178
20
148.3473
40
0.349795
50
100.7869394
51
133.4384016
0
ARC
8
DEFAULT_255_1_234
10
6.131995
20
148.1924319
40
0.5084616
50
89.6605301
51
101.3704185
0
ARC
8
DEFAULT_255_1_234
10
6.1386289
20
148.1985496
40
0.502348
50
78.2171172
51
90.4130393
0
ARC
8
DEFAULT_255_1_234
10
6.1741367
20
148.3609637
40
0.3361092
50
55.9268222
51
78.4888551
0
ARC
8
DEFAULT_255_1_234
10
6.1937807
20
148.3948324
40
0.2970617
50
47.9292255
51
55.4054003
0
ARC
8
DEFAULT_255_1_234
10
6.2039368
20
148.4051502
40
0.2825983
50
4.3347696
51
48.0560701
0
ARC
8
DEFAULT_255_1_234
10
6.0943761
20
148.3881601
40
0.393225
50
359.925209
51
5.5967654
0
ARC
8
DEFAULT_255_1_234
10
6.1372653
20
148.3937816
40
0.3503892
50
337.8914096
51
358.9967724
0
ARC
8
DEFAULT_255_1_234
10
5.8659065
20
148.4984706
40
0.6412172
50
326.9135351
51
338.3505194
0
ARC
8
DEFAULT_255_1_234
10
5.4673369
20
148.7539284
40
1.1146189
50
319.6472867
51
327.095818
0
ARC
8
DEFAULT_255_1_234
10
5.0840372
20
149.0701
40
1.6114559
50
317.2586784
51
319.9046139
0
LINE
8
DEFAULT_255_1_234
10
7.139778
20
148.4840276
11
7.139778
21
148.1426788
0
LINE
8
DEFAULT_255_1_234
10
7.139778
20
148.1426788
11
7.4658666
21
148.1426788
0
LINE
8
DEFAULT_255_1_234
10
7.4658666
20
148.1426788
11
7.4658666
21
148.0021233
0
LINE
8
DEFAULT_255_1_234
10
7.4658666
20
148.0021233
11
7.139778
21
148.0021233
0
LINE
8
DEFAULT_255_1_234
10
7.139778
20
148.0021233
11
7.139778
21
147.6326634
0
LINE
8
DEFAULT_255_1_234
10
7.139778
20
147.6326634
11
6.9903876
21
147.6326634
0
LINE
8
DEFAULT_255_1_234
10
6.9903876
20
147.6326634
11
6.9903876
21
148.0021233
0
LINE
8
DEFAULT_255_1_234
10
6.9903876
20
148.0021233
11
6.6642991
21
148.0021233
0
LINE
8
DEFAULT_255_1_234
10
6.6642991
20
148.0021233
11
6.6642991
21
148.1426788
0
LINE
8
DEFAULT_255_1_234
10
6.6642991
20
148.1426788
11
6.9903876
21
148.1426788
0
LINE
8
DEFAULT_255_1_234
10
6.9903876
20
148.1426788
11
6.9903876
21
148.4840276
0
LINE
8
DEFAULT_255_1_234
10
6.9903876
20
148.4840276
11
7.139778
21
148.4840276
0
LINE
8
DEFAULT_255_1_234
10
4.3873902
20
153.9764211
11
4.3873902
21
152.807
0
LINE
8
DEFAULT_255_1_234
10
4.3873902
20
152.807
11
4.2331808
21
152.807
0
LINE
8
DEFAULT_255_1_234
10
4.2331808
20
152.807
11
4.2331808
21
153.9764211
0
LINE
8
DEFAULT_255_1_234
10
4.2331808
20
153.9764211
11
4.3873902
21
153.9764211
0
LINE
8
DEFAULT_255_1_234
10
5.5680557
20
153.9764211
11
5.5680557
21
152.807
0
LINE
8
DEFAULT_255_1_234
10
5.5680557
20
152.807
11
5.4130432
21
152.807
0
LINE
8
DEFAULT_255_1_234
10
5.4130432
20
152.807
11
4.8243167
21
153.708161
0
LINE
8
DEFAULT_255_1_234
10
4.8243167
20
153.708161
11
4.8243167
21
152.807
0
LINE
8
DEFAULT_255_1_234
10
4.8243167
20
152.807
11
4.6693042
21
152.807
0
LINE
8
DEFAULT_255_1_234
10
4.6693042
20
152.807
11
4.6693042
21
153.9764211
0
LINE
8
DEFAULT_255_1_234
10
4.6693042
20
153.9764211
11
4.8243167
21
153.9764211
0
LINE
8
DEFAULT_255_1_234
10
4.8243167
20
153.9764211
11
5.4146495
21
153.0712442
0
LINE
8
DEFAULT_255_1_234
10
5.4146495
20
153.0712442
11
5.4146495
21
153.9764211
0
LINE
8
DEFAULT_255_1_234
10
5.4146495
20
153.9764211
11
5.5680557
21
153.9764211
0
LINE
8
DEFAULT_255_1_234
10
6.2917153
20
153.9820433
11
6.2917153
21
152.807
0
LINE
8
DEFAULT_255_1_234
10
6.2917153
20
152.807
11
6.142325
21
152.807
0
LINE
8
DEFAULT_255_1_234
10
6.142325
20
152.807
11
6.142325
21
153.7973133
0
LINE
8
DEFAULT_255_1_234
10
6.142325
20
153.7973133
11
5.8427412
21
153.6872785
0
LINE
8
DEFAULT_255_1_234
10
5.8427412
20
153.6872785
11
5.8427412
21
153.8222117
0
LINE
8
DEFAULT_255_1_234
10
5.8427412
20
153.8222117
11
6.2684233
21
153.9820433
0
LINE
8
DEFAULT_255_1_234
10
6.2684233
20
153.9820433
11
6.2917153
21
153.9820433
0
LINE
8
DEFAULT_255_1_234
10
7.0515178
20
153.3644026
11
7.0515178
21
153.2431234
0
LINE
8
DEFAULT_255_1_234
10
7.0515178
20
153.2431234
11
6.6595689
21
153.2431234
0
LINE
8
DEFAULT_255_1_234
10
6.6595689
20
153.2431234
11
6.6595689
21
153.3644026
0
LINE
8
DEFAULT_255_1_234
10
6.6595689
20
153.3644026
11
7.0515178
21
153.3644026
0
LINE
8
DEFAULT_255_1_234
10
4.3591902
20
159.2681211
11
4.3591902
21
158.0987
0
LINE
8
DEFAULT_255_1_234
10
4.3591902
20
158.0987
11
4.2049808
21
158.0987
0
LINE
8
DEFAULT_255_1_234
10
4.2049808
20
158.0987
11
4.2049808
21
159.2681211
0
LINE
8
DEFAULT_255_1_234
10
4.2049808
20
159.2681211
11
4.3591902
21
159.2681211
0
LINE
8
DEFAULT_255_1_234
10
5.5398557
20
159.2681211
11
5.5398557
21
158.0987
0
LINE
8
DEFAULT_255_1_234
10
5.5398557
20
158.0987
11
5.3848432
21
158.0987
0
LINE
8
DEFAULT_255_1_234
10
5.3848432
20
158.0987
11
4.7961167
21
158.999861
0
LINE
8
DEFAULT_255_1_234
10
4.7961167
20
158.999861
11
4.7961167
21
158.0987
0
LINE
8
DEFAULT_255_1_234
10
4.7961167
20
158.0987
11
4.6411042
21
158.0987
0
LINE
8
DEFAULT_255_1_234
10
4.6411042
20
158.0987
11
4.6411042
21
159.2681211
0
LINE
8
DEFAULT_255_1_234
10
4.6411042
20
159.2681211
11
4.7961167
21
159.2681211
0
LINE
8
DEFAULT_255_1_234
10
4.7961167
20
159.2681211
11
5.3864495
21
158.3629442
0
LINE
8
DEFAULT_255_1_234
10
5.3864495
20
158.3629442
11
5.3864495
21
159.2681211
0
LINE
8
DEFAULT_255_1_234
10
5.3864495
20
159.2681211
11
5.5398557
21
159.2681211
0
LINE
8
DEFAULT_255_1_234
10
6.2635153
20
159.2737433
11
6.2635153
21
158.0987
0
LINE
8
DEFAULT_255_1_234
10
6.2635153
20
158.0987
11
6.114125
21
158.0987
0
LINE
8
DEFAULT_255_1_234
10
6.114125
20
158.0987
11
6.114125
21
159.0890133
0
LINE
8
DEFAULT_255_1_234
10
6.114125
20
159.0890133
11
5.8145412
21
158.9789785
0
LINE
8
DEFAULT_255_1_234
10
5.8145412
20
158.9789785
11
5.8145412
21
159.1139117
0
LINE
8
DEFAULT_255_1_234
10
5.8145412
20
159.1139117
11
6.2402233
21
159.2737433
0
LINE
8
DEFAULT_255_1_234
10
6.2402233
20
159.2737433
11
6.2635153
21
159.2737433
0
LINE
8
DEFAULT_255_1_234
10
7.139778
20
159.0673276
11
7.139778
21
158.7259788
0
LINE
8
DEFAULT_255_1_234
10
7.139778
20
158.7259788
11
7.4658666
21
158.7259788
0
LINE
8
DEFAULT_255_1_234
10
7.4658666
20
158.7259788
11
7.4658666
21
158.5854233
0
LINE
8
DEFAULT_255_1_234
10
7.4658666
20
158.5854233
11
7.139778
21
158.5854233
0
LINE
8
DEFAULT_255_1_234
10
7.139778
20
158.5854233
11
7.139778
21
158.2159634
0
LINE
8
DEFAULT_255_1_234
10
7.139778
20
158.2159634
11
6.9903876
21
158.2159634
0
LINE
8
DEFAULT_255_1_234
10
6.9903876
20
158.2159634
11
6.9903876
21
158.5854233
0
LINE
8
DEFAULT_255_1_234
10
6.9903876
20
158.5854233
11
6.6642991
21
158.5854233
0
LINE
8
DEFAULT_255_1_234
10
6.6642991
20
158.5854233
11
6.6642991
21
158.7259788
0
LINE
8
DEFAULT_255_1_234
10
6.6642991
20
158.7259788
11
6.9903876
21
158.7259788
0
LINE
8
DEFAULT_255_1_234
10
6.9903876
20
158.7259788
11
6.9903876
21
159.0673276
0
LINE
8
DEFAULT_255_1_234
10
6.9903876
20
159.0673276
11
7.139778
21
159.0673276
0
LINE
8
DEFAULT_255_1_234
10
22.9342522
20
164.5598211
11
23.2667662
21
163.5952093
0
LINE
8
DEFAULT_255_1_234
10
23.2667662
20
163.5952093
11
23.6008865
21
164.5598211
0
LINE
8
DEFAULT_255_1_234
10
23.6008865
20
164.5598211
11
23.769553
21
164.5598211
0
LINE
8
DEFAULT_255_1_234
10
23.769553
20
164.5598211
11
23.3358391
21
163.3904
0
LINE
8
DEFAULT_255_1_234
10
23.3358391
20
163.3904
11
23.1992996
21
163.3904
0
LINE
8
DEFAULT_255_1_234
10
23.1992996
20
163.3904
11
22.7663889
21
164.5598211
0
LINE
8
DEFAULT_255_1_234
10
22.7663889
20
164.5598211
11
22.9342522
21
164.5598211
0
LINE
8
DEFAULT_255_1_234
10
24.1823843
20
163.9478026
11
24.1823843
21
163.8265234
0
LINE
8
DEFAULT_255_1_234
10
24.1823843
20
163.8265234
11
23.7904355
21
163.8265234
0
LINE
8
DEFAULT_255_1_234
10
23.7904355
20
163.8265234
11
23.7904355
21
163.9478026
0
LINE
8
DEFAULT_255_1_234
10
23.7904355
20
163.9478026
11
24.1823843
21
163.9478026
0
ENDSEC
0
EOF