0
SECTION
2
HEADER
9
$MEASUREMENT
70
1
0
ENDSEC
0
SECTION
2
TABLES
0
TABLE
2
LTYPE
0
LTYPE
72
65
70
64
2
CONTINUOUS
3
______
73
0
40
0
0
ENDTAB
0
TABLE
2
LAYER
0
LAYER
2
DEFAULT_255_2_778
70
0
62
255
6
CONTINUOUS
0
ENDTAB
0
ENDSEC
0
SECTION
2
ENTITIES
0
ARC
8
DEFAULT_255_2_778
10
-5.4682763
20
10.7562339
40
10.357734
50
356.2775501
51
0.0572005
0
ARC
8
DEFAULT_255_2_778
10
-3.7095903
20
10.6402101
40
8.5952259
50
351.844452
51
356.2882114
0
ARC
8
DEFAULT_255_2_778
10
-2.2591772
20
10.4313764
40
7.1298561
50
346.7390127
51
351.8522036
0
ARC
8
DEFAULT_255_2_778
10
-1.0875378
20
10.1533663
40
5.9256863
50
340.4735352
51
346.7567854
0
ARC
8
DEFAULT_255_2_778
10
-0.1757758
20
9.8285004
40
4.9577785
50
332.7040429
51
340.4900918
0
ARC
8
DEFAULT_255_2_778
10
0.4546508
20
9.5022621
40
4.2479416
50
322.7082747
51
332.7149163
0
ARC
8
DEFAULT_255_2_778
10
0.7611133
20
9.271429
40
3.864277
50
307.8894273
51
322.6780911
0
ARC
8
DEFAULT_255_2_778
10
0.5081092
20
9.6598946
40
4.3264076
50
284.9537319
51
307.3742316
0
ARC
8
DEFAULT_255_2_778
10
0.0424449
20
11.2505147
40
5.9834502
50
275.155888
51
285.3315199
0
ARC
8
DEFAULT_255_2_778
10
0.6295159
20
4.7964521
40
0.4972785
50
95.6969622
51
180.4467801
0
ARC
8
DEFAULT_255_2_778
10
0.6322268
20
0.3242491
40
0.4999768
50
180.1804479
51
269.8310526
0
ARC
8
DEFAULT_255_2_778
10
0.0388123
20
12.2458454
40
12.4369021
50
272.8452046
51
277.9572801
0
ARC
8
DEFAULT_255_2_778
10
0.1812196
20
11.2349281
40
11.4160042
50
277.9518094
51
283.8893092
0
ARC
8
DEFAULT_255_2_778
10
0.3931507
20
10.3809773
40
10.5361485
50
283.8852508
51
290.797567
0
ARC
8
DEFAULT_255_2_778
10
0.6452047
20
9.7187802
40
9.8276036
50
290.7946177
51
299.1132789
0
ARC
8
DEFAULT_255_2_778
10
0.8840579
20
9.2893636
40
9.3362287
50
299.1148197
51
310.0315845
0
ARC
8
DEFAULT_255_2_778
10
0.8211894
20
9.320909
40
9.4008615
50
310.2013078
51
337.4062424
0
ARC
8
DEFAULT_255_2_778
10
-0.1125234
20
9.7476888
40
10.4269402
50
337.2122814
51
347.1996577
0
ARC
8
DEFAULT_255_2_778
10
-0.9564072
20
9.9424051
40
11.2929924
50
347.1848883
51
355.3360975
0
ARC
8
DEFAULT_255_2_778
10
-1.7042984
20
10.0105656
40
12.0439515
50
355.3022099
51
0.0195465
0
LINE
8
DEFAULT_255_2_778
10
4.8894526
20
13.4957744
11
4.8894526
21
10.7665744
0
LINE
8
DEFAULT_255_2_778
10
0.1322526
20
4.7925744
11
0.1322526
21
0.3226744
0
LINE
8
DEFAULT_255_2_778
10
0.6307526
20
-0.1757256
11
0.6561526
21
-0.1757256
0
LINE
8
DEFAULT_255_2_778
10
10.3396526
20
10.0146744
11
10.3565526
21
10.0146744
0
LINE
8
DEFAULT_255_2_778
10
10.3565526
20
10.0146744
11
10.3565526
21
13.4872744
0
LINE
8
DEFAULT_255_2_778
10
10.3565526
20
13.4872744
11
4.8894526
21
13.4957744
0
ARC
8
DEFAULT_255_2_778
10
12.2950532
20
0.5713867
40
0.7304537
50
206.4044937
51
269.9886721
0
ARC
8
DEFAULT_255_2_778
10
12.2949366
20
0.5662815
40
0.7253485
50
269.997802
51
270.3922781
0
ARC
8
DEFAULT_255_2_778
10
16.5679888
20
0.3385065
40
0.4976147
50
270.8766985
51
0.1086371
0
ARC
8
DEFAULT_255_2_778
10
16.5844433
20
0.3413631
40
0.4811631
50
359.7721988
51
359.9938184
0
ARC
8
DEFAULT_255_2_778
10
16.6087795
20
0.3411792
40
0.456827
50
0.016543
51
27.2784412
0
LINE
8
DEFAULT_255_2_778
10
17.0148027
20
0.55085
11
10.6100027
21
13.49585
0
LINE
8
DEFAULT_255_2_778
10
10.6100027
20
13.49585
11
4.8810027
21
13.49585
0
LINE
8
DEFAULT_255_2_778
10
4.8810027
20
13.49585
11
11.6408027
21
0.24655
0
LINE
8
DEFAULT_255_2_778
10
12.2999027
20
-0.15905
11
16.5756027
21
-0.15905
0
LINE
8
DEFAULT_255_2_778
10
17.0148027
20
0.55055
11
17.0148027
21
0.55085
0
ENDSEC
0
EOF