0
SECTION
2
HEADER
9
$MEASUREMENT
70
1
0
ENDSEC
0
SECTION
2
TABLES
0
TABLE
2
LTYPE
0
LTYPE
72
65
70
64
2
CONTINUOUS
3
______
73
0
40
0
0
ENDTAB
0
TABLE
2
LAYER
0
LAYER
2
DEFAULT_255_2_778
70
0
62
255
6
CONTINUOUS
0
ENDTAB
0
ENDSEC
0
SECTION
2
ENTITIES
0
ARC
8
DEFAULT_255_2_778
10
6.0644416
20
33.4684493
40
5.8550922
50
179.9991125
51
180.1244001
0
ARC
8
DEFAULT_255_2_778
10
6.0644736
20
33.4686587
40
5.8551244
50
136.4218999
51
180.0011619
0
ARC
8
DEFAULT_255_2_778
10
6.0679839
20
33.4649194
40
5.8602451
50
134.9972578
51
136.4190735
0
ARC
8
DEFAULT_255_2_778
10
6.0646206
20
33.4688911
40
5.8550585
50
91.4214065
51
135.0014654
0
ARC
8
DEFAULT_255_2_778
10
6.0647486
20
33.4623168
40
5.861634
50
89.9998888
51
91.4210631
0
ARC
8
DEFAULT_255_2_778
10
6.0648507
20
33.4688584
40
5.8550923
50
89.8755999
51
90.0008875
0
ARC
8
DEFAULT_255_2_778
10
33.8871757
20
33.4688584
40
5.8550922
50
89.9991125
51
90.1244001
0
ARC
8
DEFAULT_255_2_778
10
33.8873851
20
33.4688264
40
5.8551244
50
46.4218999
51
90.0011619
0
ARC
8
DEFAULT_255_2_778
10
33.8836458
20
33.4653161
40
5.8602451
50
44.9972578
51
46.4190735
0
ARC
8
DEFAULT_255_2_778
10
33.8876175
20
33.4686794
40
5.8550585
50
1.4214065
51
45.0014654
0
ARC
8
DEFAULT_255_2_778
10
33.8810432
20
33.4685514
40
5.861634
50
359.9998888
51
1.4210631
0
ARC
8
DEFAULT_255_2_778
10
33.8875848
20
33.4684493
40
5.8550923
50
359.8755999
51
0.0008875
0
ARC
8
DEFAULT_255_2_778
10
33.8875848
20
5.6461243
40
5.8550922
50
359.9991125
51
0.1244001
0
ARC
8
DEFAULT_255_2_778
10
33.8875528
20
5.6459148
40
5.8551244
50
316.4218999
51
0.0011619
0
ARC
8
DEFAULT_255_2_778
10
33.8840424
20
5.6496542
40
5.8602451
50
314.9972578
51
316.4190735
0
ARC
8
DEFAULT_255_2_778
10
33.8874058
20
5.6456824
40
5.8550585
50
271.4214065
51
315.0014654
0
ARC
8
DEFAULT_255_2_778
10
33.8872778
20
5.6522568
40
5.861634
50
269.9998888
51
271.4210631
0
ARC
8
DEFAULT_255_2_778
10
33.8871757
20
5.6457152
40
5.8550923
50
269.8755999
51
270.0008875
0
ARC
8
DEFAULT_255_2_778
10
6.0648507
20
5.6457152
40
5.8550922
50
269.9991125
51
270.1244001
0
ARC
8
DEFAULT_255_2_778
10
6.0646412
20
5.6457472
40
5.8551244
50
226.4218999
51
270.0011619
0
ARC
8
DEFAULT_255_2_778
10
6.0683806
20
5.6492575
40
5.8602451
50
224.9972578
51
226.4190735
0
ARC
8
DEFAULT_255_2_778
10
6.0644088
20
5.6458942
40
5.8550585
50
181.4214065
51
225.0014654
0
ARC
8
DEFAULT_255_2_778
10
6.0709832
20
5.6460222
40
5.861634
50
179.9998888
51
181.4210631
0
ARC
8
DEFAULT_255_2_778
10
6.0644415
20
5.6461243
40
5.8550923
50
179.8755999
51
180.0008875
0
LINE
8
DEFAULT_255_2_778
10
6.0775632
20
39.3239368
11
33.8744632
21
39.3239368
0
LINE
8
DEFAULT_255_2_778
10
39.7426632
20
33.4557368
11
39.7426632
21
5.6588368
0
LINE
8
DEFAULT_255_2_778
10
33.8744632
20
-0.2093632
11
6.0775632
21
-0.2093632
0
LINE
8
DEFAULT_255_2_778
10
0.2093632
20
5.6588368
11
0.2093632
21
33.4557368
0
ARC
8
DEFAULT_255_2_778
10
14.0896174
20
32.8352173
40
0.3976594
50
89.9998822
51
92.6523194
0
ARC
8
DEFAULT_255_2_778
10
14.0895527
20
32.8359354
40
0.3969414
50
36.69877
51
89.9905373
0
ARC
8
DEFAULT_255_2_778
10
14.5272361
20
32.2474562
40
0.3960301
50
2.0177445
51
36.4688372
0
ARC
8
DEFAULT_255_2_778
10
14.5241549
20
32.2471912
40
0.3991188
50
359.9996945
51
2.0401761
0
ARC
8
DEFAULT_255_2_778
10
14.5266732
20
32.2465181
40
0.3966011
50
306.7042688
51
0.0969389
0
ARC
8
DEFAULT_255_2_778
10
16.8692522
20
29.6293826
40
0.6339316
50
98.8616139
51
126.4729674
0
ARC
8
DEFAULT_255_2_778
10
16.8694107
20
29.6272709
40
0.6360425
50
92.0369224
51
98.8464167
0
ARC
8
DEFAULT_255_2_778
10
16.8695079
20
29.6254504
40
0.6378653
50
89.9999902
51
92.0398373
0
ARC
8
DEFAULT_255_2_778
10
16.870297
20
29.6277621
40
0.635554
50
40.243954
51
90.0711316
0
ARC
8
DEFAULT_255_2_778
10
16.8614789
20
29.6204149
40
0.6470315
50
36.7943259
51
40.2360903
0
ARC
8
DEFAULT_255_2_778
10
23.566895
20
20.6093886
40
0.6339297
50
8.8509972
51
36.4647347
0
ARC
8
DEFAULT_255_2_778
10
23.5643775
20
20.6091253
40
0.6364577
50
2.0321974
51
8.8395531
0
ARC
8
DEFAULT_255_2_778
10
23.5623834
20
20.609025
40
0.6384541
50
9e-7
51
2.0348451
0
ARC
8
DEFAULT_255_2_778
10
23.5657625
20
20.6080804
40
0.6350756
50
310.2288168
51
0.085218
0
ARC
8
DEFAULT_255_2_778
10
23.5594157
20
20.6160124
40
0.6452306
50
306.7547252
51
310.2042046
0
ARC
8
DEFAULT_255_2_778
10
19.9263733
20
17.8997743
40
0.6289895
50
277.5255767
51
306.6366834
0
ARC
8
DEFAULT_255_2_778
10
19.92499
20
17.9078141
40
0.6371415
50
271.7483186
51
277.5542105
0
ARC
8
DEFAULT_255_2_778
10
19.9248863
20
17.9103098
40
0.6396392
50
269.999743
51
271.7507766
0
ARC
8
DEFAULT_255_2_778
10
19.9234381
20
17.9052747
40
0.6346058
50
219.3072152
51
270.1304925
0
ARC
8
DEFAULT_255_2_778
10
19.9267822
20
17.9065017
40
0.6379717
50
216.5861785
51
219.2022326
0
ARC
8
DEFAULT_255_2_778
10
14.7746838
20
23.7705513
40
2.0389685
50
269.9933832
51
306.6997539
0
ARC
8
DEFAULT_255_2_778
10
14.774449
20
23.7706614
40
2.0390787
50
267.1219275
51
269.9999816
0
ARC
8
DEFAULT_255_2_778
10
14.774534
20
23.7708382
40
2.0392597
50
251.7234908
51
267.1197921
0
ARC
8
DEFAULT_255_2_778
10
19.7138278
20
18.5896505
40
6.4538263
50
149.8164655
51
162.8678884
0
ARC
8
DEFAULT_255_2_778
10
19.8176785
20
18.5571231
40
6.5626506
50
162.8635916
51
169.9305306
0
ARC
8
DEFAULT_255_2_778
10
19.8598935
20
18.5481631
40
6.6057822
50
169.9180316
51
174.6496604
0
ARC
8
DEFAULT_255_2_778
10
19.7620603
20
18.5573826
40
6.5075157
50
174.6501611
51
179.828004
0
ARC
8
DEFAULT_255_2_778
10
19.6612587
20
18.55818
40
6.4067121
50
179.8324294
51
180.0005879
0
ARC
8
DEFAULT_255_2_778
10
19.6570457
20
18.5560262
40
6.4024994
50
179.9813137
51
192.1051617
0
ARC
8
DEFAULT_255_2_778
10
19.555843
20
18.5334143
40
6.2988051
50
192.0971001
51
207.4811043
0
ARC
8
DEFAULT_255_2_778
10
19.4222896
20
18.4640518
40
6.1483138
50
207.4819727
51
219.5397762
0
ARC
8
DEFAULT_255_2_778
10
17.4163163
20
13.2776544
40
3.0169027
50
116.2523345
51
155.0566033
0
ARC
8
DEFAULT_255_2_778
10
17.4891905
20
13.1566114
40
3.1577169
50
97.0582648
51
116.4667541
0
ARC
8
DEFAULT_255_2_778
10
17.5020819
20
13.0692656
40
3.2459853
50
89.9852834
51
97.0946407
0
ARC
8
DEFAULT_255_2_778
10
17.5064657
20
13.1100488
40
3.2052039
50
73.1745454
51
90.0634593
0
ARC
8
DEFAULT_255_2_778
10
17.532237
20
13.1938614
40
3.1175196
50
49.0575012
51
73.1820433
0
ARC
8
DEFAULT_255_2_778
10
17.5745749
20
13.2478873
40
3.0489679
50
45.5344803
51
48.9931842
0
ARC
8
DEFAULT_255_2_778
10
17.6193171
20
13.2899803
40
2.9873345
50
37.6451044
51
45.498705
0
ARC
8
DEFAULT_255_2_778
10
22.0133432
20
13.0805296
40
0.4706956
50
128.782487
51
152.5304489
0
ARC
8
DEFAULT_255_2_778
10
27.0400585
20
17.1141388
40
0.4743993
50
92.0112149
51
128.7817824
0
ARC
8
DEFAULT_255_2_778
10
27.0404613
20
17.110641
40
0.4779092
50
91.480322
51
92.0447567
0
ARC
8
DEFAULT_255_2_778
10
27.0404649
20
17.1100607
40
0.4784893
50
89.9992616
51
91.4789598
0
ARC
8
DEFAULT_255_2_778
10
27.0411984
20
17.1133379
40
0.4752129
50
38.8065935
51
90.087694
0
ARC
8
DEFAULT_255_2_778
10
27.5944869
20
16.4264088
40
0.4741154
50
1.9708629
51
38.7937016
0
ARC
8
DEFAULT_255_2_778
10
27.5978863
20
16.4261951
40
0.4707256
50
1.4374847
51
2.0110892
0
ARC
8
DEFAULT_255_2_778
10
27.5906994
20
16.4259752
40
0.4779157
50
359.9992283
51
1.4422285
0
ARC
8
DEFAULT_255_2_778
10
27.5931644
20
16.4252821
40
0.4754513
50
308.8203691
51
0.0827543
0
ARC
8
DEFAULT_255_2_778
10
22.5791325
20
12.3763854
40
0.4592155
50
295.8302547
51
308.7899109
0
ARC
8
DEFAULT_255_2_778
10
23.4171328
20
11.2873342
40
0.1897747
50
128.6465844
51
140.3021474
0
ARC
8
DEFAULT_255_2_778
10
27.0213078
20
14.109826
40
0.2379145
50
91.4974939
51
128.5267314
0
ARC
8
DEFAULT_255_2_778
10
27.02147
20
14.1082872
40
0.239457
50
89.9984063
51
91.5266705
0
ARC
8
DEFAULT_255_2_778
10
27.0218482
20
14.1098188
40
0.2379258
50
38.7835364
51
90.0894816
0
ARC
8
DEFAULT_255_2_778
10
27.5413222
20
13.4609405
40
0.2376826
50
1.4633454
51
38.5460087
0
ARC
8
DEFAULT_255_2_778
10
27.5391367
20
13.4607311
40
0.2398727
50
0.0020213
51
1.5000054
0
ARC
8
DEFAULT_255_2_778
10
27.5412635
20
13.4603321
40
0.2377461
50
308.76275
51
0.0982011
0
ARC
8
DEFAULT_255_2_778
10
28.5519895
20
10.0920245
40
0.6365305
50
0.2093916
51
89.7906129
0
ARC
8
DEFAULT_255_2_778
10
28.5519895
20
8.309677
40
0.6365304
50
270.2093871
51
359.7906084
0
ARC
8
DEFAULT_255_2_778
10
11.9433773
20
8.3096124
40
0.6364657
50
180.2036042
51
269.7964049
0
ARC
8
DEFAULT_255_2_778
10
11.9429903
20
10.0924761
40
0.6360774
50
90.1688631
51
179.8311369
0
ARC
8
DEFAULT_255_2_778
10
19.4166464
20
18.277156
40
8.1286024
50
205.4551725
51
228.0556133
0
ARC
8
DEFAULT_255_2_778
10
19.6698292
20
18.4106808
40
8.4146043
50
192.0293472
51
205.5351336
0
ARC
8
DEFAULT_255_2_778
10
19.7867106
20
18.4365991
40
8.5343209
50
181.5019801
51
192.0359908
0
ARC
8
DEFAULT_255_2_778
10
19.8669842
20
18.4406257
40
8.6146726
50
179.9996373
51
181.5147572
0
ARC
8
DEFAULT_255_2_778
10
19.92047
20
18.4401606
40
8.6681584
50
175.7544814
51
179.9965649
0
ARC
8
DEFAULT_255_2_778
10
20.0145786
20
18.4332302
40
8.7625219
50
172.1102447
51
175.7548447
0
ARC
8
DEFAULT_255_2_778
10
20.1030833
20
18.4212938
40
8.8518273
50
169.9227415
51
172.1123511
0
ARC
8
DEFAULT_255_2_778
10
19.9834927
20
18.4455808
40
8.7298325
50
160.2552448
51
169.9423445
0
ARC
8
DEFAULT_255_2_778
10
19.8282891
20
18.5001405
40
8.5653219
50
148.6070511
51
160.2480167
0
ARC
8
DEFAULT_255_2_778
10
19.7918323
20
18.5208764
40
8.5234005
50
145.3786453
51
148.5983797
0
ARC
8
DEFAULT_255_2_778
10
14.7821323
20
23.7677002
40
2.0447747
50
187.5259255
51
191.4024219
0
ARC
8
DEFAULT_255_2_778
10
14.7728686
20
23.766519
40
2.0354362
50
180.0015057
51
187.5271175
0
ARC
8
DEFAULT_255_2_778
10
14.7765865
20
23.7659207
40
2.0391541
50
126.4034306
51
179.9846912
0
ARC
8
DEFAULT_255_2_778
10
13.2276892
20
26.9262796
40
0.6336307
50
188.8398632
51
216.4809805
0
ARC
8
DEFAULT_255_2_778
10
13.2301056
20
26.926503
40
0.6360527
50
182.0118956
51
188.8262933
0
ARC
8
DEFAULT_255_2_778
10
13.2315394
20
26.9265883
40
0.6374886
50
179.9989511
51
182.015036
0
ARC
8
DEFAULT_255_2_778
10
13.2296863
20
26.9273936
40
0.635636
50
130.2473807
51
180.0715401
0
ARC
8
DEFAULT_255_2_778
10
13.236849
20
26.9187467
40
0.6468637
50
126.7940994
51
130.2367785
0
ARC
8
DEFAULT_255_2_778
10
11.4019202
20
29.9287351
40
0.3960345
50
271.9806713
51
306.4685407
0
ARC
8
DEFAULT_255_2_778
10
11.4016491
20
29.9314484
40
0.3987557
50
269.9988231
51
272.0061185
0
ARC
8
DEFAULT_255_2_778
10
11.4010266
20
29.929779
40
0.3970868
50
216.7394741
51
270.0886485
0
ARC
8
DEFAULT_255_2_778
10
10.9633423
20
30.5180012
40
0.3960208
50
182.0039445
51
216.479905
0
ARC
8
DEFAULT_255_2_778
10
10.9663831
20
30.5182482
40
0.3990684
50
179.9996806
51
182.0241168
0
ARC
8
DEFAULT_255_2_778
10
10.9646392
20
30.5187881
40
0.397325
50
126.7489473
51
180.0775312
0
ARC
8
DEFAULT_255_2_778
10
14.085678
20
32.8425499
40
0.3903992
50
92.2405015
51
126.7274493
0
LINE
8
DEFAULT_255_2_778
10
14.4078157
20
33.0731507
11
14.8457157
21
32.4828507
0
LINE
8
DEFAULT_255_2_778
10
14.7637157
20
31.9285507
11
14.3451157
21
31.6184507
0
LINE
8
DEFAULT_255_2_778
10
14.3451157
20
31.6184507
11
15.8159157
21
29.6370507
0
LINE
8
DEFAULT_255_2_778
10
15.8159157
20
29.6370507
11
16.4924157
21
30.1391507
0
LINE
8
DEFAULT_255_2_778
10
17.3796157
20
30.0079507
11
24.0767157
21
20.9861507
0
LINE
8
DEFAULT_255_2_778
10
23.9455157
20
20.0990507
11
23.2245157
21
19.5645507
0
LINE
8
DEFAULT_255_2_778
10
23.2245157
20
19.5645507
11
24.1453157
21
17.6471507
0
LINE
8
DEFAULT_255_2_778
10
24.1453157
20
17.6471507
11
22.5916157
21
16.4938507
0
LINE
8
DEFAULT_255_2_778
10
22.5916157
20
16.4938507
11
21.0226157
21
17.9294507
0
LINE
8
DEFAULT_255_2_778
10
21.0226157
20
17.9294507
11
20.3017157
21
17.3950507
0
LINE
8
DEFAULT_255_2_778
10
19.4145157
20
17.5262507
11
15.9932157
21
22.1357507
0
LINE
8
DEFAULT_255_2_778
10
19.7103157
20
15.4238507
11
19.7106157
21
15.4238507
0
LINE
8
DEFAULT_255_2_778
10
19.7106157
20
15.4238507
11
19.7132157
21
15.4206507
0
LINE
8
DEFAULT_255_2_778
10
19.9847157
20
15.1145507
11
21.5957157
21
13.2976507
0
LINE
8
DEFAULT_255_2_778
10
21.7185157
20
13.4474507
11
26.7429157
21
17.4839507
0
LINE
8
DEFAULT_255_2_778
10
27.4115157
20
17.4111507
11
27.9640157
21
16.7234507
0
LINE
8
DEFAULT_255_2_778
10
27.8912157
20
16.0548507
11
22.8668157
21
12.0184507
0
LINE
8
DEFAULT_255_2_778
10
22.7792157
20
11.9630507
11
23.2711157
21
11.4085507
0
LINE
8
DEFAULT_255_2_778
10
23.2986157
20
11.4355507
11
26.8731157
21
14.2959507
0
LINE
8
DEFAULT_255_2_778
10
27.2073157
20
14.2588507
11
27.7272157
21
13.6090507
0
LINE
8
DEFAULT_255_2_778
10
27.6901157
20
13.2749507
11
24.5080157
21
10.7285507
0
LINE
8
DEFAULT_255_2_778
10
24.5080157
20
10.7285507
11
28.5543157
21
10.7285507
0
LINE
8
DEFAULT_255_2_778
10
29.1885157
20
10.0943507
11
29.1885157
21
8.3073507
0
LINE
8
DEFAULT_255_2_778
10
28.5543157
20
7.6731507
11
11.9411157
21
7.6731507
0
LINE
8
DEFAULT_255_2_778
10
11.3069157
20
8.3073507
11
11.3069157
21
10.0943507
0
LINE
8
DEFAULT_255_2_778
10
11.9411157
20
10.7285507
11
13.5521157
21
10.7285507
0
LINE
8
DEFAULT_255_2_778
10
13.5521157
20
10.7285507
11
13.9834157
21
12.2311507
0
LINE
8
DEFAULT_255_2_778
10
13.5664157
20
25.4071507
11
12.7182157
21
26.5495507
0
LINE
8
DEFAULT_255_2_778
10
12.8494157
20
27.4367507
11
13.5363157
21
27.9465507
0
LINE
8
DEFAULT_255_2_778
10
13.5363157
20
27.9465507
11
12.0654157
21
29.9280507
0
LINE
8
DEFAULT_255_2_778
10
12.0654157
20
29.9280507
11
11.6373157
21
29.6102507
0
LINE
8
DEFAULT_255_2_778
10
11.0828157
20
29.6922507
11
10.6449157
21
30.2825507
0
LINE
8
DEFAULT_255_2_778
10
10.7269157
20
30.8371507
11
13.8522157
21
33.1554507
0
LINE
8
DEFAULT_255_2_778
10
14.0704157
20
33.2326507
11
14.0712157
21
33.2324507
0
ENDSEC
0
EOF