0
SECTION
2
HEADER
9
$MEASUREMENT
70
1
0
ENDSEC
0
SECTION
2
TABLES
0
TABLE
2
LTYPE
0
LTYPE
72
65
70
64
2
CONTINUOUS
3
______
73
0
40
0
0
ENDTAB
0
TABLE
2
LAYER
0
LAYER
2
DEFAULT_255_2_778
70
0
62
255
6
CONTINUOUS
0
ENDTAB
0
ENDSEC
0
SECTION
2
ENTITIES
0
ARC
8
DEFAULT_255_2_778
10
9.8981603
20
11.1348623
40
2.0370975
50
48.7847053
51
52.5266855
0
ARC
8
DEFAULT_255_2_778
10
10.4741205
20
11.869941
40
1.1033467
50
53.0401297
51
54.8867397
0
ARC
8
DEFAULT_255_2_778
10
10.518057
20
11.932095
40
1.0272319
50
54.8973469
51
63.4695485
0
ARC
8
DEFAULT_255_2_778
10
10.4060266
20
11.7030009
40
1.2822444
50
63.5632461
51
70.7160951
0
ARC
8
DEFAULT_255_2_778
10
10.2220087
20
11.1800286
40
1.8366468
50
70.6854557
51
76.0912175
0
ARC
8
DEFAULT_255_2_778
10
10.1066198
20
10.7417239
40
2.2898467
50
75.924891
51
76.6232237
0
ARC
8
DEFAULT_255_2_778
10
5.8693158
20
14.8674996
40
5.1310374
50
338.2895611
51
340.755399
0
ARC
8
DEFAULT_255_2_778
10
6.7387146
20
14.5643557
40
4.210304
50
340.7506212
51
343.55457
0
ARC
8
DEFAULT_255_2_778
10
7.4899864
20
14.3433927
40
3.427212
50
343.5418107
51
346.9661192
0
ARC
8
DEFAULT_255_2_778
10
8.1291157
20
14.1958514
40
2.771274
50
346.9578314
51
350.9483238
0
ARC
8
DEFAULT_255_2_778
10
8.6536175
20
14.1128591
40
2.2402474
50
350.9340386
51
355.7661769
0
ARC
8
DEFAULT_255_2_778
10
9.0222505
20
14.0844516
40
1.8705234
50
355.8003281
51
359.9487536
0
ARC
8
DEFAULT_255_2_778
10
9.3760791
20
14.0885851
40
1.5167052
50
359.7806494
51
9.8314204
0
ARC
8
DEFAULT_255_2_778
10
9.6481795
20
14.1352182
40
1.2406384
50
9.8551066
51
23.7955696
0
ARC
8
DEFAULT_255_2_778
10
9.3805994
20
13.9632447
40
1.555643
50
25.6150414
51
53.3256627
0
ARC
8
DEFAULT_255_2_778
10
8.3891415
20
12.8294923
40
3.0594037
50
51.1144825
51
51.3390335
0
ARC
8
DEFAULT_255_2_778
10
9.6021102
20
14.377618
40
1.0929681
50
50.2917499
51
70.4915411
0
ARC
8
DEFAULT_255_2_778
10
9.3516552
20
13.6839619
40
1.8304467
50
70.3527731
51
85.9122258
0
ARC
8
DEFAULT_255_2_778
10
9.2987107
20
13.2272046
40
2.2899057
50
85.405543
51
88.3527521
0
ARC
8
DEFAULT_255_2_778
10
9.2960488
20
13.1477158
40
2.3694382
50
88.343665
51
90.0022751
0
ARC
8
DEFAULT_255_2_778
10
9.2954248
20
13.1236018
40
2.3935522
50
89.9873143
51
98.4476516
0
ARC
8
DEFAULT_255_2_778
10
9.265086
20
13.3377473
40
2.1772738
50
98.4857968
51
101.7047943
0
ARC
8
DEFAULT_255_2_778
10
6.8099873
20
14.3197625
40
2.3186698
50
29.7335451
51
66.8047217
0
ARC
8
DEFAULT_255_2_778
10
6.187503
20
13.0037499
40
3.7738659
50
65.9873621
51
81.8862463
0
ARC
8
DEFAULT_255_2_778
10
5.9803908
20
11.8218285
40
4.9733346
50
81.4458799
51
87.4749742
0
ARC
8
DEFAULT_255_2_778
10
5.9548334
20
11.3636506
40
5.4321961
50
87.418575
51
90.0089584
0
ARC
8
DEFAULT_255_2_778
10
6.0400973
20
10.8308325
40
5.9656356
50
90.8270857
51
93.1918196
0
ARC
8
DEFAULT_255_2_778
10
5.9177508
20
12.1862598
40
4.6057356
50
92.6110079
51
108.4993308
0
ARC
8
DEFAULT_255_2_778
10
5.3382882
20
13.9165794
40
2.7809666
50
108.4890091
51
129.2438459
0
ARC
8
DEFAULT_255_2_778
10
4.928168
20
14.4498284
40
2.1086274
50
129.7797749
51
150.9740466
0
ARC
8
DEFAULT_255_2_778
10
2.6226636
20
13.5396711
40
1.9876468
50
76.5677711
51
85.5674883
0
ARC
8
DEFAULT_255_2_778
10
2.6082859
20
13.3984252
40
2.1295842
50
85.4755132
51
90.0018838
0
ARC
8
DEFAULT_255_2_778
10
2.6081789
20
13.4040343
40
2.1239752
50
89.9990046
51
91.7121014
0
ARC
8
DEFAULT_255_2_778
10
2.582775
20
13.692571
40
1.8348849
50
91.1883772
51
110.9952062
0
ARC
8
DEFAULT_255_2_778
10
2.3584739
20
14.2912965
40
1.1955546
50
111.2399767
51
128.9138968
0
ARC
8
DEFAULT_255_2_778
10
2.6121962
20
13.9060245
40
1.6553081
50
127.3702883
51
153.8597137
0
ARC
8
DEFAULT_255_2_778
10
2.2519249
20
14.1323929
40
1.2329578
50
155.9276294
51
169.9904809
0
ARC
8
DEFAULT_255_2_778
10
2.5107208
20
14.0877695
40
1.4955711
50
170.0302286
51
180.203992
0
LINE
8
DEFAULT_255_2_778
10
1.0151592
20
14.0824447
11
1.0151591
21
14.0818888
0
ARC
8
DEFAULT_255_2_778
10
2.9178683
20
14.0851807
40
1.9027121
50
180.0991277
51
185.7502965
0
ARC
8
DEFAULT_255_2_778
10
3.3749208
20
14.130544
40
2.3620098
50
185.734324
51
190.3424371
0
ARC
8
DEFAULT_255_2_778
10
3.9355858
20
14.2320193
40
2.9317832
50
190.326213
51
194.0680033
0
ARC
8
DEFAULT_255_2_778
10
4.6057608
20
14.3993404
40
3.6225298
50
194.0585306
51
197.2295353
0
ARC
8
DEFAULT_255_2_778
10
5.3906916
20
14.6419204
40
4.4440898
50
197.2191898
51
199.8556437
0
ARC
8
DEFAULT_255_2_778
10
6.1985893
20
14.9317918
40
5.3024148
50
199.8365753
51
201.6836565
0
ARC
8
DEFAULT_255_2_778
10
1.911586
20
10.7207965
40
2.3410868
50
105.8704718
51
109.0011356
0
ARC
8
DEFAULT_255_2_778
10
1.7540458
20
11.1777851
40
1.8577055
50
108.9959955
51
112.61521
0
ARC
8
DEFAULT_255_2_778
10
1.6484925
20
11.43438
40
1.5802516
50
112.6599513
51
114.9294099
0
ARC
8
DEFAULT_255_2_778
10
1.5575148
20
11.6261857
40
1.3679707
50
114.8601021
51
121.2254676
0
ARC
8
DEFAULT_255_2_778
10
1.721873
20
11.3724085
40
1.6702129
50
121.5338131
51
126.5393578
0
ARC
8
DEFAULT_255_2_778
10
-4.2944543
20
19.5261809
40
8.4629152
50
305.895143
51
306.3989143
0
ARC
8
DEFAULT_255_2_778
10
1.4515363
20
11.667409
40
1.2731767
50
128.017498
51
150.0493001
0
ARC
8
DEFAULT_255_2_778
10
1.3484409
20
11.7409218
40
1.1472127
50
150.6598503
51
169.349337
0
ARC
8
DEFAULT_255_2_778
10
1.555344
20
11.7013362
40
1.3578677
50
169.3213326
51
180.1936608
0
ARC
8
DEFAULT_255_2_778
10
3.2248666
20
11.7721977
40
3.0283225
50
181.4276809
51
182.8727533
0
ARC
8
DEFAULT_255_2_778
10
7.0996444
20
11.9597458
40
6.907634
50
182.8156559
51
183.5815626
0
ARC
8
DEFAULT_255_2_778
10
12.7330373
20
12.3083266
40
12.5518004
50
183.5632375
51
184.0364566
0
ARC
8
DEFAULT_255_2_778
10
20.0783226
20
12.8240403
40
19.9151671
50
184.0289507
51
184.349122
0
ARC
8
DEFAULT_255_2_778
10
31.2992046
20
13.6794675
40
31.1686086
50
184.3528791
51
184.6799403
0
ARC
8
DEFAULT_255_2_778
10
49.1488992
20
15.1380803
40
49.0778002
50
184.6769059
51
184.925543
0
ARC
8
DEFAULT_255_2_778
10
72.8437785
20
17.1773314
40
72.8602695
50
184.923382
51
185.1122592
0
ARC
8
DEFAULT_255_2_778
10
100.2828075
20
19.6281925
40
100.4085366
50
185.1100285
51
185.2396923
0
ARC
8
DEFAULT_255_2_778
10
135.0662213
20
22.820356
40
135.3381197
50
185.2406734
51
185.3757064
0
ARC
8
DEFAULT_255_2_778
10
182.7870846
20
27.3094792
40
183.2696649
50
185.3752667
51
185.4900962
0
ARC
8
DEFAULT_255_2_778
10
248.8084598
20
33.6577299
40
249.5955441
50
185.4906979
51
185.6071102
0
ARC
8
DEFAULT_255_2_778
10
344.5408155
20
43.0587018
40
345.7883826
50
185.6074957
51
185.7192741
0
ARC
8
DEFAULT_255_2_778
10
423.9057536
20
50.9889208
40
425.5485324
50
185.7168064
51
185.7512656
0
ARC
8
DEFAULT_255_2_778
10
490.4491967
20
57.6974095
40
492.4292742
50
185.7520102
51
185.8170789
0
ARC
8
DEFAULT_255_2_778
10
571.6618871
20
65.966226
40
574.0618314
50
185.8165897
51
185.8636001
0
ARC
8
DEFAULT_255_2_778
10
630.8107038
20
72.0389641
40
633.5215711
50
185.8634452
51
185.8986554
0
ARC
8
DEFAULT_255_2_778
10
661.7489724
20
75.2342594
40
664.6244066
50
185.8985585
51
185.9259126
0
ARC
8
DEFAULT_255_2_778
10
681.1978244
20
77.2524361
40
684.1776898
50
185.9258662
51
185.9472894
0
ARC
8
DEFAULT_255_2_778
10
681.8770955
20
77.324039
40
684.860724
50
185.9473593
51
185.9644671
0
ARC
8
DEFAULT_255_2_778
10
661.7904658
20
75.2269598
40
664.6649216
50
185.9645971
51
185.9785917
0
ARC
8
DEFAULT_255_2_778
10
626.7515922
20
71.5574403
40
629.434423
50
185.9785897
51
185.9902565
0
ARC
8
DEFAULT_255_2_778
10
590.4469968
20
67.7463227
40
592.9303375
50
185.9901035
51
186.0042961
0
ARC
8
DEFAULT_255_2_778
10
527.859547
20
61.1644733
40
529.9977577
50
186.0044146
51
186.0168509
0
ARC
8
DEFAULT_255_2_778
10
433.6638174
20
51.2359772
40
435.2802276
50
186.0168357
51
186.0275348
0
ARC
8
DEFAULT_255_2_778
10
354.9635721
20
42.9274228
40
356.1426215
50
186.0277613
51
186.0353009
0
ARC
8
DEFAULT_255_2_778
10
258.8932177
20
32.7685357
40
259.5366386
50
186.0349414
51
186.0447186
0
ARC
8
DEFAULT_255_2_778
10
130.769807
20
19.2024019
40
130.697016
50
186.0452814
51
186.0529932
0
ARC
8
DEFAULT_255_2_778
10
0.886392
20
5.4294968
40
0.0853995
50
185.9599816
51
186.1508183
0
ARC
8
DEFAULT_255_2_778
10
0.8267407
20
5.4203552
40
0.0252566
50
180.0196346
51
181.3491614
0
ARC
8
DEFAULT_255_2_778
10
0.8375673
20
5.4228716
40
0.0362103
50
184.9287826
51
266.0677455
0
ARC
8
DEFAULT_255_2_778
10
1.3972407
20
5.0851552
40
0.0252566
50
180.0196346
51
181.3491614
0
ARC
8
DEFAULT_255_2_778
10
1.4080673
20
5.0876716
40
0.0362103
50
184.9287826
51
266.0677455
0
ARC
8
DEFAULT_255_2_778
10
1.4048246
20
5.0724411
40
0.0209083
50
272.0818495
51
295.8292085
0
ARC
8
DEFAULT_255_2_778
10
1.4073999
20
5.0670404
40
0.0149252
50
295.9633219
51
4.2501589
0
ARC
8
DEFAULT_255_2_778
10
2.3370407
20
5.3867552
40
0.0252566
50
180.0196346
51
181.3491614
0
ARC
8
DEFAULT_255_2_778
10
2.3478673
20
5.3892716
40
0.0362103
50
184.9287826
51
266.0677455
0
ARC
8
DEFAULT_255_2_778
10
-48.2879913
20
5.6877557
40
51.5082899
50
0.2759312
51
0.5431636
0
ARC
8
DEFAULT_255_2_778
10
-47.6394576
20
5.6908358
40
50.8597491
50
0.0003895
51
0.2759798
0
ARC
8
DEFAULT_255_2_778
10
-46.142476
20
5.6886855
40
49.3627674
50
359.2382073
51
0.0028972
0
ARC
8
DEFAULT_255_2_778
10
-43.3639924
20
5.6503053
40
46.584019
50
358.3304593
51
359.2399731
0
ARC
8
DEFAULT_255_2_778
10
-39.0795745
20
5.5181885
40
42.2975713
50
356.837564
51
358.3402595
0
ARC
8
DEFAULT_255_2_778
10
-33.2179264
20
5.1886183
40
36.4266687
50
354.9487519
51
356.8465287
0
ARC
8
DEFAULT_255_2_778
10
-26.7149375
20
4.605619
40
29.8976049
50
352.4800436
51
354.9644051
0
ARC
8
DEFAULT_255_2_778
10
-22.3931075
20
4.054097
40
25.5407741
50
351.4766736
51
352.4378114
0
ARC
8
DEFAULT_255_2_778
10
3.5576852
20
0.1524444
40
0.7017884
50
170.4690673
51
175.1955405
0
ARC
8
DEFAULT_255_2_778
10
3.4194851
20
0.1642156
40
0.5630879
50
175.2112882
51
179.9193078
0
ARC
8
DEFAULT_255_2_778
10
3.22519
20
0.1581328
40
0.3688563
50
178.9318997
51
200.037452
0
ARC
8
DEFAULT_255_2_778
10
3.105334
20
0.1160228
40
0.2418316
50
200.3942
51
246.9419394
0
ARC
8
DEFAULT_255_2_778
10
3.1385749
20
0.1882893
40
0.3213521
50
246.5352279
51
261.3880901
0
ARC
8
DEFAULT_255_2_778
10
3.1502865
20
0.2561663
40
0.39022
50
261.1802443
51
270.0730668
0
ARC
8
DEFAULT_255_2_778
10
3.1644409
20
0.2798796
40
0.4141582
50
268.1103344
51
291.7886808
0
ARC
8
DEFAULT_255_2_778
10
3.2727691
20
-0.0037464
40
0.1106844
50
294.2163781
51
315.6251972
0
ARC
8
DEFAULT_255_2_778
10
2.9371006
20
0.686225
40
0.8723044
50
298.3921155
51
316.4496398
0
ARC
8
DEFAULT_255_2_778
10
2.3513531
20
1.259641
40
1.6919578
50
316.0426347
51
326.4949069
0
ARC
8
DEFAULT_255_2_778
10
1.2854326
20
1.9762102
40
2.9763296
50
326.3196913
51
333.2960407
0
ARC
8
DEFAULT_255_2_778
10
-0.3463286
20
2.8028789
40
4.8055394
50
333.2338696
51
338.6459114
0
ARC
8
DEFAULT_255_2_778
10
-2.5393546
20
3.6658079
40
7.1622303
50
338.6047994
51
343.0970351
0
ARC
8
DEFAULT_255_2_778
10
-5.0376138
20
4.4271201
40
9.773914
50
343.0850222
51
347.6433987
0
ARC
8
DEFAULT_255_2_778
10
-38.5524706
20
12.3371788
40
44.2085856
50
346.924352
51
347.41109
0
ARC
8
DEFAULT_255_2_778
10
-40.1103526
20
12.684733
40
45.8047655
50
347.4115258
51
347.9581828
0
ARC
8
DEFAULT_255_2_778
10
-41.6578941
20
13.0154918
40
47.3872591
50
347.9574283
51
348.3785649
0
ARC
8
DEFAULT_255_2_778
10
-43.3785045
20
13.3684041
40
49.143689
50
348.3796489
51
348.9853637
0
ARC
8
DEFAULT_255_2_778
10
-45.4739662
20
13.7762695
40
51.2784757
50
348.9853709
51
349.5993047
0
ARC
8
DEFAULT_255_2_778
10
-46.5087318
20
13.9683126
40
52.3309091
50
349.5970271
51
349.6860133
0
ARC
8
DEFAULT_255_2_778
10
-47.5053656
20
14.149116
40
53.34381
50
349.6866125
51
350.0529013
0
ARC
8
DEFAULT_255_2_778
10
-48.8858515
20
14.3909461
40
54.7453174
50
350.0531825
51
350.4693584
0
ARC
8
DEFAULT_255_2_778
10
-50.2534137
20
14.6207435
40
56.1320521
50
350.469163
51
350.8189597
0
ARC
8
DEFAULT_255_2_778
10
-51.4985727
20
14.8219227
40
57.3933586
50
350.8190284
51
351.1714053
0
ARC
8
DEFAULT_255_2_778
10
5.460615
20
6.4900402
40
0.5364373
50
242.7247371
51
247.9124045
0
ARC
8
DEFAULT_255_2_778
10
5.6826706
20
7.028006
40
1.1184253
50
247.7345852
51
251.2101854
0
ARC
8
DEFAULT_255_2_778
10
5.8359392
20
7.4688094
40
1.5851075
50
251.0974534
51
252.8298853
0
ARC
8
DEFAULT_255_2_778
10
5.9681798
20
7.9066963
40
2.0425197
50
252.9118371
51
257.4898828
0
ARC
8
DEFAULT_255_2_778
10
5.9949276
20
8.0054554
40
2.1447332
50
257.3637825
51
264.8029393
0
ARC
8
DEFAULT_255_2_778
10
5.9583398
20
7.6183188
40
1.7558745
50
264.8476404
51
269.9100773
0
ARC
8
DEFAULT_255_2_778
10
5.9195419
20
7.9211092
40
2.0589781
50
271.003009
51
292.0881289
0
ARC
8
DEFAULT_255_2_778
10
64.3902851
20
15.0912759
40
58.4063083
50
188.9416729
51
189.3063799
0
ARC
8
DEFAULT_255_2_778
10
63.5044967
20
14.9460993
40
57.5087018
50
189.3063584
51
189.7100842
0
ARC
8
DEFAULT_255_2_778
10
62.6847173
20
14.8059638
40
56.677031
50
189.7102241
51
190.0409432
0
ARC
8
DEFAULT_255_2_778
10
62.0231486
20
14.6887764
40
56.0051634
50
190.0408954
51
190.3657693
0
ARC
8
DEFAULT_255_2_778
10
61.18197
20
14.5342391
40
55.1499075
50
190.365083
51
190.9559207
0
ARC
8
DEFAULT_255_2_778
10
60.3532361
20
14.3741394
40
54.3058507
50
190.9562608
51
191.4619171
0
ARC
8
DEFAULT_255_2_778
10
59.886866
20
14.2797319
40
53.8300211
50
191.4620776
51
192.0016576
0
ARC
8
DEFAULT_255_2_778
10
59.9390627
20
14.2911612
40
53.8834534
50
192.0020039
51
192.4233982
0
ARC
8
DEFAULT_255_2_778
10
60.6550269
20
14.4493091
40
54.616676
50
192.4238351
51
192.8145451
0
ARC
8
DEFAULT_255_2_778
10
18.2946838
20
4.8775055
40
11.1885819
50
193.1318233
51
197.2427245
0
ARC
8
DEFAULT_255_2_778
10
14.8240331
20
3.8000071
40
7.5545183
50
197.2404359
51
201.54613
0
ARC
8
DEFAULT_255_2_778
10
12.292298
20
2.7975308
40
4.8315364
50
201.5147607
51
206.774441
0
ARC
8
DEFAULT_255_2_778
10
10.5615192
20
1.9193719
40
2.8907308
50
206.6886462
51
213.9359735
0
ARC
8
DEFAULT_255_2_778
10
9.4916925
20
1.1937776
40
1.5980686
50
213.765672
51
224.6299078
0
ARC
8
DEFAULT_255_2_778
10
8.9549899
20
0.658512
40
0.8400908
50
224.3652808
51
241.6977795
0
ARC
8
DEFAULT_255_2_778
10
8.8040347
20
0.4218368
40
0.5605189
50
243.8138732
51
247.8669188
0
ARC
8
DEFAULT_255_2_778
10
8.8178243
20
0.4540858
40
0.5955871
50
247.8069481
51
249.4353087
0
ARC
8
DEFAULT_255_2_778
10
8.7704928
20
0.3074578
40
0.4417354
50
248.5027026
51
268.1584163
0
ARC
8
DEFAULT_255_2_778
10
8.7578254
20
0.1730133
40
0.3070667
50
269.7148322
51
269.9922917
0
ARC
8
DEFAULT_255_2_778
10
8.7582049
20
0.2630789
40
0.3971325
50
269.9392864
51
280.7505582
0
ARC
8
DEFAULT_255_2_778
10
8.7955823
20
0.1310092
40
0.260689
50
278.0932879
51
333.8877636
0
ARC
8
DEFAULT_255_2_778
10
8.7408821
20
0.1431102
40
0.3154088
50
336.2880239
51
0.131757
0
ARC
8
DEFAULT_255_2_778
10
8.6227223
20
0.1513319
40
0.4336327
50
359.0094568
51
0.0040389
0
ARC
8
DEFAULT_255_2_778
10
8.5551739
20
0.1501842
40
0.5011825
50
0.1346993
51
6.4972833
0
ARC
8
DEFAULT_255_2_778
10
8.4087243
20
0.1336527
40
0.648562
50
6.4843521
51
11.9219853
0
ARC
8
DEFAULT_255_2_778
10
8.1939978
20
0.0899263
40
0.8676913
50
11.817992
51
11.886413
0
ARC
8
DEFAULT_255_2_778
10
32.6922212
20
4.020163
40
23.9448442
50
186.1855195
51
189.0138518
0
ARC
8
DEFAULT_255_2_778
10
37.0619617
20
4.5159726
40
28.3425761
50
185.1384142
51
186.2301793
0
ARC
8
DEFAULT_255_2_778
10
42.4364742
20
4.9744499
40
33.7365611
50
182.7176844
51
185.0964353
0
ARC
8
DEFAULT_255_2_778
10
50.223281
20
5.3633737
40
41.5330553
50
181.3686023
51
182.7442772
0
ARC
8
DEFAULT_255_2_778
10
56.5851817
20
5.5255034
40
47.8970145
50
180.6357141
51
181.3807244
0
ARC
8
DEFAULT_255_2_778
10
62.5344456
20
5.5918902
40
53.8466489
50
179.9935049
51
180.6361133
0
ARC
8
DEFAULT_255_2_778
10
67.9444639
20
5.5964285
40
59.2566667
50
179.7204281
51
179.998486
0
ARC
8
DEFAULT_255_2_778
10
72.003671
20
5.5769284
40
63.3159205
50
179.4903689
51
179.7207057
0
ARC
8
DEFAULT_255_2_778
10
72.750178
20
5.5721313
40
64.0624405
50
179.4598659
51
179.4920173
0
ARC
8
DEFAULT_255_2_778
10
9.5631754
20
5.3784032
40
0.0252566
50
270.0196346
51
271.3491614
0
ARC
8
DEFAULT_255_2_778
10
9.560659
20
5.3892298
40
0.0362103
50
274.9287826
51
356.0677455
0
ARC
8
DEFAULT_255_2_778
10
10.5029754
20
5.0926032
40
0.0252566
50
270.0196346
51
271.3491614
0
ARC
8
DEFAULT_255_2_778
10
10.5004387
20
5.1034426
40
0.0362248
50
274.9590987
51
356.2074385
0
LINE
8
DEFAULT_255_2_778
10
11.0734841
20
5.4026466
11
11.0746293
21
5.402647
0
ARC
8
DEFAULT_255_2_778
10
11.0809193
20
5.4290456
40
0.0271377
50
256.5981485
51
15.3876902
0
ARC
8
DEFAULT_255_2_778
10
10.5066938
20
11.7154278
40
1.2020002
50
359.7673275
51
17.9210163
0
ARC
8
DEFAULT_255_2_778
10
10.5130989
20
11.7100989
40
1.1975662
50
18.2578941
51
41.5634789
0
ARC
8
DEFAULT_255_2_778
10
10.3976709
20
11.6142824
40
1.34751
50
41.3556118
51
51.3766531
0
LINE
8
DEFAULT_255_2_778
10
0.8350841
20
5.3867466
11
0.8517841
21
5.3867466
0
LINE
8
DEFAULT_255_2_778
10
0.8517841
20
5.3867466
11
1.3719841
21
5.8735466
0
LINE
8
DEFAULT_255_2_778
10
1.3719841
20
5.8735466
11
1.3719841
21
5.0851466
0
LINE
8
DEFAULT_255_2_778
10
1.4222841
20
5.0681466
11
2.3117841
21
5.8233466
0
LINE
8
DEFAULT_255_2_778
10
2.3117841
20
5.8233466
11
2.3117841
21
5.3867466
0
LINE
8
DEFAULT_255_2_778
10
2.3453841
20
5.3531466
11
2.3620841
21
5.3531466
0
LINE
8
DEFAULT_255_2_778
10
2.3620841
20
5.3531466
11
2.8655841
21
5.8399466
0
LINE
8
DEFAULT_255_2_778
10
2.8655841
20
5.8399466
11
3.2179841
21
6.1760466
0
LINE
8
DEFAULT_255_2_778
10
8.6905841
20
6.1760466
11
9.0430841
21
5.8399466
0
LINE
8
DEFAULT_255_2_778
10
9.0430841
20
5.8399466
11
9.5465841
21
5.3531466
0
LINE
8
DEFAULT_255_2_778
10
9.5465841
20
5.3531466
11
9.5631841
21
5.3531466
0
LINE
8
DEFAULT_255_2_778
10
9.5967841
20
5.3867466
11
9.5967841
21
5.8391466
0
LINE
8
DEFAULT_255_2_778
10
9.5967841
20
5.8391466
11
10.4863841
21
5.0840466
0
LINE
8
DEFAULT_255_2_778
10
10.4863841
20
5.0840466
11
10.5029841
21
5.0673466
0
LINE
8
DEFAULT_255_2_778
10
10.5365841
20
5.1010466
11
10.5365841
21
5.8894466
0
LINE
8
DEFAULT_255_2_778
10
10.5365841
20
5.8894466
11
11.0567841
21
5.4026466
0
LINE
8
DEFAULT_255_2_778
10
11.0567841
20
5.4026466
11
11.0734841
21
5.4026466
0
LINE
8
DEFAULT_255_2_778
10
11.1070841
20
5.4362466
11
11.7086841
21
11.7105466
0
LINE
8
DEFAULT_255_2_778
10
11.2387841
20
12.6670466
11
11.2403841
21
12.6672466
0
ARC
8
DEFAULT_255_2_778
10
6.1083765
20
8.9816658
40
0.7423399
50
223.3212492
51
247.3654504
0
ARC
8
DEFAULT_255_2_778
10
5.9582829
20
8.6477498
40
0.3765125
50
248.8911795
51
269.4411672
0
ARC
8
DEFAULT_255_2_778
10
5.9455816
20
8.7343481
40
0.463181
50
271.1169622
51
309.162396
0
ARC
8
DEFAULT_255_2_778
10
5.791851
20
8.9505434
40
0.7281006
50
307.7981125
51
318.9466676
0
LINE
8
DEFAULT_255_2_778
10
6.1387106
20
8.6731551
11
5.9541106
21
8.8411551
0
LINE
8
DEFAULT_255_2_778
10
5.9541106
20
8.8411551
11
5.7694106
21
8.6734551
0
LINE
8
DEFAULT_255_2_778
10
5.7694106
20
8.6734551
11
5.5683106
21
8.4723551
0
LINE
8
DEFAULT_255_2_778
10
6.3409106
20
8.4723551
11
6.1387106
21
8.6731551
0
LINE
8
DEFAULT_255_2_778
10
6.5248269
20
8.0858495
11
5.3836269
21
8.0858495
0
LINE
8
DEFAULT_255_2_778
10
5.3836269
20
8.0858495
11
5.3307269
21
7.7167495
0
LINE
8
DEFAULT_255_2_778
10
5.3307269
20
7.7167495
11
6.5726269
21
7.7167495
0
LINE
8
DEFAULT_255_2_778
10
6.5726269
20
7.7167495
11
6.5248269
21
8.0858495
0
ARC
8
DEFAULT_255_2_778
10
-74.8028313
20
18.3152003
40
80.6404108
50
351.3151002
51
351.6411045
0
ARC
8
DEFAULT_255_2_778
10
-57.8155429
20
15.6729532
40
63.4489405
50
349.9174536
51
351.35742
0
ARC
8
DEFAULT_255_2_778
10
-39.2201584
20
12.3898843
40
44.5659824
50
348.8194384
51
349.8877969
0
ARC
8
DEFAULT_255_2_778
10
-28.2713408
20
10.2252497
40
33.4052365
50
347.6327444
51
348.8203979
0
ARC
8
DEFAULT_255_2_778
10
-19.9383883
20
8.3978546
40
24.8742653
50
346.3183877
51
347.6333486
0
ARC
8
DEFAULT_255_2_778
10
-13.7180484
20
6.8835131
40
18.4722456
50
344.8697188
51
346.3186915
0
ARC
8
DEFAULT_255_2_778
10
-8.6460624
20
5.5066227
40
13.2166933
50
342.8510918
51
344.8926826
0
ARC
8
DEFAULT_255_2_778
10
-4.4159874
20
4.1966054
40
8.7884149
50
340.0985357
51
342.8805121
0
ARC
8
DEFAULT_255_2_778
10
-1.3087621
20
3.0679469
40
5.4825566
50
336.3956483
51
340.1355698
0
ARC
8
DEFAULT_255_2_778
10
0.7671515
20
2.157066
40
3.2155978
50
331.259706
51
336.4568559
0
ARC
8
DEFAULT_255_2_778
10
2.0729342
20
1.435239
40
1.7236007
50
323.2293663
51
331.4269484
0
ARC
8
DEFAULT_255_2_778
10
2.7935558
20
0.8903306
40
0.8201819
50
309.4739065
51
323.5869603
0
ARC
8
DEFAULT_255_2_778
10
3.0471735
20
0.5868345
40
0.4246869
50
293.8254804
51
309.0920329
0
ARC
8
DEFAULT_255_2_778
10
3.1977654
20
0.263976
40
0.0689024
50
270.1245611
51
287.7110358
0
ARC
8
DEFAULT_255_2_778
10
3.2049378
20
0.2815006
40
0.0867117
50
179.7261886
51
265.3546394
0
ARC
8
DEFAULT_255_2_778
10
3.1811822
20
0.2820833
40
0.0629554
50
179.9489345
51
180.1531972
0
ARC
8
DEFAULT_255_2_778
10
-16.1340286
20
3.7174436
40
19.5563454
50
349.882823
51
350.1504446
0
ARC
8
DEFAULT_255_2_778
10
-21.0676173
20
4.5736668
40
24.5636816
50
350.1512503
51
350.4830006
0
ARC
8
DEFAULT_255_2_778
10
-25.1569037
20
5.2599218
40
28.7101511
50
350.481631
51
350.8348491
0
ARC
8
DEFAULT_255_2_778
10
-27.3612815
20
5.6167158
40
30.9432168
50
350.832768
51
351.1130471
0
ARC
8
DEFAULT_255_2_778
10
-28.4209444
20
5.7825428
40
32.0157764
50
351.1128076
51
351.555685
0
ARC
8
DEFAULT_255_2_778
10
-28.2349042
20
5.7556483
40
31.8278035
50
351.5543949
51
352.0483914
0
ARC
8
DEFAULT_255_2_778
10
-26.7740793
20
5.552346
40
30.3528999
50
352.046998
51
352.6099287
0
ARC
8
DEFAULT_255_2_778
10
-23.9469399
20
5.1884269
40
27.5024359
50
352.6042183
51
353.463041
0
ARC
8
DEFAULT_255_2_778
10
-19.2277608
20
4.6541582
40
22.7531153
50
353.4467851
51
354.8271047
0
ARC
8
DEFAULT_255_2_778
10
-14.0667629
20
4.1864818
40
17.5709708
50
354.8285674
51
356.2581917
0
ARC
8
DEFAULT_255_2_778
10
-11.5019907
20
4.0102094
40
15.0001649
50
356.2907292
51
356.5270481
0
ARC
8
DEFAULT_255_2_778
10
-13.4785255
20
4.1748479
40
16.9831018
50
356.3765714
51
357.4434819
0
ARC
8
DEFAULT_255_2_778
10
-24.9926369
20
4.6991539
40
28.5091417
50
357.4229849
51
358.1119799
0
ARC
8
DEFAULT_255_2_778
10
-38.7733329
20
5.1616283
40
42.297594
50
358.1008699
51
358.5504037
0
ARC
8
DEFAULT_255_2_778
10
-57.3969245
20
5.6296971
40
60.9270666
50
358.5534242
51
359.0000614
0
ARC
8
DEFAULT_255_2_778
10
-84.9191198
20
6.1134205
40
88.4535124
50
358.997891
51
359.3586439
0
ARC
8
DEFAULT_255_2_778
10
-126.3591103
20
6.5722781
40
129.896043
50
359.3608632
51
359.7059099
0
ARC
8
DEFAULT_255_2_778
10
-196.3114458
20
6.926607
40
199.8492759
50
359.7072655
51
0.010875
0
ARC
8
DEFAULT_255_2_778
10
3.9998943
20
7.3262238
40
0.0589686
50
105.0061884
51
135.9289335
0
ARC
8
DEFAULT_255_2_778
10
3.9965198
20
7.3364639
40
0.0482076
50
90.1045074
51
104.2836031
0
ARC
8
DEFAULT_255_2_778
10
3.9953349
20
7.3384427
40
0.0462419
50
354.0377396
51
88.6406576
0
LINE
8
DEFAULT_255_2_778
10
5.1819266
20
8.0691394
11
4.9809266
21
6.5922394
0
LINE
8
DEFAULT_255_2_778
10
3.5378266
20
6.9645394
11
3.9575266
21
7.3672394
0
LINE
8
DEFAULT_255_2_778
10
4.0413266
20
7.3336394
11
4.0413266
21
6.9473394
0
LINE
8
DEFAULT_255_2_778
10
4.0413266
20
6.9473394
11
5.1819266
21
8.0691394
0
ARC
8
DEFAULT_255_2_778
10
3.994947
20
7.3195447
40
0.0464274
50
353.4619805
51
88.6098492
0
ARC
8
DEFAULT_255_2_778
10
3.9961029
20
7.3186574
40
0.047301
50
90.0358624
51
99.6724276
0
ARC
8
DEFAULT_255_2_778
10
3.9981048
20
7.3113429
40
0.0548529
50
100.4501369
51
138.2641325
0
ARC
8
DEFAULT_255_2_778
10
2.3172321
20
7.10101
40
1.3714479
50
359.0206158
51
359.8098394
0
ARC
8
DEFAULT_255_2_778
10
-4.6544127
20
7.212282
40
8.3439799
50
358.7525502
51
359.0749187
0
ARC
8
DEFAULT_255_2_778
10
-27.431295
20
7.6967505
40
31.1260132
50
358.6384769
51
358.7737335
0
ARC
8
DEFAULT_255_2_778
10
-78.9468167
20
8.9133116
40
82.6558976
50
358.5763309
51
358.6439071
0
ARC
8
DEFAULT_255_2_778
10
-171.0649707
20
11.1953097
40
174.8023127
50
358.5452969
51
358.5787552
0
ARC
8
DEFAULT_255_2_778
10
144.1751859
20
3.1881836
40
140.5395185
50
178.5446202
51
178.5470653
0
LINE
8
DEFAULT_255_2_778
10
3.6808522
20
6.7516722
11
3.6805468
21
6.7396531
0
ARC
8
DEFAULT_255_2_778
10
-76.236297
20
8.7686224
40
79.9425959
50
358.5424482
51
358.5456582
0
ARC
8
DEFAULT_255_2_778
10
-76.2535961
20
8.7667647
40
79.9598421
50
358.5408884
51
358.5440943
0
ARC
8
DEFAULT_255_2_778
10
263.0442501
20
0.1231035
40
259.4480856
50
178.5406386
51
178.5419555
0
ARC
8
DEFAULT_255_2_778
10
163.2271027
20
2.6515597
40
159.5989206
50
178.5375747
51
178.5407854
0
ARC
8
DEFAULT_255_2_778
10
306.8754691
20
-1.0310898
40
303.2944835
50
178.5363649
51
178.538332
0
LINE
8
DEFAULT_255_2_778
10
3.6796734
20
6.7053918
11
3.6795222
21
6.6994775
0
ARC
8
DEFAULT_255_2_778
10
796.1546543
20
-13.5799672
40
792.7345652
50
178.5341205
51
178.5349762
0
ARC
8
DEFAULT_255_2_778
10
-51.7566054
20
8.1033185
40
55.4538981
50
358.5325926
51
358.5371427
0
LINE
8
DEFAULT_255_2_778
10
3.6791067
20
6.683239
11
3.6788054
21
6.6714821
0
LINE
8
DEFAULT_255_2_778
10
3.6788054
20
6.6714821
11
3.6786558
21
6.66565
0
LINE
8
DEFAULT_255_2_778
10
3.6786558
20
6.66565
11
3.6785066
21
6.6598342
0
ARC
8
DEFAULT_255_2_778
10
49.7034617
20
5.4760121
40
46.0401773
50
178.5266023
51
178.5320134
0
ARC
8
DEFAULT_255_2_778
10
49.8844953
20
5.4661703
40
46.221404
50
178.5255666
51
178.5318428
0
ARC
8
DEFAULT_255_2_778
10
49.1974249
20
5.478082
40
45.5342542
50
178.5246755
51
178.5301202
0
ARC
8
DEFAULT_255_2_778
10
-41.8819775
20
7.8158316
40
45.575145
50
358.5238588
51
358.5292859
0
ARC
8
DEFAULT_255_2_778
10
52.791104
20
5.3763027
40
49.129362
50
178.5240023
51
178.5298636
0
ARC
8
DEFAULT_255_2_778
10
520.1389108
20
-6.6577118
40
516.6320784
50
178.5254472
51
178.5267209
0
ARC
8
DEFAULT_255_2_778
10
-77.4707736
20
8.7134707
40
81.1752553
50
358.5224204
51
358.5259339
0
ARC
8
DEFAULT_255_2_778
10
-71.8675054
20
8.5639319
40
75.5699944
50
358.5224522
51
358.5262148
0
ARC
8
DEFAULT_255_2_778
10
-71.3972035
20
8.5468883
40
75.0994096
50
358.5224247
51
358.526199
0
LINE
8
DEFAULT_255_2_778
10
3.6772351
20
6.6103978
11
3.676944
21
6.5991033
0
LINE
8
DEFAULT_255_2_778
10
3.676944
20
6.5991033
11
3.6766548
21
6.5878945
0
ARC
8
DEFAULT_255_2_778
10
162.1011093
20
2.4959168
40
158.4772919
50
178.5204245
51
178.523438
0
ARC
8
DEFAULT_255_2_778
10
176.2100307
20
2.1214601
40
172.5911778
50
178.5198616
51
178.5226119
0
ARC
8
DEFAULT_255_2_778
10
183.0702542
20
1.9333358
40
179.4539715
50
178.5190396
51
178.5216683
0
ARC
8
DEFAULT_255_2_778
10
202.0589365
20
1.4309161
40
198.4492958
50
178.5180982
51
178.5204601
0
ARC
8
DEFAULT_255_2_778
10
344.9611303
20
-2.2763557
40
341.3995692
50
178.5177237
51
178.519544
0
ARC
8
DEFAULT_255_2_778
10
443.6338215
20
-4.8431093
40
440.1056379
50
178.5173838
51
178.5187832
0
LINE
8
DEFAULT_255_2_778
10
3.6752437
20
6.5332826
11
3.6746907
21
6.5119193
0
LINE
8
DEFAULT_255_2_778
10
3.6746907
20
6.5119193
11
3.6653244
21
6.1508461
0
ARC
8
DEFAULT_255_2_778
10
844.4386614
20
-15.6520468
40
841.0559853
50
178.5145416
51
178.541731
0
ARC
8
DEFAULT_255_2_778
10
514.5628824
20
-7.2409235
40
511.0729915
50
178.5432379
51
178.5627059
0
ARC
8
DEFAULT_255_2_778
10
331.1619915
20
-2.6588652
40
327.6148723
50
178.5592769
51
178.6378272
0
ARC
8
DEFAULT_255_2_778
10
189.0992669
20
0.7221763
40
185.5119197
50
178.6387378
51
178.7302643
0
ARC
8
DEFAULT_255_2_778
10
114.6458435
20
2.3720302
40
111.0402185
50
178.7300664
51
178.8436125
0
ARC
8
DEFAULT_255_2_778
10
71.6158685
20
3.2416104
40
68.0014578
50
178.8444534
51
178.9688513
0
ARC
8
DEFAULT_255_2_778
10
47.2301993
20
3.6812658
40
43.6118258
50
178.9698241
51
179.0998895
0
ARC
8
DEFAULT_255_2_778
10
28.5755576
20
3.9698459
40
24.9549532
50
179.0895443
51
179.3642567
0
ARC
8
DEFAULT_255_2_778
10
15.1551713
20
4.1174811
40
11.5337549
50
179.3578935
51
179.7625119
0
ARC
8
DEFAULT_255_2_778
10
9.9288403
20
4.141988
40
6.3073678
50
179.7883449
51
179.9939106
0
ARC
8
DEFAULT_255_2_778
10
-5.3360052
20
4.1490963
40
8.95748
50
358.4044215
51
359.9588201
0
ARC
8
DEFAULT_255_2_778
10
-8.1020705
20
4.223201
40
11.7245366
50
357.3061807
51
358.4188069
0
ARC
8
DEFAULT_255_2_778
10
-11.8283214
20
4.4025223
40
15.4550984
50
355.9752656
51
357.2913731
0
ARC
8
DEFAULT_255_2_778
10
-16.9716847
20
4.7612831
40
20.610958
50
354.9724654
51
355.9839438
0
ARC
8
DEFAULT_255_2_778
10
-23.8418016
20
5.3686895
40
27.5078734
50
353.9530796
51
354.9661951
0
ARC
8
DEFAULT_255_2_778
10
-30.8151123
20
6.0953595
40
34.5189358
50
353.5792007
51
353.9729341
0
ARC
8
DEFAULT_255_2_778
10
-36.2490807
20
6.7065164
40
39.9871645
50
353.2503921
51
353.5797102
0
ARC
8
DEFAULT_255_2_778
10
-38.8404396
20
7.0109673
40
42.5963457
50
353.2479988
51
353.2533824
0
ARC
8
DEFAULT_255_2_778
10
-38.5951398
20
6.9792436
40
42.3490175
50
353.2462019
51
353.251602
0
ARC
8
DEFAULT_255_2_778
10
-38.3239495
20
6.9481849
40
42.0760564
50
353.2393523
51
353.2447726
0
ARC
8
DEFAULT_255_2_778
10
-38.0539088
20
6.9172353
40
41.8042499
50
353.2324653
51
353.2379059
0
ARC
8
DEFAULT_255_2_778
10
40.7554526
20
-2.4377891
40
37.5584109
50
173.2281261
51
173.2341651
0
ARC
8
DEFAULT_255_2_778
10
-37.5519803
20
6.8556046
40
41.2985559
50
353.2243449
51
353.2298219
0
ARC
8
DEFAULT_255_2_778
10
-50.860727
20
8.4392625
40
54.7011939
50
353.2177033
51
353.2218269
0
ARC
8
DEFAULT_255_2_778
10
-50.5064193
20
8.3998786
40
54.3447147
50
353.210681
51
353.2148203
0
ARC
8
DEFAULT_255_2_778
10
-36.7893564
20
6.764003
40
40.5304507
50
353.2090883
51
353.2146232
0
ARC
8
DEFAULT_255_2_778
10
-36.5258363
20
6.7337051
40
40.2651967
50
353.2020028
51
353.2075587
0
ARC
8
DEFAULT_255_2_778
10
39.6873083
20
-2.3543279
40
36.4878863
50
173.1975316
51
173.2036457
0
ARC
8
DEFAULT_255_2_778
10
-36.0360303
20
6.6733756
40
39.7716931
50
353.1935762
51
353.19917
0
ARC
8
DEFAULT_255_2_778
10
-35.7757453
20
6.6434013
40
39.5096899
50
353.1863878
51
353.1920031
0
ARC
8
DEFAULT_255_2_778
10
-35.5501464
20
6.6134773
40
39.2821344
50
353.185055
51
353.1906872
0
ARC
8
DEFAULT_255_2_778
10
-35.3000041
20
6.5841959
40
39.0302847
50
353.1785094
51
353.1841622
0
ARC
8
DEFAULT_255_2_778
10
-35.0429057
20
6.5545425
40
38.7714841
50
353.1712184
51
353.1768932
0
ARC
8
DEFAULT_255_2_778
10
-34.828055
20
6.5254143
40
38.5546945
50
353.1705433
51
353.1762342
0
ARC
8
DEFAULT_255_2_778
10
-34.5730063
20
6.4959734
40
38.2979543
50
353.1631891
51
353.1689022
0
ARC
8
DEFAULT_255_2_778
10
-34.327013
20
6.4671118
40
38.0502745
50
353.1565105
51
353.1622448
0
ARC
8
DEFAULT_255_2_778
10
-34.1068782
20
6.437826
40
37.8282187
50
353.1550697
51
353.1608216
0
ARC
8
DEFAULT_255_2_778
10
-33.8628695
20
6.4091733
40
37.5825342
50
353.1483312
51
353.1541046
0
ARC
8
DEFAULT_255_2_778
10
-33.6199134
20
6.380624
40
37.3379073
50
353.1415555
51
353.1473505
0
ARC
8
DEFAULT_255_2_778
10
-33.4024762
20
6.3516544
40
37.1185669
50
353.1400594
51
353.1458724
0
ARC
8
DEFAULT_255_2_778
10
-33.1614935
20
6.3233128
40
36.8759241
50
353.1332223
51
353.1390572
0
ARC
8
DEFAULT_255_2_778
10
-32.9535957
20
6.2950183
40
36.6661348
50
353.1324257
51
353.1382776
0
ARC
8
DEFAULT_255_2_778
10
-32.7145492
20
6.2668825
40
36.425439
50
353.1255291
51
353.1314031
0
ARC
8
DEFAULT_255_2_778
10
-32.4765452
20
6.2388494
40
36.1857907
50
353.1185938
51
353.1244902
0
ARC
8
DEFAULT_255_2_778
10
-32.2712141
20
6.2108629
40
35.9785858
50
353.1177492
51
353.123663
0
ARC
8
DEFAULT_255_2_778
10
-32.0351351
20
6.1830344
40
35.7408731
50
353.1107529
51
353.1166893
0
ARC
8
DEFAULT_255_2_778
10
36.4392578
20
-2.0926686
40
33.2318008
50
173.1065941
51
173.1129608
0
ARC
8
DEFAULT_255_2_778
10
-31.5973128
20
6.1276279
40
35.299566
50
353.102823
51
353.1087999
0
ARC
8
DEFAULT_255_2_778
10
-31.3641834
20
6.1001049
40
35.0648185
50
353.0957246
51
353.1017246
0
ARC
8
DEFAULT_255_2_778
10
-31.170627
20
6.0730827
40
34.8694177
50
353.0955554
51
353.101572
0
ARC
8
DEFAULT_255_2_778
10
-30.9393741
20
6.0457613
40
34.6365573
50
353.0883964
51
353.0944364
0
ARC
8
DEFAULT_255_2_778
10
35.6179996
20
-2.0246715
40
32.4083224
50
173.0841341
51
173.0905712
0
ARC
8
DEFAULT_255_2_778
10
-30.5180147
20
5.9918171
40
34.2117683
50
353.0809854
51
353.087066
0
ARC
8
DEFAULT_255_2_778
10
-30.2896526
20
5.964797
40
33.9818143
50
353.0737233
51
353.0798277
0
ARC
8
DEFAULT_255_2_778
10
-30.100091
20
5.938271
40
33.7904376
50
353.0734903
51
353.0796119
0
ARC
8
DEFAULT_255_2_778
10
-29.8735863
20
5.9114504
40
33.5623514
50
353.0661651
51
353.0723109
0
ARC
8
DEFAULT_255_2_778
10
-29.685589
20
5.8851213
40
33.3725509
50
353.0659095
51
353.0720728
0
ARC
8
DEFAULT_255_2_778
10
-29.4682885
20
5.8589437
40
33.1536792
50
353.0592944
51
353.0654808
0
ARC
8
DEFAULT_255_2_778
10
-29.2446158
20
5.8324204
40
32.9284405
50
353.0518651
51
353.0580762
0
ARC
8
DEFAULT_255_2_778
10
-29.0589858
20
5.8063844
40
32.7410246
50
353.0515668
51
353.0577957
0
ARC
8
DEFAULT_255_2_778
10
-28.8444278
20
5.7804991
40
32.5249108
50
353.0448543
51
353.0511068
0
ARC
8
DEFAULT_255_2_778
10
-28.6603244
20
5.7546567
40
32.3390332
50
353.0445344
51
353.0508049
0
ARC
8
DEFAULT_255_2_778
10
-28.447519
20
5.7289644
40
32.1246825
50
353.0377636
51
353.044058
0
ARC
8
DEFAULT_255_2_778
10
33.7044723
20
-1.8627587
40
30.489248
50
173.0340391
51
173.0406523
0
ARC
8
DEFAULT_255_2_778
10
-28.0538752
20
5.6778149
40
31.7277412
50
353.0305917
51
353.0369286
0
ARC
8
DEFAULT_255_2_778
10
-27.8437551
20
5.6524106
40
31.5160911
50
353.0237226
51
353.030084
0
ARC
8
DEFAULT_255_2_778
10
-27.6634822
20
5.6270489
40
31.3340728
50
353.0233371
51
353.0297171
0
ARC
8
DEFAULT_255_2_778
10
-37.7576554
20
6.8629597
40
41.5036256
50
353.0176087
51
353.0224117
0
ARC
8
DEFAULT_255_2_778
10
32.9351399
20
-1.7971758
40
29.7176441
50
173.0133903
51
173.020079
0
ARC
8
DEFAULT_255_2_778
10
-27.0767213
20
5.552071
40
30.7425488
50
353.009814
51
353.0162612
0
ARC
8
DEFAULT_255_2_778
10
26.9646945
20
-1.0757601
40
23.7037804
50
173.0055543
51
173.0138921
0
ARC
8
DEFAULT_255_2_778
10
-26.7014663
20
5.5026809
40
30.3640723
50
353.0031449
51
353.0096352
0
ARC
8
DEFAULT_255_2_778
10
-26.4973946
20
5.4779391
40
30.1585064
50
352.9960563
51
353.0025722
0
ARC
8
DEFAULT_255_2_778
10
-26.3293165
20
5.4536637
40
29.9887228
50
352.996399
51
353.002933
0
ARC
8
DEFAULT_255_2_778
10
-35.9856693
20
6.6406291
40
39.7177533
50
352.9904799
51
352.9953992
0
ARC
8
DEFAULT_255_2_778
10
31.877404
20
-1.7055519
40
28.6566239
50
172.9861198
51
172.9929183
0
ARC
8
DEFAULT_255_2_778
10
-25.7664264
20
5.3810698
40
29.4211808
50
352.98319
51
352.9897928
0
ARC
8
DEFAULT_255_2_778
10
-25.5734574
20
5.3572127
40
29.2267426
50
352.9767687
51
352.9833963
0
ARC
8
DEFAULT_255_2_778
10
-25.4020618
20
5.3329765
40
29.05367
50
352.9762293
51
352.9828772
0
ARC
8
DEFAULT_255_2_778
10
-25.2107062
20
5.3093018
40
28.8608554
50
352.9697504
51
352.9764235
0
ARC
8
DEFAULT_255_2_778
10
-25.04755
20
5.2856661
40
28.6960332
50
352.9700241
51
352.9767162
0
ARC
8
DEFAULT_255_2_778
10
-24.8577743
20
5.2621719
40
28.5048087
50
352.9634899
51
352.9702075
0
ARC
8
DEFAULT_255_2_778
10
30.8481949
20
-1.6152716
40
27.6240986
50
172.9602467
51
172.9671584
0
ARC
8
DEFAULT_255_2_778
10
-24.5077839
20
5.2154019
40
28.151725
50
352.9571567
51
352.9639193
0
ARC
8
DEFAULT_255_2_778
10
-24.320429
20
5.1921768
40
27.962936
50
352.950528
51
352.9573166
0
ARC
8
DEFAULT_255_2_778
10
-33.362391
20
6.3060104
40
37.0732429
50
352.9520263
51
352.9571318
0
ARC
8
DEFAULT_255_2_778
10
-23.9815843
20
5.1463521
40
27.6210292
50
352.9449182
51
352.9517511
0
ARC
8
DEFAULT_255_2_778
10
-23.8232098
20
5.1233425
40
27.461028
50
352.9451243
51
352.9519771
0
ARC
8
DEFAULT_255_2_778
10
-23.6389439
20
5.1004721
40
27.2753481
50
352.9383829
51
352.9452624
0
ARC
8
DEFAULT_255_2_778
10
29.8468927
20
-1.5263264
40
26.6194491
50
172.9358863
51
172.9429148
0
ARC
8
DEFAULT_255_2_778
10
-23.3057639
20
5.0553501
40
26.9391484
50
352.9326366
51
352.9395616
0
ARC
8
DEFAULT_255_2_778
10
-23.1303967
20
5.0331459
40
26.7623817
50
352.9266686
51
352.9336192
0
ARC
8
DEFAULT_255_2_778
10
-22.9753737
20
5.0105758
40
26.6057595
50
352.9268232
51
352.9337943
0
ARC
8
DEFAULT_255_2_778
10
-22.8014724
20
4.9885436
40
26.4304685
50
352.9208036
51
352.9278006
0
ARC
8
DEFAULT_255_2_778
10
24.0610893
20
-0.8326381
40
20.7922574
50
172.9169212
51
172.9257897
0
ARC
8
DEFAULT_255_2_778
10
-22.4753166
20
4.9442865
40
26.101345
50
352.9148695
51
352.9219136
0
ARC
8
DEFAULT_255_2_778
10
28.8728943
20
-1.4391081
40
25.6421232
50
172.9122771
51
172.9194265
0
ARC
8
DEFAULT_255_2_778
10
-22.1583308
20
4.9007686
40
25.781412
50
352.9097523
51
352.9168422
0
ARC
8
DEFAULT_255_2_778
10
-233.9722474
20
31.2542136
40
239.2284529
50
352.9068894
51
352.9080319
0
ARC
8
DEFAULT_255_2_778
10
-21.7375327
20
4.8443217
40
25.3568641
50
352.8974495
51
352.9081813
0
ARC
8
DEFAULT_255_2_778
10
23.2694229
20
-0.7647133
40
19.9982605
50
172.8943569
51
172.9033909
0
ARC
8
DEFAULT_255_2_778
10
-21.3441351
20
4.7910108
40
24.9598937
50
352.8891672
51
352.8999901
0
ARC
8
DEFAULT_255_2_778
10
27.8642906
20
-1.3487043
40
24.6300777
50
172.886782
51
172.8940636
0
ARC
8
DEFAULT_255_2_778
10
-24.0045357
20
5.1186645
40
27.640392
50
352.8816724
51
352.8913744
0
ARC
8
DEFAULT_255_2_778
10
-215.6734875
20
29.0509413
40
220.7976879
50
352.8813946
51
352.8826038
0
ARC
8
DEFAULT_255_2_778
10
-23.4943475
20
5.0496473
40
27.1255837
50
352.8731476
51
352.882947
0
ARC
8
DEFAULT_255_2_778
10
-28.2020621
20
5.6354249
40
31.8696014
50
352.8726765
51
352.8782139
0
ARC
8
DEFAULT_255_2_778
10
-20.1296324
20
4.62469
40
23.7341416
50
352.8647955
51
352.8759131
0
ARC
8
DEFAULT_255_2_778
10
-27.7087616
20
5.5701351
40
31.3720115
50
352.8652186
51
352.8708026
0
ARC
8
DEFAULT_255_2_778
10
-19.7616523
20
4.5740371
40
23.3627196
50
352.8572526
51
352.8684641
0
ARC
8
DEFAULT_255_2_778
10
-19.5636892
20
4.5461999
40
23.1628315
50
352.8571811
51
352.8646885
0
ARC
8
DEFAULT_255_2_778
10
-27.0175014
20
5.4800456
40
30.674914
50
352.8519609
51
352.8576131
0
ARC
8
DEFAULT_255_2_778
10
-195.4773899
20
26.6036839
40
200.4540119
50
352.851405
51
352.8526983
0
ARC
8
DEFAULT_255_2_778
10
-19.0511027
20
4.4766822
40
22.6455784
50
352.8437391
51
352.851339
0
ARC
8
DEFAULT_255_2_778
10
-190.8385891
20
26.0389416
40
195.7809922
50
352.8442616
51
352.8455759
0
ARC
8
DEFAULT_255_2_778
10
-18.7006871
20
4.4278638
40
22.291811
50
352.8368298
51
352.8444935
0
ARC
8
DEFAULT_255_2_778
10
-186.4505375
20
25.5027937
40
191.3603325
50
352.8376525
51
352.8389874
0
ARC
8
DEFAULT_255_2_778
10
-18.3540367
20
4.3795285
40
21.941839
50
352.8298172
51
352.8375456
0
ARC
8
DEFAULT_255_2_778
10
-18.2017074
20
4.3584281
40
21.7880673
50
352.8232349
51
352.8348719
0
ARC
8
DEFAULT_255_2_778
10
-18.0169617
20
4.3320375
40
21.6014723
50
352.8236741
51
352.8314663
0
ARC
8
DEFAULT_255_2_778
10
389.5205166
20
-46.9931503
40
389.1552333
50
172.8218772
51
172.8227393
0
ARC
8
DEFAULT_255_2_778
10
-17.5965808
20
4.2735973
40
21.1770837
50
352.8108103
51
352.822624
0
ARC
8
DEFAULT_255_2_778
10
24.6035867
20
-1.0496281
40
21.3575005
50
172.8102954
51
172.8180718
0
ARC
8
DEFAULT_255_2_778
10
-19.8548959
20
4.5533927
40
23.4526603
50
352.8054125
51
352.8160009
0
ARC
8
DEFAULT_255_2_778
10
20.0645024
20
-0.486368
40
16.7836113
50
172.8033834
51
172.8132057
0
ARC
8
DEFAULT_255_2_778
10
391.3800744
20
-47.3781489
40
391.0483478
50
172.802934
51
172.8037742
0
ARC
8
DEFAULT_255_2_778
10
-16.6919442
20
4.1453826
40
20.2635129
50
352.7934892
51
352.8055807
0
ARC
8
DEFAULT_255_2_778
10
-18.98697
20
4.4331534
40
22.5765088
50
352.7887865
51
352.7995907
0
ARC
8
DEFAULT_255_2_778
10
19.4986936
20
-0.4368764
40
16.2160612
50
172.7870081
51
172.7969937
0
ARC
8
DEFAULT_255_2_778
10
-18.6385833
20
4.3840612
40
22.2247157
50
352.7834245
51
352.794318
0
ARC
8
DEFAULT_255_2_778
10
-16.0071889
20
4.0496796
40
19.572161
50
352.7786565
51
352.7868682
0
ARC
8
DEFAULT_255_2_778
10
19.1779741
20
-0.4090367
40
15.8943843
50
172.7769409
51
172.7870225
0
ARC
8
DEFAULT_255_2_778
10
-22.1648549
20
4.824762
40
25.7784145
50
352.7775815
51
352.783779
0
ARC
8
DEFAULT_255_2_778
10
-15.6448115
20
3.997698
40
19.2061242
50
352.7716527
51
352.7799461
0
ARC
8
DEFAULT_255_2_778
10
-17.8840636
20
4.2785552
40
21.462919
50
352.7689038
51
352.7799996
0
ARC
8
DEFAULT_255_2_778
10
-21.6037911
20
4.7479978
40
25.2121514
50
352.7683131
51
352.7745837
0
ARC
8
DEFAULT_255_2_778
10
-146.1893602
20
20.5578386
40
150.7968443
50
352.766362
51
352.7679294
0
ARC
8
DEFAULT_255_2_778
10
-17.3509579
20
4.2033698
40
20.9245898
50
352.7593007
51
352.7705461
0
ARC
8
DEFAULT_255_2_778
10
-68.1377939
20
10.6522982
40
72.119232
50
352.7583458
51
352.7621347
0
ARC
8
DEFAULT_255_2_778
10
22.0990975
20
-0.8148508
40
18.8433541
50
172.7555617
51
172.7638079
0
ARC
8
DEFAULT_255_2_778
10
169.2050677
20
-19.5215009
40
167.1339646
50
172.7541389
51
172.7559918
0
ARC
8
DEFAULT_255_2_778
10
-14.3353742
20
3.809098
40
17.8833608
50
352.7448072
51
352.7534178
0
ARC
8
DEFAULT_255_2_778
10
-65.2504397
20
10.2863134
40
69.2087758
50
352.744777
51
352.7486574
0
ARC
8
DEFAULT_255_2_778
10
-95.9683206
20
14.1983076
40
100.1747557
50
352.7413495
51
352.7440163
0
ARC
8
DEFAULT_255_2_778
10
-94.6847298
20
14.0367102
40
98.8810343
50
352.7375741
51
352.7402615
0
ARC
8
DEFAULT_255_2_778
10
-62.7454595
20
9.9666768
40
66.6834854
50
352.7334447
51
352.7374087
0
ARC
8
DEFAULT_255_2_778
10
-61.924616
20
9.8618557
40
65.8559763
50
352.7295864
51
352.733579
0
ARC
8
DEFAULT_255_2_778
10
-61.1362117
20
9.7604067
40
65.0610724
50
352.7263228
51
352.7303428
0
ARC
8
DEFAULT_255_2_778
10
-60.3543721
20
9.6597683
40
64.2727829
50
352.7230244
51
352.7270722
0
ARC
8
DEFAULT_255_2_778
10
20.431687
20
-0.6571303
40
17.169379
50
172.719844
51
172.7284603
0
ARC
8
DEFAULT_255_2_778
10
159.807266
20
-18.466438
40
157.6781808
50
172.7193599
51
172.7212297
0
ARC
8
DEFAULT_255_2_778
10
158.5993377
20
-18.3275379
40
156.4623892
50
172.7156415
51
172.7175144
0
ARC
8
DEFAULT_255_2_778
10
157.4054887
20
-18.1903716
40
155.2607841
50
172.7118777
51
172.7137536
0
ARC
8
DEFAULT_255_2_778
10
63.7691385
20
-6.2258595
40
60.8631387
50
172.7065301
51
172.7109895
0
ARC
8
DEFAULT_255_2_778
10
155.3821971
20
-17.9650041
40
153.2252513
50
172.703163
51
172.7050416
0
ARC
8
DEFAULT_255_2_778
10
154.1369766
20
-17.8195184
40
151.9716373
50
172.6998363
51
172.7017188
0
ARC
8
DEFAULT_255_2_778
10
95.537944
20
-10.3236582
40
92.8951242
50
172.6961747
51
172.6992357
0
ARC
8
DEFAULT_255_2_778
10
19.020022
20
-0.52311
40
15.7521199
50
172.6896346
51
172.6986104
0
ARC
8
DEFAULT_255_2_778
10
151.3105928
20
-17.4952165
40
149.1269582
50
172.690214
51
172.6921034
0
ARC
8
DEFAULT_255_2_778
10
93.3293737
20
-10.0676209
40
90.6719255
50
172.6870314
51
172.69012
0
ARC
8
DEFAULT_255_2_778
10
86.9819638
20
-9.2633316
40
84.2737705
50
172.6834134
51
172.686613
0
ARC
8
DEFAULT_255_2_778
10
91.6521408
20
-9.8738901
40
88.9836769
50
172.6794691
51
172.6825785
0
ARC
8
DEFAULT_255_2_778
10
-38.8786423
20
6.8895354
40
42.6191262
50
352.673904
51
352.6803061
0
ARC
8
DEFAULT_255_2_778
10
-38.9952929
20
6.9012608
40
42.73632
50
352.6718591
51
352.6782548
0
ARC
8
DEFAULT_255_2_778
10
89.0429795
20
-9.5677756
40
86.3567796
50
172.6698631
51
172.6730088
0
ARC
8
DEFAULT_255_2_778
10
235.8832442
20
-28.474845
40
234.4092716
50
172.6666852
51
172.668412
0
ARC
8
DEFAULT_255_2_778
10
-37.0504607
20
6.6429613
40
40.7744264
50
352.6601234
51
352.6666842
0
ARC
8
DEFAULT_255_2_778
10
86.0783982
20
-9.2194546
40
83.3719877
50
172.6586673
51
172.6618563
0
ARC
8
DEFAULT_255_2_778
10
-35.9820525
20
6.5004611
40
39.6965679
50
352.6537526
51
352.660409
0
ARC
8
DEFAULT_255_2_778
10
84.3953406
20
-9.0202455
40
81.6772723
50
172.6528919
51
172.6561071
0
ARC
8
DEFAULT_255_2_778
10
-34.9569288
20
6.3626506
40
38.6622379
50
352.6485108
51
352.6552615
0
ARC
8
DEFAULT_255_2_778
10
60.0644298
20
-5.8978921
40
57.1468406
50
172.6472946
51
172.6518336
0
ARC
8
DEFAULT_255_2_778
10
-42.7571308
20
7.3629675
40
46.5263176
50
352.6447688
51
352.6503096
0
ARC
8
DEFAULT_255_2_778
10
-42.1090554
20
7.278528
40
45.8727648
50
352.6401549
51
352.64574
0
ARC
8
DEFAULT_255_2_778
10
80.2679883
20
-8.5291038
40
77.5210034
50
172.6395437
51
172.6428283
0
ARC
8
DEFAULT_255_2_778
10
-32.5126529
20
6.0325712
40
36.1958177
50
352.6362393
51
352.6432305
0
ARC
8
DEFAULT_255_2_778
10
-40.3351073
20
7.041464
40
44.0830638
50
352.6331587
51
352.6388636
0
ARC
8
DEFAULT_255_2_778
10
-31.5462199
20
5.9035282
40
35.220816
50
352.6286927
51
352.635789
0
ARC
8
DEFAULT_255_2_778
10
77.0661628
20
-8.1461191
40
74.2964988
50
172.6297124
51
172.6330556
0
ARC
8
DEFAULT_255_2_778
10
55.2352093
20
-5.3302016
40
52.284687
50
172.625859
51
172.6305804
0
ARC
8
DEFAULT_255_2_778
10
54.6653357
20
-5.2634072
40
51.7109536
50
172.6229872
51
172.6277314
0
ARC
8
DEFAULT_255_2_778
10
-37.5339911
20
6.6655604
40
41.2568695
50
352.6221792
51
352.6280887
0
ARC
8
DEFAULT_255_2_778
10
-29.3380392
20
5.6019614
40
32.9921938
50
352.6188941
51
352.6262381
0
ARC
8
DEFAULT_255_2_778
10
-36.4486082
20
6.5202022
40
40.1618067
50
352.6169684
51
352.6229639
0
ARC
8
DEFAULT_255_2_778
10
-35.9351089
20
6.4505668
40
39.6436165
50
352.6153728
51
352.621409
0
ARC
8
DEFAULT_255_2_778
10
-35.4120605
20
6.3801934
40
39.1158613
50
352.6130466
51
352.6191263
0
ARC
8
DEFAULT_255_2_778
10
-34.9080744
20
6.311809
40
38.607266
50
352.6114063
51
352.6175278
0
LINE
8
DEFAULT_255_2_778
10
3.378627
20
1.3469851
11
3.3775738
21
1.3388644
0
ARC
8
DEFAULT_255_2_778
10
49.5948508
20
-4.6590808
40
46.60485
50
172.6056459
51
172.6106227
0
LINE
8
DEFAULT_255_2_778
10
3.3770529
20
1.3348499
11
3.3760185
21
1.3268803
0
ARC
8
DEFAULT_255_2_778
10
37.8916382
20
-3.1571247
40
34.8056648
50
172.5980269
51
172.6045668
0
ARC
8
DEFAULT_255_2_778
10
47.4796722
20
-4.4061029
40
44.4747044
50
172.5988342
51
172.6039203
0
ARC
8
DEFAULT_255_2_778
10
-41.4823424
20
7.1441434
40
45.233981
50
352.5960774
51
352.6010469
0
LINE
8
DEFAULT_255_2_778
10
3.3744931
20
1.3151348
11
3.3734895
21
1.3074112
0
ARC
8
DEFAULT_255_2_778
10
70.5038257
20
-7.4216451
40
67.6954833
50
172.5913147
51
172.5961999
0
ARC
8
DEFAULT_255_2_778
10
490.9479677
20
-62.0997105
40
491.6801141
50
172.5911674
51
172.5920552
0
ARC
8
DEFAULT_255_2_778
10
258.7399584
20
-31.9245038
40
257.5196943
50
172.5885052
51
172.5901791
0
ARC
8
DEFAULT_255_2_778
10
-36.7469236
20
6.5037323
40
40.4555173
50
352.5853519
51
352.5906191
0
ARC
8
DEFAULT_255_2_778
10
172.1289993
20
-20.6840333
40
170.1823848
50
172.5836103
51
172.5860959
0
ARC
8
DEFAULT_255_2_778
10
-35.2030374
20
6.2938829
40
38.8974599
50
352.5821488
51
352.5875243
0
ARC
8
DEFAULT_255_2_778
10
-34.6746904
20
6.223222
40
38.3644119
50
352.5795069
51
352.5849228
0
ARC
8
DEFAULT_255_2_778
10
-34.1514565
20
6.1532232
40
37.8365198
50
352.5768313
51
352.5822883
0
ARC
8
DEFAULT_255_2_778
10
31.6073932
20
-2.414182
40
28.4780845
50
172.5772684
51
172.584473
0
ARC
8
DEFAULT_255_2_778
10
31.2701849
20
-2.3747957
40
28.1386134
50
172.575382
51
172.5826277
0
ARC
8
DEFAULT_255_2_778
10
121.2543385
20
-14.1018831
40
118.8837094
50
172.5766818
51
172.580086
0
ARC
8
DEFAULT_255_2_778
10
-31.8337306
20
5.8343027
40
35.4970162
50
352.5753961
51
352.5810318
0
LINE
8
DEFAULT_255_2_778
10
3.3656701
20
1.2473277
11
3.3518711
21
1.1414695
0
ARC
8
DEFAULT_255_2_778
10
77.0540855
20
-8.4788981
40
74.3274369
50
172.5632144
51
172.6751407
0
ARC
8
DEFAULT_255_2_778
10
25.2943099
20
-1.8275562
40
22.1420491
50
172.6698397
51
172.9520868
0
ARC
8
DEFAULT_255_2_778
10
12.5732528
20
-0.2545578
40
9.324108
50
172.9536088
51
173.3708446
0
ARC
8
DEFAULT_255_2_778
10
6.8863959
20
0.4021342
40
3.5994647
50
173.3039234
51
174.4114859
0
ARC
8
DEFAULT_255_2_778
10
4.1928124
20
0.6624969
40
0.8933347
50
174.2072002
51
177.0669029
0
ARC
8
DEFAULT_255_2_778
10
3.5330031
20
0.6977496
40
0.2325905
50
177.4226507
51
179.8099201
0
ARC
8
DEFAULT_255_2_778
10
3.3887626
20
0.6979763
40
0.0883505
50
179.6466699
51
184.0228311
0
ARC
8
DEFAULT_255_2_778
10
3.3232965
20
0.6930518
40
0.0227025
50
183.216048
51
194.1535936
0
ARC
8
DEFAULT_255_2_778
10
3.3033612
20
0.6876037
40
0.0020805
50
182.841051
51
249.0979262
0
ARC
8
DEFAULT_255_2_778
10
3.2989243
20
0.7325693
40
0.0470605
50
274.5681769
51
320.3030442
0
ARC
8
DEFAULT_255_2_778
10
3.2061971
20
0.8229995
40
0.1764721
50
316.9398875
51
331.1353541
0
ARC
8
DEFAULT_255_2_778
10
2.9534755
20
0.9680873
40
0.4678636
50
330.5153056
51
337.562881
0
ARC
8
DEFAULT_255_2_778
10
2.4636114
20
1.1738611
40
0.9991871
50
337.3776355
51
341.6341061
0
ARC
8
DEFAULT_255_2_778
10
1.718197
20
1.4250601
40
1.7857852
50
341.5206685
51
344.0109802
0
ARC
8
DEFAULT_255_2_778
10
0.6168183
20
1.7407333
40
2.9315097
50
344.009358
51
346.1291016
0
ARC
8
DEFAULT_255_2_778
10
-0.9459993
20
2.1295014
40
4.5419552
50
346.0941716
51
347.5005261
0
ARC
8
DEFAULT_255_2_778
10
-2.9478616
20
2.5739438
40
6.5925605
50
347.4949304
51
348.6634554
0
ARC
8
DEFAULT_255_2_778
10
-5.2004828
20
3.0285086
40
8.8905869
50
348.6448004
51
349.3515486
0
ARC
8
DEFAULT_255_2_778
10
-8.0764644
20
3.5670021
40
11.8165469
50
349.3622674
51
350.2243069
0
ARC
8
DEFAULT_255_2_778
10
-12.2064762
20
4.2799894
40
16.0076501
50
350.2193171
51
350.9086274
0
ARC
8
DEFAULT_255_2_778
10
-17.3989625
20
5.1110096
40
21.2662153
50
350.9083066
51
351.5322639
0
ARC
8
DEFAULT_255_2_778
10
-23.8495535
20
6.0726519
40
27.7880922
50
351.529596
51
352.0475518
0
ARC
8
DEFAULT_255_2_778
10
-30.835439
20
7.0510627
40
34.8421605
50
352.0434471
51
352.4234605
0
ARC
8
DEFAULT_255_2_778
10
-39.227051
20
8.1653604
40
43.3074311
50
352.4259331
51
352.8453222
0
ARC
8
DEFAULT_255_2_778
10
-50.2249305
20
9.5463432
40
54.3916751
50
352.8448361
51
353.221711
0
ARC
8
DEFAULT_255_2_778
10
-65.2717644
20
11.3306293
40
69.5439315
50
353.2251125
51
353.6545742
0
ARC
8
DEFAULT_255_2_778
10
-85.4303965
20
13.5733879
40
89.8269394
50
353.6539109
51
354.0393744
0
ARC
8
DEFAULT_255_2_778
10
-110.5270656
20
16.1909198
40
115.059741
50
354.0407604
51
354.441488
0
ARC
8
DEFAULT_255_2_778
10
-130.9848383
20
18.195983
40
135.6155329
50
354.4355522
51
354.6208315
0
ARC
8
DEFAULT_255_2_778
10
-142.039652
20
19.2383182
40
146.7193778
50
354.6202861
51
354.7760244
0
ARC
8
DEFAULT_255_2_778
10
-148.5667239
20
19.8361628
40
153.273772
50
354.7756222
51
354.9017992
0
ARC
8
DEFAULT_255_2_778
10
-150.7088559
20
20.0277822
40
155.4244574
50
354.901613
51
354.9897857
0
ARC
8
DEFAULT_255_2_778
10
-148.8943862
20
19.8688184
40
153.6030376
50
354.9897457
51
355.0839143
0
ARC
8
DEFAULT_255_2_778
10
-143.1561673
20
19.3753195
40
147.8436367
50
355.08389
51
355.1595675
0
ARC
8
DEFAULT_255_2_778
10
-134.5204537
20
18.644047
40
139.1770162
50
355.1595568
51
355.2336869
0
LINE
8
DEFAULT_255_2_778
10
4.0410725
20
6.9279583
11
4.0410725
21
7.3142583
0
LINE
8
DEFAULT_255_2_778
10
3.9571725
20
7.3478583
11
3.6886725
21
7.0964583
0
LINE
8
DEFAULT_255_2_778
10
4.1752725
20
7.0795583
11
4.0410725
21
6.9279583
0
ARC
8
DEFAULT_255_2_778
10
86.7109843
20
18.3152003
40
80.6404104
50
188.3588955
51
188.6848998
0
ARC
8
DEFAULT_255_2_778
10
69.7286722
20
15.673726
40
63.4539762
50
188.6425946
51
190.0824466
0
ARC
8
DEFAULT_255_2_778
10
51.1352154
20
12.3910645
40
44.5729872
50
190.1121383
51
191.1803283
0
ARC
8
DEFAULT_255_2_778
10
40.1816572
20
10.2255376
40
33.4074177
50
191.1793661
51
192.3669408
0
ARC
8
DEFAULT_255_2_778
10
31.848461
20
8.3981002
40
24.8761995
50
192.3662538
51
193.6811102
0
ARC
8
DEFAULT_255_2_778
10
25.6290197
20
6.8840349
40
18.475118
50
193.6808054
51
195.1295488
0
ARC
8
DEFAULT_255_2_778
10
20.5557993
20
5.5068843
40
13.2183062
50
195.1066048
51
197.1479377
0
ARC
8
DEFAULT_255_2_778
10
16.3253781
20
4.1968438
40
8.7896903
50
197.1185533
51
199.9001069
0
ARC
8
DEFAULT_255_2_778
10
13.2176087
20
3.0680762
40
5.4832834
50
199.8631222
51
203.6025065
0
ARC
8
DEFAULT_255_2_778
10
11.1412496
20
2.1570797
40
3.2158703
50
203.5412948
51
208.7379093
0
ARC
8
DEFAULT_255_2_778
10
9.8352676
20
1.4352098
40
1.7236781
50
208.5705455
51
216.7675011
0
ARC
8
DEFAULT_255_2_778
10
9.1145406
20
0.8902823
40
0.8201637
50
216.409786
51
230.5223306
0
ARC
8
DEFAULT_255_2_778
10
8.860875
20
0.5867673
40
0.4246234
50
230.904131
51
246.1714572
0
ARC
8
DEFAULT_255_2_778
10
8.7102879
20
0.263976
40
0.0689024
50
252.2889642
51
269.8754389
0
ARC
8
DEFAULT_255_2_778
10
8.7031155
20
0.2815006
40
0.0867117
50
274.6453606
51
0.2738114
0
ARC
8
DEFAULT_255_2_778
10
8.7268711
20
0.2820833
40
0.0629554
50
359.8468028
51
0.0510655
0
ARC
8
DEFAULT_255_2_778
10
30.9624072
20
4.2347644
40
22.5221352
50
189.8756453
51
190.1077311
0
ARC
8
DEFAULT_255_2_778
10
34.9725303
20
4.9326678
40
26.5925353
50
189.5699886
51
189.875181
0
ARC
8
DEFAULT_255_2_778
10
38.0704041
20
5.4554941
40
29.7342179
50
189.2276765
51
189.5709941
0
ARC
8
DEFAULT_255_2_778
10
39.607721
20
5.7060343
40
31.2918163
50
188.9546376
51
189.2290987
0
ARC
8
DEFAULT_255_2_778
10
40.1365786
20
5.7895695
40
31.8272306
50
188.5106711
51
188.9549961
0
ARC
8
DEFAULT_255_2_778
10
39.5770141
20
5.7064619
40
31.2615284
50
188.0182827
51
188.5118065
0
ARC
8
DEFAULT_255_2_778
10
37.9509087
20
5.4782126
40
29.6194821
50
187.4265971
51
188.0198422
0
ARC
8
DEFAULT_255_2_778
10
35.0049582
20
5.097095
40
26.6489828
50
186.5194883
51
187.4327482
0
ARC
8
DEFAULT_255_2_778
10
30.2612766
20
4.5618746
40
21.8752088
50
185.0563403
51
186.5374139
0
ARC
8
DEFAULT_255_2_778
10
25.1835462
20
4.1119703
40
16.7775858
50
183.5214689
51
185.0542015
0
ARC
8
DEFAULT_255_2_778
10
24.7173632
20
4.0727613
40
16.3098782
50
183.4722938
51
183.4845802
0
ARC
8
DEFAULT_255_2_778
10
25.380655
20
4.1579943
40
16.9771739
50
182.5566478
51
183.623838
0
ARC
8
DEFAULT_255_2_778
10
36.8952357
20
4.6823532
40
28.503685
50
181.8880623
51
182.5771604
0
ARC
8
DEFAULT_255_2_778
10
50.6769959
20
5.1448768
40
42.2932026
50
181.4496063
51
181.8991788
0
ARC
8
DEFAULT_255_2_778
10
69.3026931
20
5.6130049
40
60.9247815
50
180.9999364
51
181.4465884
0
ARC
8
DEFAULT_255_2_778
10
96.8276295
20
6.0967778
40
88.4539688
50
180.6413577
51
181.0021085
0
ARC
8
DEFAULT_255_2_778
10
138.2678093
20
6.5556396
40
129.8966888
50
180.2940971
51
180.6391388
0
ARC
8
DEFAULT_255_2_778
10
208.2077349
20
6.9099188
40
199.8375117
50
179.9891277
51
180.292743
0
ARC
8
DEFAULT_255_2_778
10
7.9082117
20
7.309473
40
0.059038
50
44.0745686
51
75.0653439
0
ARC
8
DEFAULT_255_2_778
10
7.9115623
20
7.3196769
40
0.048319
50
75.7859562
51
89.8945839
0
ARC
8
DEFAULT_255_2_778
10
7.9127269
20
7.3217565
40
0.0462519
50
91.3326963
51
185.9781168
0
LINE
8
DEFAULT_255_2_778
10
6.7261266
20
8.0691394
11
6.9272266
21
6.5922394
0
LINE
8
DEFAULT_255_2_778
10
8.3702266
20
6.9478394
11
7.9506266
21
7.3505394
0
LINE
8
DEFAULT_255_2_778
10
7.8667266
20
7.3169394
11
7.8667266
21
6.9306394
0
LINE
8
DEFAULT_255_2_778
10
7.8667266
20
6.9306394
11
6.7261266
21
8.0691394
0
ARC
8
DEFAULT_255_2_778
10
10.1751687
20
11.1464398
40
1.6351515
50
82.6433637
51
85.3487407
0
ARC
8
DEFAULT_255_2_778
10
10.0097033
20
9.2023899
40
3.5862241
50
85.2324905
51
86.5781887
0
ARC
8
DEFAULT_255_2_778
10
9.8112032
20
5.8574693
40
6.9370291
50
86.5905782
51
87.7912948
0
ARC
8
DEFAULT_255_2_778
10
9.599962
20
0.540111
40
12.2585797
50
87.7625254
51
88.4985201
0
ARC
8
DEFAULT_255_2_778
10
9.4251043
20
-6.0760303
40
18.8770313
50
88.4941603
51
89.1001666
0
ARC
8
DEFAULT_255_2_778
10
9.3356525
20
-11.4223101
40
24.2240571
50
89.0872036
51
89.4050751
0
ARC
8
DEFAULT_255_2_778
10
9.3185364
20
-12.9510071
40
25.7528494
50
89.4023109
51
89.5912331
0
ARC
8
DEFAULT_255_2_778
10
9.3318583
20
-10.9623064
40
23.7641043
50
89.5891444
51
89.7651833
0
ARC
8
DEFAULT_255_2_778
10
9.356212
20
-4.9182145
40
17.7199635
50
89.7638349
51
89.8872193
0
ARC
8
DEFAULT_255_2_778
10
9.3747831
20
5.0195441
40
7.7821877
50
89.8799274
51
89.9796895
0
ARC
8
DEFAULT_255_2_778
10
7.5013956
20
14.3381968
40
3.1091981
50
334.9153541
51
338.1993813
0
ARC
8
DEFAULT_255_2_778
10
7.8634118
20
14.1935073
40
2.7193382
50
338.1972065
51
341.7642592
0
ARC
8
DEFAULT_255_2_778
10
8.1894824
20
14.0864053
40
2.3761287
50
341.7567013
51
345.8994897
0
ARC
8
DEFAULT_255_2_778
10
8.4845471
20
14.0125634
40
2.0719648
50
345.8920877
51
350.6766985
0
ARC
8
DEFAULT_255_2_778
10
8.7397126
20
13.9708084
40
1.8134054
50
350.6724407
51
356.0729022
0
ARC
8
DEFAULT_255_2_778
10
8.9156746
20
13.9578083
40
1.6369664
50
356.1050502
51
359.9754992
0
ARC
8
DEFAULT_255_2_778
10
9.1077902
20
13.9610474
40
1.4448559
50
359.8437948
51
11.0355403
0
ARC
8
DEFAULT_255_2_778
10
9.2729421
20
13.9927088
40
1.2766976
50
11.059641
51
25.4561616
0
ARC
8
DEFAULT_255_2_778
10
9.291113
20
13.9980664
40
1.2579916
50
25.5915595
51
44.1423921
0
ARC
8
DEFAULT_255_2_778
10
9.2075838
20
13.9154508
40
1.3754706
50
44.1887334
51
62.2241337
0
ARC
8
DEFAULT_255_2_778
10
9.1899066
20
13.8878775
40
1.4081073
50
62.1105742
51
68.658392
0
ARC
8
DEFAULT_255_2_778
10
9.2148775
20
13.9539964
40
1.3374351
50
68.6239508
51
76.0654993
0
ARC
8
DEFAULT_255_2_778
10
9.2518375
20
14.1052259
40
1.1817559
50
76.0390444
51
83.2386013
0
ARC
8
DEFAULT_255_2_778
10
9.2746668
20
14.2978288
40
0.9878046
50
83.2382801
51
89.8854463
0
ARC
8
DEFAULT_255_2_778
10
9.2849841
20
13.7702044
40
1.5154499
50
90.315408
51
93.3432412
0
ARC
8
DEFAULT_255_2_778
10
9.4149198
20
11.4284299
40
3.8608224
50
93.2415584
51
94.9140708
0
ARC
8
DEFAULT_255_2_778
10
9.9152174
20
5.6554266
40
9.655463
50
94.9374151
51
96.2268946
0
ARC
8
DEFAULT_255_2_778
10
10.9843817
20
-4.413531
40
19.7810049
50
96.1420757
51
96.4120887
0
ARC
8
DEFAULT_255_2_778
10
262.6335785
20
-2245.3041084
40
2274.757257
50
96.4074402
51
96.4075511
0
ARC
8
DEFAULT_255_2_778
10
11.4068794
20
-8.2090344
40
23.5999493
50
96.4130063
51
96.4235873
0
ARC
8
DEFAULT_255_2_778
10
11.3527057
20
-7.7360351
40
23.1238588
50
96.4213191
51
96.4320153
0
ARC
8
DEFAULT_255_2_778
10
11.0453302
20
-5.0193973
40
20.3898874
50
96.4288921
51
96.4409067
0
ARC
8
DEFAULT_255_2_778
10
10.9972138
20
-4.6036969
40
19.9714133
50
96.4375211
51
96.4496694
0
ARC
8
DEFAULT_255_2_778
10
10.9498459
20
-4.1967243
40
19.5616955
50
96.4457073
51
96.45799
0
ARC
8
DEFAULT_255_2_778
10
10.9032226
20
-3.798374
40
19.160629
50
96.4534352
51
96.4658529
0
ARC
8
DEFAULT_255_2_778
10
10.664892
20
-1.7082571
40
17.0569683
50
96.4610012
51
96.4748137
0
ARC
8
DEFAULT_255_2_778
10
10.6231143
20
-1.3550787
40
16.7013315
50
96.4690349
51
96.4830026
0
ARC
8
DEFAULT_255_2_778
10
10.5820121
20
-1.0095862
40
16.3534077
50
96.4765897
51
96.4907132
0
ARC
8
DEFAULT_255_2_778
10
10.5414003
20
-0.6684878
40
16.0099049
50
96.4842965
51
96.4985793
0
ARC
8
DEFAULT_255_2_778
10
17.5276017
20
-62.04937
40
77.7870828
50
96.4943895
51
96.4972997
0
ARC
8
DEFAULT_255_2_778
10
17.3082858
20
-60.0713468
40
75.7969472
50
96.5017737
51
96.5047303
0
ARC
8
DEFAULT_255_2_778
10
17.0924669
20
-58.1264233
40
73.8400952
50
96.5093096
51
96.5123138
0
ARC
8
DEFAULT_255_2_778
10
14.3699919
20
-34.2542007
40
49.8131339
50
96.5153061
51
96.519714
0
ARC
8
DEFAULT_255_2_778
10
10.347054
20
0.9338898
40
14.3958257
50
96.5137969
51
96.5288936
0
ARC
8
DEFAULT_255_2_778
10
-173.7773188
20
1609.9664404
40
1605.1372964
50
276.5278513
51
276.5280522
0
ARC
8
DEFAULT_255_2_778
10
13.9253506
20
-30.3597222
40
45.8933551
50
96.5320163
51
96.5366307
0
ARC
8
DEFAULT_255_2_778
10
13.8025052
20
-29.2818329
40
44.8084883
50
96.5374724
51
96.5421494
0
ARC
8
DEFAULT_255_2_778
10
13.6814543
20
-28.2202963
40
43.7400723
50
96.5430436
51
96.5477849
0
ARC
8
DEFAULT_255_2_778
10
13.5641805
20
-27.1971372
40
42.7102144
50
96.5480047
51
96.5528095
0
ARC
8
DEFAULT_255_2_778
10
5.7877464
20
40.4874035
40
25.4195879
50
276.5483002
51
276.5562883
0
ARC
8
DEFAULT_255_2_778
10
13.3489244
20
-25.3654691
40
40.8659478
50
96.5510178
51
96.5559342
0
ARC
8
DEFAULT_255_2_778
10
13.2403863
20
-24.428445
40
39.9226587
50
96.5547209
51
96.5597001
0
ARC
8
DEFAULT_255_2_778
10
13.1334339
20
-23.5054798
40
38.9935176
50
96.5585038
51
96.5635473
0
ARC
8
DEFAULT_255_2_778
10
13.0299229
20
-22.6171828
40
38.0992109
50
96.5615988
51
96.5667055
0
ARC
8
DEFAULT_255_2_778
10
-147.7511769
20
1370.3110546
40
1364.0775405
50
276.5805466
51
276.5848159
0
ARC
8
DEFAULT_255_2_778
10
6.8129932
20
30.4081741
40
15.2892667
50
276.2501904
51
276.6061533
0
ARC
8
DEFAULT_255_2_778
10
8.1212458
20
18.4368593
40
3.2466812
50
275.2820776
51
276.30036
0
ARC
8
DEFAULT_255_2_778
10
8.3749087
20
15.6462794
40
0.4446204
50
271.5960485
51
275.8378252
0
LINE
8
DEFAULT_255_2_778
10
8.3872926
20
15.2018315
11
8.3871418
21
15.2018313
0
ARC
8
DEFAULT_255_2_778
10
8.3187597
20
15.6658372
40
0.4690176
50
278.3835174
51
280.2056695
0
ARC
8
DEFAULT_255_2_778
10
8.2954563
20
15.8105516
40
0.6155773
50
279.9537937
51
285.9441728
0
ARC
8
DEFAULT_255_2_778
10
8.3422403
20
15.6378185
40
0.4366449
50
286.2677105
51
286.5873063
0
ARC
8
DEFAULT_255_2_778
10
8.4198683
20
15.4074963
40
0.1939391
50
284.0321415
51
305.6393865
0
ARC
8
DEFAULT_255_2_778
10
8.4961531
20
15.293337
40
0.0568919
50
310.1981924
51
317.2673032
0
ARC
8
DEFAULT_255_2_778
10
8.2983724
20
15.2489686
40
0.2396387
50
1.3779502
51
18.3282379
0
ARC
8
DEFAULT_255_2_778
10
8.0410146
20
15.1687038
40
0.509203
50
17.795357
51
28.0209251
0
ARC
8
DEFAULT_255_2_778
10
7.7254324
20
15.004236
40
0.8650629
50
27.8175633
51
35.1437058
0
ARC
8
DEFAULT_255_2_778
10
7.4013113
20
14.7780725
40
1.2602876
50
35.0692756
51
41.2313795
0
ARC
8
DEFAULT_255_2_778
10
7.1037043
20
14.5188871
40
1.6549342
50
41.1887328
51
46.6915146
0
ARC
8
DEFAULT_255_2_778
10
6.8681101
20
14.2710369
40
1.9968883
50
46.6505374
51
51.1725589
0
ARC
8
DEFAULT_255_2_778
10
6.6552481
20
14.0046487
40
2.3378747
50
51.2017656
51
57.2559812
0
ARC
8
DEFAULT_255_2_778
10
6.4641672
20
13.7088833
40
2.6899949
50
57.2401832
51
63.0663159
0
ARC
8
DEFAULT_255_2_778
10
6.31359
20
13.4129997
40
3.0219898
50
63.0621225
51
68.9162032
0
ARC
8
DEFAULT_255_2_778
10
6.1929884
20
13.1014995
40
3.3560213
50
68.9081602
51
74.3342429
0
ARC
8
DEFAULT_255_2_778
10
6.0985846
20
12.7660272
40
3.7045232
50
74.3294315
51
79.3555284
0
ARC
8
DEFAULT_255_2_778
10
6.0248629
20
12.3720944
40
4.1052948
50
79.3598806
51
84.4477907
0
ARC
8
DEFAULT_255_2_778
10
5.9785079
20
11.8969964
40
4.5826489
50
84.4456589
51
89.1837457
0
ARC
8
DEFAULT_255_2_778
10
5.9702626
20
11.5751636
40
4.9045677
50
89.140993
51
90.0014114
0
ARC
8
DEFAULT_255_2_778
10
5.9666741
20
11.7933541
40
4.6863785
50
89.9576048
51
94.5345764
0
ARC
8
DEFAULT_255_2_778
10
5.9278644
20
12.2791112
40
4.1990737
50
94.5307012
51
99.5490093
0
ARC
8
DEFAULT_255_2_778
10
5.857049
20
12.6992804
40
3.7729785
50
99.5470081
51
104.8913144
0
ARC
8
DEFAULT_255_2_778
10
5.761716
20
13.0577069
40
3.4020903
50
104.8909679
51
110.3926152
0
ARC
8
DEFAULT_255_2_778
10
5.6448504
20
13.3716097
40
3.0671388
50
110.3895998
51
116.0573038
0
ARC
8
DEFAULT_255_2_778
10
5.5000203
20
13.6668719
40
2.7382689
50
116.0487436
51
121.9548907
0
ARC
8
DEFAULT_255_2_778
10
5.31497
20
13.9626327
40
2.3893881
50
121.9434556
51
127.928939
0
ARC
8
DEFAULT_255_2_778
10
5.1837008
20
14.1358388
40
2.1720807
50
128.0061031
51
128.8813969
0
ARC
8
DEFAULT_255_2_778
10
5.0594649
20
14.2860921
40
1.9771337
50
128.8119769
51
133.9308823
0
ARC
8
DEFAULT_255_2_778
10
4.8036143
20
14.5504435
40
1.6092474
50
133.9004971
51
139.5346612
0
ARC
8
DEFAULT_255_2_778
10
4.5051755
20
14.8041959
40
1.2175136
50
139.5050735
51
145.5228858
0
ARC
8
DEFAULT_255_2_778
10
4.1828069
20
15.0237235
40
0.8275002
50
145.4178282
51
153.0873147
0
ARC
8
DEFAULT_255_2_778
10
3.8695508
20
15.1808939
40
0.4770331
50
152.8901731
51
163.413322
0
ARC
8
DEFAULT_255_2_778
10
3.6324891
20
15.2500615
40
0.2300948
50
163.0688265
51
178.8370969
0
ARC
8
DEFAULT_255_2_778
10
3.5138848
20
15.3884309
40
0.174055
50
230.1876587
51
253.1837434
0
ARC
8
DEFAULT_255_2_778
10
3.6233787
20
15.6713034
40
0.4770616
50
250.4232661
51
250.4952914
0
ARC
8
DEFAULT_255_2_778
10
3.6464109
20
15.7469121
40
0.5560329
50
250.8594613
51
257.1944653
0
ARC
8
DEFAULT_255_2_778
10
3.6190606
20
15.6177788
40
0.4240538
50
256.9308011
51
258.7789231
0
ARC
8
DEFAULT_255_2_778
10
3.5475467
20
15.6178808
40
0.416195
50
264.0833425
51
268.4848153
0
ARC
8
DEFAULT_255_2_778
10
3.8015372
20
18.364233
40
3.1742452
50
263.5351381
51
264.6331833
0
ARC
8
DEFAULT_255_2_778
10
5.2591502
20
31.395429
40
16.2867061
50
263.2698791
51
263.6015869
0
ARC
8
DEFAULT_255_2_778
10
-6.6232033
20
-69.4086377
40
85.2152654
50
83.2786471
51
83.375936
0
ARC
8
DEFAULT_255_2_778
10
0.3034511
20
-9.8701718
40
25.2752375
50
83.4040309
51
83.5228377
0
ARC
8
DEFAULT_255_2_778
10
1.2459197
20
-1.5389717
40
16.8908994
50
83.5114184
51
83.8799097
0
ARC
8
DEFAULT_255_2_778
10
2.1475785
20
6.9959208
40
8.308533
50
83.787446
51
85.2987592
0
ARC
8
DEFAULT_255_2_778
10
2.5535422
20
11.9169837
40
3.3707539
50
85.3202975
51
87.2953298
0
ARC
8
DEFAULT_255_2_778
10
2.6422339
20
13.790084
40
1.495555
50
87.3031967
51
89.8158084
0
ARC
8
DEFAULT_255_2_778
10
2.6496253
20
14.2808437
40
1.004791
50
90.1473189
51
97.5559694
0
ARC
8
DEFAULT_255_2_778
10
2.6767676
20
14.0715082
40
1.215878
50
97.5267609
51
104.6835479
0
ARC
8
DEFAULT_255_2_778
10
2.7145707
20
13.924096
40
1.3680583
50
104.6501439
51
111.6386044
0
ARC
8
DEFAULT_255_2_778
10
2.7380141
20
13.8628368
40
1.4336455
50
111.6067081
51
126.8590598
0
ARC
8
DEFAULT_255_2_778
10
2.66796
20
13.9514816
40
1.3207009
50
126.7342164
51
145.8668373
0
ARC
8
DEFAULT_255_2_778
10
2.6116395
20
13.9940343
40
1.2502104
50
146.0327357
51
162.4600804
0
ARC
8
DEFAULT_255_2_778
10
2.7052551
20
13.9662899
40
1.3478361
50
162.5348312
51
175.3215513
0
ARC
8
DEFAULT_255_2_778
10
2.8634557
20
13.9502463
40
1.5068214
50
175.2041805
51
180.0321447
0
ARC
8
DEFAULT_255_2_778
10
3.0227361
20
13.9511835
40
1.6661024
50
180.0612992
51
186.0918353
0
ARC
8
DEFAULT_255_2_778
10
3.2515228
20
13.9754072
40
1.8961678
50
186.0860206
51
191.3150487
0
ARC
8
DEFAULT_255_2_778
10
3.5221207
20
14.0293114
40
2.1720822
50
191.3088266
51
195.874766
0
ARC
8
DEFAULT_255_2_778
10
3.8296204
20
14.1164161
40
2.4916807
50
195.867192
51
199.8147733
0
ARC
8
DEFAULT_255_2_778
10
4.1640135
20
14.2364766
40
2.8469736
50
199.8067091
51
203.1712376
0
ARC
8
DEFAULT_255_2_778
10
4.4547634
20
14.3595103
40
3.1626813
50
203.1477702
51
205.0574247
0
ARC
8
DEFAULT_255_2_778
10
2.5324615
20
5.0361362
40
7.7655957
50
90.0215425
51
90.1116687
0
ARC
8
DEFAULT_255_2_778
10
2.5481934
20
-3.8399752
40
16.641721
50
90.1062719
51
90.2064444
0
ARC
8
DEFAULT_255_2_778
10
2.571574
20
-10.276132
40
23.0779203
50
90.2069165
51
90.3876096
0
ARC
8
DEFAULT_255_2_778
10
2.5883376
20
-12.9040437
40
25.7058852
50
90.385348
51
90.5822658
0
ARC
8
DEFAULT_255_2_778
10
2.5696472
20
-11.2431855
40
24.0449229
50
90.5779498
51
90.9628154
0
ARC
8
DEFAULT_255_2_778
10
2.4744137
20
-5.7319007
40
18.5328159
50
90.9547428
51
91.5110849
0
ARC
8
DEFAULT_255_2_778
10
2.2597269
20
2.0497696
40
10.7481945
50
91.4609399
51
92.6936997
0
ARC
8
DEFAULT_255_2_778
10
1.9866883
20
7.8691565
40
4.9224059
50
92.7024823
51
94.1940676
0
ARC
8
DEFAULT_255_2_778
10
1.7863898
20
10.5867931
40
2.1973985
50
94.167786
51
96.298299
0
ARC
8
DEFAULT_255_2_778
10
1.6765999
20
11.6075294
40
1.1707821
50
96.4378953
51
97.5612328
0
ARC
8
DEFAULT_255_2_778
10
1.6609142
20
11.9162725
40
0.8630239
50
99.2263106
51
105.9894731
0
ARC
8
DEFAULT_255_2_778
10
1.7616868
20
11.5588424
40
1.2343858
50
105.9159485
51
112.0823973
0
ARC
8
DEFAULT_255_2_778
10
1.8558422
20
11.3231379
40
1.4881976
50
112.0299552
51
118.7963037
0
ARC
8
DEFAULT_255_2_778
10
1.8795998
20
11.2774278
40
1.5396993
50
118.7516934
51
119.8785097
0
ARC
8
DEFAULT_255_2_778
10
1.8009428
20
11.3971304
40
1.3967495
50
119.5269252
51
138.1776957
0
ARC
8
DEFAULT_255_2_778
10
1.4669063
20
11.6868742
40
0.9546367
50
137.7682924
51
169.423567
0
ARC
8
DEFAULT_255_2_778
10
1.3960957
20
11.7116537
40
0.8805541
50
170.1628529
51
180.0470039
0
ARC
8
DEFAULT_255_2_778
10
2.1276867
20
11.7171428
40
1.6121569
50
180.2207547
51
182.950672
0
ARC
8
DEFAULT_255_2_778
10
3.9543503
20
11.8071737
40
3.4410357
50
182.8821018
51
184.5676907
0
ARC
8
DEFAULT_255_2_778
10
7.1766963
20
12.0638155
40
6.6735855
50
184.5609027
51
185.8808216
0
ARC
8
DEFAULT_255_2_778
10
12.7572138
20
12.6365063
40
12.2834115
50
185.871023
51
186.8815689
0
ARC
8
DEFAULT_255_2_778
10
19.100193
20
13.392268
40
18.6712514
50
186.8518563
51
187.3555561
0
ARC
8
DEFAULT_255_2_778
10
24.399871
20
14.0754345
40
24.0147803
50
187.3532805
51
187.798813
0
ARC
8
DEFAULT_255_2_778
10
27.3921221
20
14.4826168
40
27.0346079
50
187.7932655
51
188.0481699
0
ARC
8
DEFAULT_255_2_778
10
26.9461991
20
14.4191226
40
26.5841873
50
188.0472279
51
188.2068955
0
ARC
8
DEFAULT_255_2_778
10
23.6358991
20
13.9409485
40
23.2395296
50
188.2050753
51
188.3592035
0
ARC
8
DEFAULT_255_2_778
10
17.0048106
20
12.9663614
40
16.537205
50
188.3584592
51
188.469895
0
ARC
8
DEFAULT_255_2_778
10
7.7710519
20
11.5906494
40
7.201527
50
188.464566
51
188.5544214
0
ARC
8
DEFAULT_255_2_778
10
4.0038699
20
11.6122636
40
7.3505632
50
351.4499519
51
351.5292742
0
ARC
8
DEFAULT_255_2_778
10
-4.1329608
20
12.8248866
40
15.5772557
50
351.5263077
51
351.6163232
0
ARC
8
DEFAULT_255_2_778
10
-10.5338731
20
13.7678252
40
22.0472487
50
351.6173583
51
351.7514503
0
ARC
8
DEFAULT_255_2_778
10
-14.5440985
20
14.3495034
40
26.0994405
50
351.7507404
51
351.9204035
0
ARC
8
DEFAULT_255_2_778
10
-15.5644131
20
14.4950297
40
27.1300806
50
351.9189718
51
352.189854
0
ARC
8
DEFAULT_255_2_778
10
-12.6362345
20
14.0959453
40
24.1748325
50
352.1838559
51
352.6469257
0
ARC
8
DEFAULT_255_2_778
10
-7.2050507
20
13.3955629
40
18.6986757
50
352.6454595
51
353.1476609
0
ARC
8
DEFAULT_255_2_778
10
-0.5043929
20
12.5987421
40
11.9508145
50
353.1077099
51
354.2405483
0
ARC
8
DEFAULT_255_2_778
10
4.9847083
20
12.0432657
40
6.4336795
50
354.2568366
51
355.4523767
0
ARC
8
DEFAULT_255_2_778
10
8.0650703
20
11.8005862
40
3.3437746
50
355.4126349
51
357.2759425
0
ARC
8
DEFAULT_255_2_778
10
9.8539745
20
11.716079
40
1.5528757
50
357.2535275
51
359.8100677
0
ARC
8
DEFAULT_255_2_778
10
10.4935333
20
11.6875747
40
0.9136071
50
1.4649402
51
24.7908619
0
ARC
8
DEFAULT_255_2_778
10
10.2501946
20
11.5508118
40
1.1920719
50
25.8543761
51
55.3377252
0
ARC
8
DEFAULT_255_2_778
10
10.0564982
20
11.315688
40
1.495847
50
54.357305
51
60.8519529
0
ARC
8
DEFAULT_255_2_778
10
10.075276
20
11.3522833
40
1.4547405
50
60.7958482
51
67.8295249
0
ARC
8
DEFAULT_255_2_778
10
10.160891
20
11.5647366
40
1.2256871
50
67.788056
51
74.0688299
0
ARC
8
DEFAULT_255_2_778
10
10.2515522
20
11.8867735
40
0.8911349
50
73.9907486
51
81.0873042
0
ARC
8
DEFAULT_255_2_778
10
10.2842075
20
12.0744388
40
0.7006836
50
81.3478455
51
81.8994201
0
LINE
8
DEFAULT_255_2_778
10
9.3775418
20
12.8017313
11
10.3173418
21
13.0200313
0
LINE
8
DEFAULT_255_2_778
10
1.5897418
20
13.0200313
11
2.5295418
21
12.8017313
0
LINE
8
DEFAULT_255_2_778
10
0.6496418
20
10.5194313
11
11.2727418
21
10.5194313
0
LINE
8
DEFAULT_255_2_778
10
10.3829418
20
12.7681313
11
10.3845418
21
12.7681313
0
ARC
8
DEFAULT_255_2_778
10
9.5262676
20
14.1117315
40
0.7321229
50
53.1682286
51
77.2083758
0
ARC
8
DEFAULT_255_2_778
10
9.3611073
20
13.4524247
40
1.411715
50
76.5960511
51
87.833979
0
ARC
8
DEFAULT_255_2_778
10
9.3124057
20
12.6867471
40
2.1787756
50
87.3151836
51
90.0487623
0
ARC
8
DEFAULT_255_2_778
10
9.3142053
20
13.8578275
40
1.0077011
50
90.2077532
51
91.2640406
0
ARC
8
DEFAULT_255_2_778
10
9.3248479
20
13.2763483
40
1.5892751
50
91.1851826
51
93.6914696
0
ARC
8
DEFAULT_255_2_778
10
9.299479
20
13.6586292
40
1.2061541
50
93.6580479
51
96.210537
0
ARC
8
DEFAULT_255_2_778
10
9.2429116
20
14.1597039
40
0.7019035
50
96.0449889
51
100.9526625
0
ARC
8
DEFAULT_255_2_778
10
9.3532846
20
12.8370869
40
2.0264461
50
96.90804
51
102.5822636
0
ARC
8
DEFAULT_255_2_778
10
9.3557049
20
12.8374761
40
2.0265951
50
102.6514438
51
108.8636538
0
ARC
8
DEFAULT_255_2_778
10
9.6405188
20
12.0357225
40
2.8773905
50
109.0686734
51
114.0572928
0
ARC
8
DEFAULT_255_2_778
10
11.3191334
20
8.1899075
40
7.0735248
50
113.7742847
51
114.4200053
0
ARC
8
DEFAULT_255_2_778
10
-6.8368975
20
48.0449536
40
36.7222141
50
294.305827
51
294.5055271
0
ARC
8
DEFAULT_255_2_778
10
7.3283815
20
16.5875848
40
2.2229846
50
285.0733385
51
295.2952428
0
ARC
8
DEFAULT_255_2_778
10
7.5455321
20
15.8680476
40
1.4719056
50
275.4292615
51
284.1951344
0
ARC
8
DEFAULT_255_2_778
10
7.5338123
20
15.9991589
40
1.6035379
50
269.9370842
51
275.4028886
0
ARC
8
DEFAULT_255_2_778
10
7.5297218
20
14.5627743
40
0.1671686
50
200.7863252
51
270.7984971
0
ARC
8
DEFAULT_255_2_778
10
7.7953611
20
14.6880232
40
0.4605325
50
186.1573735
51
203.6272436
0
ARC
8
DEFAULT_255_2_778
10
8.2938673
20
14.7559287
40
0.9635486
50
179.6954817
51
186.9925148
0
ARC
8
DEFAULT_255_2_778
10
8.6487311
20
14.7608112
40
1.3183989
50
178.7391343
51
179.9896327
0
ARC
8
DEFAULT_255_2_778
10
9.0948874
20
14.7444939
40
1.7648182
50
173.2352945
51
178.5282384
0
ARC
8
DEFAULT_255_2_778
10
9.6243988
20
14.6874031
40
2.2973752
50
171.205487
51
173.3769279
0
ARC
8
DEFAULT_255_2_778
10
9.768148
20
14.6658849
40
2.4427243
50
170.9559982
51
171.2222052
0
ARC
8
DEFAULT_255_2_778
10
9.7550269
20
14.6679617
40
2.4294399
50
169.6469915
51
170.955726
0
ARC
8
DEFAULT_255_2_778
10
9.6103341
20
14.6945306
40
2.282328
50
168.8050426
51
169.6503368
0
ARC
8
DEFAULT_255_2_778
10
9.2641366
20
14.7633901
40
1.9293489
50
167.9806018
51
168.8150113
0
ARC
8
DEFAULT_255_2_778
10
8.6815443
20
14.8875352
40
1.3336764
50
167.3698352
51
167.98502
0
ARC
8
DEFAULT_255_2_778
10
7.9389319
20
15.0542102
40
0.5725892
50
166.8965429
51
167.3962792
0
ARC
8
DEFAULT_255_2_778
10
7.4610758
20
19.2864456
40
4.1032002
50
268.885287
51
268.9593823
0
ARC
8
DEFAULT_255_2_778
10
7.5514755
20
24.2078169
40
9.0254018
50
268.9529914
51
269.0275621
0
ARC
8
DEFAULT_255_2_778
10
7.621005
20
28.3131471
40
13.1313207
50
269.0282336
51
269.1352901
0
ARC
8
DEFAULT_255_2_778
10
7.664456
20
31.18151
40
16.0000128
50
269.1347233
51
269.2506701
0
ARC
8
DEFAULT_255_2_778
10
7.6723565
20
31.757601
40
16.5761578
50
269.2494058
51
269.2926017
0
ARC
8
DEFAULT_255_2_778
10
7.6841557
20
32.7045639
40
17.5231941
50
269.2922518
51
269.4343736
0
ARC
8
DEFAULT_255_2_778
10
7.684386
20
32.7004087
40
17.5190413
50
269.4334862
51
269.6504891
0
ARC
8
DEFAULT_255_2_778
10
7.6755509
20
31.1000426
40
15.9186513
50
269.6471513
51
269.9949891
0
ARC
8
DEFAULT_255_2_778
10
7.6772658
20
27.7329203
40
12.5515293
50
269.9858166
51
270.5630172
0
ARC
8
DEFAULT_255_2_778
10
7.7453395
20
22.0138475
40
6.8320741
50
270.4634481
51
272.2059098
0
ARC
8
DEFAULT_255_2_778
10
7.9095714
20
17.7414556
40
2.5565269
50
272.2134831
51
274.5227445
0
ARC
8
DEFAULT_255_2_778
10
8.0517065
20
15.9905085
40
0.7998323
50
274.263293
51
279.1461442
0
ARC
8
DEFAULT_255_2_778
10
8.1623066
20
15.3286005
40
0.128821
50
277.3750072
51
293.4460546
0
ARC
8
DEFAULT_255_2_778
10
8.2106011
20
15.2194764
40
0.0095325
50
288.0996709
51
348.7820962
0
ARC
8
DEFAULT_255_2_778
10
8.0631279
20
15.211699
40
0.1569353
50
2.1629157
51
25.7856633
0
ARC
8
DEFAULT_255_2_778
10
7.8507333
20
15.1167333
40
0.3895525
50
24.7732323
51
36.2875488
0
ARC
8
DEFAULT_255_2_778
10
7.5491215
20
14.9002277
40
0.7608157
50
35.9871058
51
43.2318186
0
ARC
8
DEFAULT_255_2_778
10
7.1814452
20
14.5573119
40
1.2635828
50
43.1413065
51
48.7842315
0
ARC
8
DEFAULT_255_2_778
10
6.7994314
20
14.1245185
40
1.8408535
50
48.7158347
51
53.2226453
0
ARC
8
DEFAULT_255_2_778
10
6.503016
20
13.7322835
40
2.3324886
50
53.1591373
51
56.2362473
0
ARC
8
DEFAULT_255_2_778
10
6.234977
20
13.3276243
40
2.8178651
50
56.2782729
51
61.162586
0
ARC
8
DEFAULT_255_2_778
10
6.0244801
20
12.9475151
40
3.2523659
50
61.1439621
51
66.7138854
0
ARC
8
DEFAULT_255_2_778
10
5.9563633
20
12.7937442
40
3.4205394
50
66.6840869
51
73.1511372
0
ARC
8
DEFAULT_255_2_778
10
5.9849864
20
12.8960651
40
3.3143155
50
73.1120133
51
81.5012707
0
ARC
8
DEFAULT_255_2_778
10
6.020937
20
13.1379304
40
3.0697931
50
81.4977465
51
89.9437379
0
ARC
8
DEFAULT_255_2_778
10
5.8774661
20
13.1129863
40
3.0947387
50
90.0798812
51
100.1882356
0
ARC
8
DEFAULT_255_2_778
10
5.9195132
20
12.8671985
40
3.3440889
50
100.1524005
51
108.0598349
0
ARC
8
DEFAULT_255_2_778
10
5.9380997
20
12.8036763
40
3.4102441
50
108.0258693
51
113.9730885
0
ARC
8
DEFAULT_255_2_778
10
5.8586388
20
12.9785163
40
3.2182013
50
113.9451805
51
119.3504034
0
ARC
8
DEFAULT_255_2_778
10
5.6523669
20
13.3448765
40
2.7977638
50
119.3458307
51
123.7070987
0
ARC
8
DEFAULT_255_2_778
10
5.3574311
20
13.7858619
40
2.2672407
50
123.6912024
51
127.9824563
0
ARC
8
DEFAULT_255_2_778
10
4.9965332
20
14.2463809
40
1.6821564
50
127.9468026
51
132.7570612
0
ARC
8
DEFAULT_255_2_778
10
4.6061906
20
14.6663538
40
1.1087969
50
132.6801317
51
138.7511125
0
ARC
8
DEFAULT_255_2_778
10
4.2426142
20
14.9828308
40
0.6267804
50
138.5890157
51
147.1615553
0
ARC
8
DEFAULT_255_2_778
10
3.9590617
20
15.1631711
40
0.2907538
50
146.7201136
51
161.182097
0
ARC
8
DEFAULT_255_2_778
10
3.8078556
20
15.2152717
40
0.1308253
50
161.4196552
51
178.9706379
0
ARC
8
DEFAULT_255_2_778
10
3.6892223
20
15.2208018
40
0.0125794
50
194.6424064
51
257.368939
0
ARC
8
DEFAULT_255_2_778
10
3.7460642
20
15.3646985
40
0.1671552
50
249.1139031
51
262.6058443
0
ARC
8
DEFAULT_255_2_778
10
3.8566911
20
16.0620777
40
0.8732005
50
261.296162
51
265.8041334
0
ARC
8
DEFAULT_255_2_778
10
3.9910259
20
17.7647425
40
2.5811477
50
265.5955384
51
267.8582522
0
ARC
8
DEFAULT_255_2_778
10
4.1395103
20
21.7704961
40
6.5896523
50
267.8697441
51
269.6256086
0
ARC
8
DEFAULT_255_2_778
10
4.1919546
20
26.6571302
40
11.4765431
50
269.523202
51
270.0100584
0
ARC
8
DEFAULT_255_2_778
10
4.1919752
20
29.7036558
40
14.5230688
50
270.0078674
51
270.4363358
0
ARC
8
DEFAULT_255_2_778
10
4.1786493
20
31.6289035
40
16.448362
50
270.4316815
51
270.6497533
0
ARC
8
DEFAULT_255_2_778
10
4.1742586
20
32.0246041
40
16.8440869
50
270.6494239
51
270.8346949
0
ARC
8
DEFAULT_255_2_778
10
4.1857738
20
31.2333384
40
16.0527375
50
270.8347409
51
270.9770981
0
ARC
8
DEFAULT_255_2_778
10
4.2173651
20
29.3752876
40
14.1944181
50
270.9774946
51
271.0732243
0
ARC
8
DEFAULT_255_2_778
10
4.2785418
20
26.1318472
40
10.9504007
50
271.0710495
51
271.1857236
0
ARC
8
DEFAULT_255_2_778
10
4.3631841
20
22.0340661
40
6.8517456
50
271.1871652
51
271.2538265
0
ARC
8
DEFAULT_255_2_778
10
4.4243407
20
19.2326486
40
4.0496608
50
271.2560587
51
271.2948312
0
ARC
8
DEFAULT_255_2_778
10
3.9253418
20
15.0471022
40
0.6061754
50
12.519388
51
13.0543186
0
ARC
8
DEFAULT_255_2_778
10
3.1185377
20
14.8673259
40
1.4327661
50
11.82554
51
12.5438144
0
ARC
8
DEFAULT_255_2_778
10
2.5223151
20
14.7422226
40
2.0419724
50
10.9052236
51
11.832914
0
ARC
8
DEFAULT_255_2_778
10
2.2224044
20
14.6840196
40
2.3474784
50
10.0256038
51
10.9153137
0
ARC
8
DEFAULT_255_2_778
10
2.1337358
20
14.6681791
40
2.4375507
50
9.0135223
51
10.0294217
0
ARC
8
DEFAULT_255_2_778
10
2.2280917
20
14.6825896
40
2.3421024
50
7.013128
51
9.0269766
0
ARC
8
DEFAULT_255_2_778
10
2.6493314
20
14.7319451
40
1.9179897
50
3.1073534
51
7.0861904
0
ARC
8
DEFAULT_255_2_778
10
3.066525
20
14.7571764
40
1.5000441
50
1.2470279
51
3.0088285
0
ARC
8
DEFAULT_255_2_778
10
3.2429027
20
14.7613145
40
1.3236183
50
0.0109057
51
1.2341025
0
ARC
8
DEFAULT_255_2_778
10
3.7596657
20
14.7485654
40
0.80696
50
347.4172204
51
0.9231436
0
ARC
8
DEFAULT_255_2_778
10
4.2517499
20
14.6362383
40
0.3022337
50
323.8567681
51
347.8776538
0
ARC
8
DEFAULT_255_2_778
10
4.3699734
20
14.5535821
40
0.1580399
50
268.1790286
51
322.7762104
0
ARC
8
DEFAULT_255_2_778
10
4.3621006
20
15.9906913
40
1.5950719
50
262.5707598
51
270.1024039
0
ARC
8
DEFAULT_255_2_778
10
4.3569247
20
15.9254741
40
1.5297365
50
253.1688726
51
262.4471501
0
ARC
8
DEFAULT_255_2_778
10
4.6939166
20
16.9429614
40
2.6013638
50
245.046398
51
252.5534614
0
ARC
8
DEFAULT_255_2_778
10
19.8271863
20
50.6759201
40
39.573126
50
245.6232876
51
245.7860177
0
ARC
8
DEFAULT_255_2_778
10
1.9406597
20
11.2738437
40
3.6988129
50
65.1681337
51
69.8046435
0
ARC
8
DEFAULT_255_2_778
10
2.5200325
20
12.8109037
40
2.0562793
50
70.1703963
51
76.5940656
0
ARC
8
DEFAULT_255_2_778
10
2.5449304
20
12.9011814
40
1.9626919
50
76.6900725
51
82.7964456
0
ARC
8
DEFAULT_255_2_778
10
2.5157396
20
12.6806437
40
2.1851496
50
82.7621973
51
82.8544406
0
ARC
8
DEFAULT_255_2_778
10
2.6761782
20
14.3541254
40
0.5070786
50
77.3122862
51
85.3740895
0
ARC
8
DEFAULT_255_2_778
10
2.6216062
20
13.848066
40
1.0159815
50
84.6081894
51
85.2481497
0
ARC
8
DEFAULT_255_2_778
10
2.5839573
20
13.3375903
40
1.5278287
50
85.4269757
51
88.5079738
0
ARC
8
DEFAULT_255_2_778
10
2.5780523
20
13.2576073
40
1.6079429
50
88.3718398
51
89.6052128
0
ARC
8
DEFAULT_255_2_778
10
2.5858377
20
14.3200919
40
0.5454303
50
89.6539955
51
89.9355253
0
ARC
8
DEFAULT_255_2_778
10
2.5726358
20
13.155506
40
1.7100718
50
89.5371031
51
99.3828837
0
ARC
8
DEFAULT_255_2_778
10
2.4385597
20
13.9304124
40
0.9236934
50
99.0139111
51
116.7436179
0
ARC
8
DEFAULT_255_2_778
10
2.3201042
20
14.1845348
40
0.6435071
50
117.5067396
51
127.1093995
0
ARC
8
DEFAULT_255_2_778
10
2.3227525
20
14.1909121
40
0.6400467
50
127.6429062
51
132.2487917
0
ARC
8
DEFAULT_255_2_778
10
2.4084499
20
14.0960434
40
0.7678904
50
132.2227479
51
136.9288431
0
ARC
8
DEFAULT_255_2_778
10
2.4593665
20
14.0477651
40
0.8380548
50
136.894906
51
140.1599175
0
ARC
8
DEFAULT_255_2_778
10
2.4996449
20
14.014857
40
0.8900647
50
140.1944349
51
149.3739369
0
ARC
8
DEFAULT_255_2_778
10
2.5217022
20
14.0014795
40
0.9158601
50
149.3567513
51
159.9962852
0
ARC
8
DEFAULT_255_2_778
10
2.5505667
20
13.9914171
40
0.9464254
50
160.0216308
51
171.1270404
0
ARC
8
DEFAULT_255_2_778
10
2.6250201
20
13.9799263
40
1.0217603
50
171.1343703
51
180.0759445
0
ARC
8
DEFAULT_255_2_778
10
2.7605026
20
13.9808171
40
1.1572442
50
180.1111576
51
189.1365758
0
ARC
8
DEFAULT_255_2_778
10
2.9768596
20
14.0156371
40
1.3763852
50
189.1375417
51
196.9927189
0
ARC
8
DEFAULT_255_2_778
10
3.2672805
20
14.1039845
40
1.6799467
50
196.9795791
51
203.6090598
0
ARC
8
DEFAULT_255_2_778
10
3.625781
20
14.2600181
40
2.070931
50
203.5923567
51
209.1541929
0
ARC
8
DEFAULT_255_2_778
10
4.0376814
20
14.4886459
40
2.5420274
50
209.1316838
51
213.6222585
0
ARC
8
DEFAULT_255_2_778
10
4.5099888
20
14.8024701
40
3.1090898
50
213.6185649
51
217.6803373
0
ARC
8
DEFAULT_255_2_778
10
7.3964881
20
14.8268854
40
3.1078946
50
321.7315749
51
325.8687722
0
ARC
8
DEFAULT_255_2_778
10
7.8758044
20
14.5025984
40
2.5291841
50
325.8572281
51
330.6686083
0
ARC
8
DEFAULT_255_2_778
10
8.289502
20
14.2706443
40
2.0548971
50
330.6564454
51
336.2555777
0
ARC
8
DEFAULT_255_2_778
10
8.6396977
20
14.1171437
40
1.6725372
50
336.2383802
51
342.9217903
0
ARC
8
DEFAULT_255_2_778
10
8.9227861
20
14.0303709
40
1.3764484
50
342.9138799
51
350.6456091
0
ARC
8
DEFAULT_255_2_778
10
9.1383588
20
13.9950695
40
1.1580046
50
350.6353529
51
359.883022
0
ARC
8
DEFAULT_255_2_778
10
9.2846986
20
13.9945027
40
1.0116639
50
359.8981989
51
10.2131285
0
ARC
8
DEFAULT_255_2_778
10
9.3664566
20
14.0088217
40
0.9286624
50
10.2380833
51
21.1764619
0
ARC
8
DEFAULT_255_2_778
10
9.4103985
20
14.0256944
40
0.8815928
50
21.1855787
51
31.7641147
0
ARC
8
DEFAULT_255_2_778
10
9.4617355
20
14.057832
40
0.821027
50
31.7432411
51
40.5749358
0
ARC
8
DEFAULT_255_2_778
10
9.5346175
20
14.1196942
40
0.7254314
50
40.6079309
51
45.7844141
0
ARC
8
DEFAULT_255_2_778
10
9.6164318
20
14.2042812
40
0.6077524
50
45.7514558
51
51.1181861
0
ARC
8
DEFAULT_255_2_778
10
9.6982079
20
14.3052569
40
0.4778167
50
51.1510289
51
55.2223265
0
LINE
8
DEFAULT_255_2_778
10
6.0239514
20
16.2077219
11
5.8731514
21
16.2077219
0
LINE
8
DEFAULT_255_2_778
10
2.0493514
20
12.9020219
11
2.5192514
21
12.8015219
0
LINE
8
DEFAULT_255_2_778
10
2.5192514
20
12.8015219
11
9.3666514
21
12.8015219
0
LINE
8
DEFAULT_255_2_778
10
9.3666514
20
12.8015219
11
9.8365514
21
12.9020219
0
LINE
8
DEFAULT_255_2_778
10
9.9707514
20
14.6977219
11
9.9651514
21
14.6977219
0
ARC
8
DEFAULT_255_2_778
10
2.6774574
20
14.0447856
40
0.1667243
50
88.728797
51
114.231605
0
ARC
8
DEFAULT_255_2_778
10
2.7697921
20
13.8670328
40
0.3668851
50
115.987995
51
127.3801161
0
ARC
8
DEFAULT_255_2_778
10
2.499561
20
14.1146104
40
0.0647158
50
352.0582893
51
42.7853858
0
ARC
8
DEFAULT_255_2_778
10
2.4915562
20
14.1105689
40
0.0722663
50
273.8879096
51
356.1120904
0
ARC
8
DEFAULT_255_2_778
10
2.4893612
20
14.1084484
40
0.0703383
50
229.3670659
51
275.7892422
0
ARC
8
DEFAULT_255_2_778
10
-0.0486949
20
14.8417835
40
2.6134719
50
342.4383282
51
342.4809556
0
ARC
8
DEFAULT_255_2_778
10
3.2840894
20
13.7620583
40
0.8900863
50
160.9065128
51
167.5082891
0
ARC
8
DEFAULT_255_2_778
10
2.676369
20
13.902588
40
0.2664181
50
168.7458485
51
179.6385107
0
ARC
8
DEFAULT_255_2_778
10
2.7180456
20
13.8961951
40
0.3081952
50
178.4988479
51
236.0100284
0
ARC
8
DEFAULT_255_2_778
10
2.6782549
20
13.8494894
40
0.2473207
50
237.6043809
51
270.0697997
0
ARC
8
DEFAULT_255_2_778
10
2.6686651
20
13.8587081
40
0.2567298
50
272.2079964
51
355.6779006
0
ARC
8
DEFAULT_255_2_778
10
2.5283432
20
13.9037197
40
0.4015133
50
350.776107
51
0.0783659
0
ARC
8
DEFAULT_255_2_778
10
2.6111299
20
13.936119
40
0.3203137
50
354.2934147
51
359.9778437
0
ARC
8
DEFAULT_255_2_778
10
2.6725953
20
13.9474365
40
0.259101
50
357.4691122
51
88.6817339
0
LINE
8
DEFAULT_255_2_778
10
2.6785562
20
14.2064689
11
2.6811562
21
14.2114689
0
ARC
8
DEFAULT_255_2_778
10
2.5036993
20
14.1081024
40
0.127255
50
1.0249641
51
42.6248134
0
ARC
8
DEFAULT_255_2_778
10
2.5081191
20
14.0930575
40
0.134926
50
48.6075333
51
87.7424845
0
ARC
8
DEFAULT_255_2_778
10
2.5162196
20
14.1069104
40
0.1210004
50
91.3191868
51
186.2303637
0
ARC
8
DEFAULT_255_2_778
10
2.5320275
20
14.0953862
40
0.136103
50
180.6767138
51
196.5439844
0
ARC
8
DEFAULT_255_2_778
10
2.4970616
20
14.0784481
40
0.0979631
50
192.8683105
51
240.5078668
0
ARC
8
DEFAULT_255_2_778
10
2.503682
20
14.0733692
40
0.0971536
50
235.6289938
51
275.322493
0
ARC
8
DEFAULT_255_2_778
10
2.5294626
20
14.8446008
40
0.8681283
50
268.8932218
51
270.2159079
0
ARC
8
DEFAULT_255_2_778
10
2.4904163
20
14.1129009
40
0.1428349
50
287.2336792
51
359.1085685
0
LINE
8
DEFAULT_255_2_778
10
2.633234
20
14.1106787
11
2.630934
21
14.1103787
0
LINE
8
DEFAULT_255_2_778
10
5.4505899
20
12.5361216
11
5.7529899
21
12.2451216
0
LINE
8
DEFAULT_255_2_778
10
5.7529899
20
12.2451216
11
5.4505899
21
12.5361216
0
LINE
8
DEFAULT_255_2_778
10
3.705048
20
7.0957819
11
3.537348
21
6.9448819
0
LINE
8
DEFAULT_255_2_778
10
3.537348
20
6.9448819
11
3.705048
21
7.0957819
0
LINE
8
DEFAULT_255_2_778
10
3.705048
20
7.0957819
11
3.956448
21
7.3470819
0
LINE
8
DEFAULT_255_2_778
10
3.956448
20
7.3470819
11
3.705048
21
7.0957819
0
LINE
8
DEFAULT_255_2_778
10
5.7694256
20
12.2309704
11
5.8868256
21
12.1135704
0
LINE
8
DEFAULT_255_2_778
10
5.8868256
20
12.1135704
11
5.7527256
21
12.2476704
0
LINE
8
DEFAULT_255_2_778
10
5.7527256
20
12.2476704
11
5.7694256
21
12.2309704
0
ARC
8
DEFAULT_255_2_778
10
9.3068751
20
14.0446473
40
0.1668623
50
88.7343063
51
114.1606359
0
ARC
8
DEFAULT_255_2_778
10
9.3993539
20
13.8662091
40
0.3676958
50
115.9285297
51
127.3340218
0
ARC
8
DEFAULT_255_2_778
10
9.1292223
20
14.1146017
40
0.0644605
50
352.0344236
51
43.0063428
0
ARC
8
DEFAULT_255_2_778
10
9.1209609
20
14.1105689
40
0.0722663
50
273.8879096
51
356.1120904
0
ARC
8
DEFAULT_255_2_778
10
9.1187294
20
14.1083321
40
0.0702263
50
229.3278924
51
275.8284325
0
ARC
8
DEFAULT_255_2_778
10
6.5807098
20
14.8417835
40
2.6134719
50
342.4383282
51
342.4809556
0
ARC
8
DEFAULT_255_2_778
10
9.9134941
20
13.7620583
40
0.8900863
50
160.9065128
51
167.5082891
0
ARC
8
DEFAULT_255_2_778
10
9.3057737
20
13.902588
40
0.2664181
50
168.7458485
51
179.6385107
0
ARC
8
DEFAULT_255_2_778
10
9.3476534
20
13.8962493
40
0.3083968
50
178.5099117
51
235.8243102
0
ARC
8
DEFAULT_255_2_778
10
9.3075794
20
13.8493354
40
0.2471668
50
237.4010358
51
270.0652483
0
ARC
8
DEFAULT_255_2_778
10
9.2980438
20
13.858739
40
0.2567578
50
272.1912307
51
355.6714501
0
ARC
8
DEFAULT_255_2_778
10
9.1577783
20
13.9037185
40
0.4014829
50
350.7755778
51
0.0785441
0
ARC
8
DEFAULT_255_2_778
10
9.2405504
20
13.9361182
40
0.3202979
50
354.293273
51
359.9778424
0
ARC
8
DEFAULT_255_2_778
10
9.3019778
20
13.9474135
40
0.2591221
50
357.4742268
51
88.6990565
0
LINE
8
DEFAULT_255_2_778
10
9.3078609
20
14.2064689
11
9.3105609
21
14.2114689
0
ARC
8
DEFAULT_255_2_778
10
9.1333225
20
14.1082271
40
0.1269573
50
0.9739893
51
42.6759189
0
ARC
8
DEFAULT_255_2_778
10
9.3796198
20
14.5019825
40
0.3436189
50
243.3490705
51
243.5677274
0
ARC
8
DEFAULT_255_2_778
10
8.2908327
20
12.4956324
40
1.9393281
50
61.1872857
51
62.7192456
0
ARC
8
DEFAULT_255_2_778
10
9.1422112
20
14.1420909
40
0.0857967
50
64.0715117
51
89.5658132
0
ARC
8
DEFAULT_255_2_778
10
9.1410207
20
14.0975833
40
0.1303149
50
89.1906881
51
90.0058988
0
ARC
8
DEFAULT_255_2_778
10
9.1409723
20
14.0956043
40
0.1322939
50
89.9848217
51
134.9785427
0
ARC
8
DEFAULT_255_2_778
10
9.141028
20
14.095539
40
0.1323795
50
134.9756577
51
179.9999361
0
ARC
8
DEFAULT_255_2_778
10
9.1389695
20
14.0955259
40
0.130321
50
179.9941652
51
180.8092905
0
ARC
8
DEFAULT_255_2_778
10
9.1444695
20
14.0952777
40
0.1358174
50
180.6718122
51
196.5272342
0
ARC
8
DEFAULT_255_2_778
10
9.109739
20
14.0784502
40
0.0979347
50
192.8668392
51
240.5320774
0
ARC
8
DEFAULT_255_2_778
10
9.1161777
20
14.0728185
40
0.0965629
50
235.555831
51
275.2029285
0
ARC
8
DEFAULT_255_2_778
10
9.1421221
20
14.8215988
40
0.8451201
50
268.8346569
51
270.2263925
0
ARC
8
DEFAULT_255_2_778
10
9.0899815
20
14.1504462
40
0.1825936
50
287.6885981
51
296.1123952
0
ARC
8
DEFAULT_255_2_778
10
9.1138375
20
14.1252591
40
0.1498343
50
292.1570544
51
354.418199
0
LINE
8
DEFAULT_255_2_778
10
9.2629614
20
14.1106852
11
9.2602614
21
14.1103852
0
LINE
8
DEFAULT_255_2_778
10
6.457498
20
12.5361216
11
6.155098
21
12.2451216
0
LINE
8
DEFAULT_255_2_778
10
6.155098
20
12.2451216
11
6.457498
21
12.5361216
0
ARC
8
DEFAULT_255_2_778
10
7.9131015
20
7.3195447
40
0.0464274
50
91.3901508
51
186.5380195
0
ARC
8
DEFAULT_255_2_778
10
7.9119456
20
7.3186574
40
0.047301
50
80.3275724
51
89.9641376
0
ARC
8
DEFAULT_255_2_778
10
7.9099436
20
7.3113429
40
0.0548529
50
41.7358675
51
79.5498631
0
ARC
8
DEFAULT_255_2_778
10
9.9537621
20
7.1009688
40
1.734392
50
180.1490028
51
180.7730571
0
ARC
8
DEFAULT_255_2_778
10
18.8043539
20
7.2123997
40
10.5856846
50
180.729804
51
180.983888
0
ARC
8
DEFAULT_255_2_778
10
47.7424566
20
7.6979329
40
39.5278597
50
180.9673034
51
181.0738002
0
ARC
8
DEFAULT_255_2_778
10
112.2163418
20
8.8985151
40
104.0129219
50
181.0694565
51
181.1231513
0
ARC
8
DEFAULT_255_2_778
10
232.6215266
20
11.251553
40
224.4410969
50
181.1212295
51
181.1472848
0
ARC
8
DEFAULT_255_2_778
10
68.2725579
20
7.9555613
40
60.0590814
50
181.1428545
51
181.1471415
0
ARC
8
DEFAULT_255_2_778
10
68.2462224
20
7.9515039
40
60.03267
50
181.1437731
51
181.1480587
0
LINE
8
DEFAULT_255_2_778
10
8.2256036
20
6.7486855
11
8.2258444
21
6.7366736
0
LINE
8
DEFAULT_255_2_778
10
8.2258444
20
6.7366736
11
8.2259643
21
6.7307034
0
ARC
8
DEFAULT_255_2_778
10
62.8046535
20
7.8255646
40
54.5896697
50
181.1492126
51
181.1539024
0
ARC
8
DEFAULT_255_2_778
10
60.4493115
20
7.7750235
40
52.2337877
50
181.1505031
51
181.1553985
0
ARC
8
DEFAULT_255_2_778
10
-41.1748722
20
5.7262478
40
49.4110458
50
1.1492963
51
1.1544647
0
ARC
8
DEFAULT_255_2_778
10
-40.9751618
20
5.7244744
40
49.2114115
50
1.150842
51
1.1560243
0
ARC
8
DEFAULT_255_2_778
10
-40.9217709
20
5.7209432
40
49.1581025
50
1.1501606
51
1.1562068
0
ARC
8
DEFAULT_255_2_778
10
55.8872454
20
7.6659845
40
47.6704513
50
181.1518758
51
181.1572087
0
ARC
8
DEFAULT_255_2_778
10
-42.5288174
20
5.6788639
40
50.7656705
50
1.1512282
51
1.1562281
0
ARC
8
DEFAULT_255_2_778
10
-44.4724935
20
5.6335166
40
52.7098659
50
1.1532546
51
1.1580622
0
ARC
8
DEFAULT_255_2_778
10
-44.8103956
20
5.6211508
40
53.0479486
50
1.1536968
51
1.1592624
0
ARC
8
DEFAULT_255_2_778
10
53.5602986
20
7.6028874
40
45.3427052
50
181.1545754
51
181.1601432
0
ARC
8
DEFAULT_255_2_778
10
-1122.3962381
20
-16.1733738
40
1130.854169
50
1.1576152
51
1.1582114
0
ARC
8
DEFAULT_255_2_778
10
-49.3545367
20
5.5065228
40
57.593478
50
1.1555184
51
1.1605982
0
LINE
8
DEFAULT_255_2_778
10
8.2272292
20
6.6679663
11
8.2274654
21
6.6562923
0
ARC
8
DEFAULT_255_2_778
10
47.7739653
20
7.4543854
40
39.5545522
50
181.1561366
51
181.1624228
0
ARC
8
DEFAULT_255_2_778
10
-52.3356657
20
5.4218585
40
60.5757099
50
1.1587909
51
1.1635704
0
ARC
8
DEFAULT_255_2_778
10
-164.6941278
20
3.1361608
40
172.9574182
50
1.1602205
51
1.1630865
0
ARC
8
DEFAULT_255_2_778
10
-51.6411097
20
5.4210551
40
59.8813129
50
1.160609
51
1.164721
0
ARC
8
DEFAULT_255_2_778
10
-183.4641807
20
2.7407207
40
191.7316303
50
1.1609411
51
1.1635076
0
ARC
8
DEFAULT_255_2_778
10
-293.4818837
20
0.4915858
40
301.7723198
50
1.1625009
51
1.1646663
0
ARC
8
DEFAULT_255_2_778
10
-57.2068047
20
5.2812144
40
65.4486997
50
1.1618656
51
1.1668115
0
ARC
8
DEFAULT_255_2_778
10
-269.5845666
20
0.9561746
40
277.8704963
50
1.1637866
51
1.1655294
0
ARC
8
DEFAULT_255_2_778
10
-61.9128088
20
5.1703465
40
70.1559851
50
1.1635585
51
1.1675574
0
ARC
8
DEFAULT_255_2_778
10
-60.7273816
20
5.1883355
40
68.9704373
50
1.1641257
51
1.1686148
0
ARC
8
DEFAULT_255_2_778
10
-62.9290759
20
5.1378581
40
71.1727028
50
1.1644099
51
1.1687437
0
ARC
8
DEFAULT_255_2_778
10
-62.3657155
20
5.1436457
40
70.6093414
50
1.1646527
51
1.1690042
0
ARC
8
DEFAULT_255_2_778
10
-64.7135231
20
5.0900941
40
72.9577526
50
1.1650283
51
1.1692232
0
LINE
8
DEFAULT_255_2_778
10
8.2291476
20
6.5734841
11
8.2293717
21
6.5624816
0
LINE
8
DEFAULT_255_2_778
10
8.2293717
20
6.5624816
11
8.2298181
21
6.5405867
0
ARC
8
DEFAULT_255_2_778
10
-71.4097991
20
4.9118837
40
79.6562697
50
1.1677398
51
1.1715878
0
ARC
8
DEFAULT_255_2_778
10
-73.3128652
20
4.8694232
40
81.5598059
50
1.1666928
51
1.1703168
0
LINE
8
DEFAULT_255_2_778
10
8.2300325
20
6.5300806
11
8.2304674
21
6.5087777
0
LINE
8
DEFAULT_255_2_778
10
8.2304674
20
6.5087777
11
8.2378274
21
6.149035
0
ARC
8
DEFAULT_255_2_778
10
-1060.9742396
20
-15.7167226
40
1069.4356248
50
1.1502719
51
1.1715553
0
ARC
8
DEFAULT_255_2_778
10
-640.7830486
20
-7.2656639
40
649.1594572
50
1.1336979
51
1.1490229
0
ARC
8
DEFAULT_255_2_778
10
-406.8177913
20
-2.6549478
40
415.1487741
50
1.0743804
51
1.1363614
0
ARC
8
DEFAULT_255_2_778
10
-226.2887541
20
0.73309
40
234.5879477
50
1.0014089
51
1.0737808
0
ARC
8
DEFAULT_255_2_778
10
-132.3201116
20
2.3750005
40
140.6049618
50
0.9120022
51
1.0016655
0
ARC
8
DEFAULT_255_2_778
10
-77.7586321
20
3.2442335
40
86.0365588
50
0.8132344
51
0.911549
0
ARC
8
DEFAULT_255_2_778
10
-46.9328332
20
3.6823065
40
55.2076473
50
0.70996
51
0.8127009
0
ARC
8
DEFAULT_255_2_778
10
-23.3911868
20
3.9696029
40
31.6642485
50
0.5014723
51
0.7179688
0
ARC
8
DEFAULT_255_2_778
10
-6.3387687
20
4.1175731
40
14.6111886
50
0.1871071
51
0.5065003
0
ARC
8
DEFAULT_255_2_778
10
0.2348257
20
4.1418969
40
8.0375503
50
0.0054276
51
0.1667426
0
ARC
8
DEFAULT_255_2_778
10
17.2298537
20
4.1490963
40
8.95748
50
180.0411799
51
181.5955785
0
ARC
8
DEFAULT_255_2_778
10
19.995919
20
4.223201
40
11.7245366
50
181.5811931
51
182.6938193
0
ARC
8
DEFAULT_255_2_778
10
23.7221699
20
4.4025223
40
15.4550984
50
182.7086269
51
184.0247344
0
ARC
8
DEFAULT_255_2_778
10
28.8655332
20
4.7612831
40
20.610958
50
184.0160562
51
185.0275346
0
ARC
8
DEFAULT_255_2_778
10
35.7356501
20
5.3686895
40
27.5078734
50
185.0338049
51
186.0469204
0
ARC
8
DEFAULT_255_2_778
10
42.7089608
20
6.0953595
40
34.5189358
50
186.0270659
51
186.4207993
0
ARC
8
DEFAULT_255_2_778
10
48.1429291
20
6.7065164
40
39.9871645
50
186.4202898
51
186.7496079
0
ARC
8
DEFAULT_255_2_778
10
50.7342881
20
7.0109673
40
42.5963457
50
186.7466176
51
186.7520012
0
ARC
8
DEFAULT_255_2_778
10
50.4889882
20
6.9792436
40
42.3490175
50
186.748398
51
186.7537981
0
ARC
8
DEFAULT_255_2_778
10
50.217798
20
6.9481849
40
42.0760564
50
186.7552274
51
186.7606477
0
ARC
8
DEFAULT_255_2_778
10
49.9477573
20
6.9172353
40
41.8042499
50
186.7620941
51
186.7675347
0
ARC
8
DEFAULT_255_2_778
10
-28.8616041
20
-2.4377891
40
37.5584109
50
6.7658349
51
6.7718739
0
ARC
8
DEFAULT_255_2_778
10
49.4458287
20
6.8556046
40
41.2985559
50
186.7701781
51
186.7756551
0
ARC
8
DEFAULT_255_2_778
10
62.7545755
20
8.4392625
40
54.7011939
50
186.7781731
51
186.7822967
0
ARC
8
DEFAULT_255_2_778
10
62.4002678
20
8.3998786
40
54.3447147
50
186.7851797
51
186.789319
0
ARC
8
DEFAULT_255_2_778
10
48.6832049
20
6.764003
40
40.5304507
50
186.7853768
51
186.7909117
0
ARC
8
DEFAULT_255_2_778
10
48.4196848
20
6.7337051
40
40.2651967
50
186.7924413
51
186.7979972
0
ARC
8
DEFAULT_255_2_778
10
-27.7934598
20
-2.3543279
40
36.4878863
50
6.7963543
51
6.8024684
0
ARC
8
DEFAULT_255_2_778
10
47.9298788
20
6.6733756
40
39.7716931
50
186.80083
51
186.8064238
0
ARC
8
DEFAULT_255_2_778
10
47.6695937
20
6.6434013
40
39.5096899
50
186.8079969
51
186.8136122
0
ARC
8
DEFAULT_255_2_778
10
47.4439949
20
6.6134773
40
39.2821344
50
186.8093128
51
186.814945
0
ARC
8
DEFAULT_255_2_778
10
47.1938526
20
6.5841959
40
39.0302847
50
186.8158378
51
186.8214906
0
ARC
8
DEFAULT_255_2_778
10
46.9367541
20
6.5545425
40
38.7714841
50
186.8231068
51
186.8287816
0
ARC
8
DEFAULT_255_2_778
10
46.7219035
20
6.5254143
40
38.5546945
50
186.8237658
51
186.8294567
0
ARC
8
DEFAULT_255_2_778
10
46.4668548
20
6.4959734
40
38.2979543
50
186.8310978
51
186.8368109
0
ARC
8
DEFAULT_255_2_778
10
46.2208614
20
6.4671118
40
38.0502745
50
186.8377552
51
186.8434895
0
ARC
8
DEFAULT_255_2_778
10
46.0007267
20
6.437826
40
37.8282187
50
186.8391784
51
186.8449303
0
ARC
8
DEFAULT_255_2_778
10
45.756718
20
6.4091733
40
37.5825342
50
186.8458954
51
186.8516688
0
ARC
8
DEFAULT_255_2_778
10
45.5137619
20
6.380624
40
37.3379073
50
186.8526495
51
186.8584445
0
ARC
8
DEFAULT_255_2_778
10
45.2963247
20
6.3516544
40
37.1185669
50
186.8541276
51
186.8599406
0
ARC
8
DEFAULT_255_2_778
10
45.0553419
20
6.3233128
40
36.8759241
50
186.8609428
51
186.8667777
0
ARC
8
DEFAULT_255_2_778
10
44.8474441
20
6.2950183
40
36.6661348
50
186.8617224
51
186.8675743
0
ARC
8
DEFAULT_255_2_778
10
44.6083976
20
6.2668825
40
36.425439
50
186.8685969
51
186.8744709
0
ARC
8
DEFAULT_255_2_778
10
44.3703937
20
6.2388494
40
36.1857907
50
186.8755098
51
186.8814062
0
ARC
8
DEFAULT_255_2_778
10
44.1650626
20
6.2108629
40
35.9785858
50
186.876337
51
186.8822508
0
ARC
8
DEFAULT_255_2_778
10
43.9289835
20
6.1830344
40
35.7408731
50
186.8833107
51
186.8892471
0
ARC
8
DEFAULT_255_2_778
10
-24.5454094
20
-2.0926686
40
33.2318008
50
6.8870392
51
6.8934059
0
ARC
8
DEFAULT_255_2_778
10
43.4911613
20
6.1276279
40
35.299566
50
186.8912001
51
186.897177
0
ARC
8
DEFAULT_255_2_778
10
43.2580319
20
6.1001049
40
35.0648185
50
186.8982754
51
186.9042754
0
ARC
8
DEFAULT_255_2_778
10
43.0644755
20
6.0730827
40
34.8694176
50
186.898428
51
186.9044446
0
ARC
8
DEFAULT_255_2_778
10
42.8332226
20
6.0457613
40
34.6365573
50
186.9055636
51
186.9116036
0
ARC
8
DEFAULT_255_2_778
10
-23.7241512
20
-2.0246715
40
32.4083224
50
6.9094288
51
6.9158659
0
ARC
8
DEFAULT_255_2_778
10
42.4118631
20
5.9918171
40
34.2117683
50
186.912934
51
186.9190146
0
ARC
8
DEFAULT_255_2_778
10
42.1835011
20
5.964797
40
33.9818143
50
186.9201723
51
186.9262767
0
ARC
8
DEFAULT_255_2_778
10
41.9939395
20
5.938271
40
33.7904376
50
186.9203881
51
186.9265097
0
ARC
8
DEFAULT_255_2_778
10
41.7674347
20
5.9114504
40
33.5623514
50
186.9276891
51
186.9338349
0
ARC
8
DEFAULT_255_2_778
10
41.5794375
20
5.8851213
40
33.3725509
50
186.9279272
51
186.9340905
0
ARC
8
DEFAULT_255_2_778
10
41.3621369
20
5.8589437
40
33.1536792
50
186.9345192
51
186.9407056
0
ARC
8
DEFAULT_255_2_778
10
41.1384643
20
5.8324204
40
32.9284405
50
186.9419238
51
186.9481349
0
ARC
8
DEFAULT_255_2_778
10
40.9528343
20
5.8063844
40
32.7410246
50
186.9422043
51
186.9484332
0
ARC
8
DEFAULT_255_2_778
10
40.7382763
20
5.7804991
40
32.5249108
50
186.9488932
51
186.9551457
0
ARC
8
DEFAULT_255_2_778
10
40.5541729
20
5.7546567
40
32.3390332
50
186.9491951
51
186.9554656
0
ARC
8
DEFAULT_255_2_778
10
40.3413675
20
5.7289644
40
32.1246825
50
186.955942
51
186.9622364
0
ARC
8
DEFAULT_255_2_778
10
-21.8106239
20
-1.8627587
40
30.489248
50
6.9593477
51
6.9659609
0
ARC
8
DEFAULT_255_2_778
10
39.9477237
20
5.6778149
40
31.7277412
50
186.9630714
51
186.9694083
0
ARC
8
DEFAULT_255_2_778
10
39.7376036
20
5.6524106
40
31.5160911
50
186.969916
51
186.9762774
0
ARC
8
DEFAULT_255_2_778
10
39.5573307
20
5.6270489
40
31.3340728
50
186.9702829
51
186.9766629
0
ARC
8
DEFAULT_255_2_778
10
49.6515039
20
6.8629597
40
41.5036256
50
186.9775883
51
186.9823913
0
ARC
8
DEFAULT_255_2_778
10
-21.0412915
20
-1.7971758
40
29.7176441
50
6.979921
51
6.9866097
0
ARC
8
DEFAULT_255_2_778
10
38.9705697
20
5.552071
40
30.7425488
50
186.9837388
51
186.990186
0
ARC
8
DEFAULT_255_2_778
10
-15.070846
20
-1.0757601
40
23.7037804
50
6.9861079
51
6.9944457
0
ARC
8
DEFAULT_255_2_778
10
38.5953147
20
5.5026809
40
30.3640723
50
186.9903648
51
186.9968551
0
ARC
8
DEFAULT_255_2_778
10
38.3912431
20
5.4779391
40
30.1585064
50
186.9974278
51
187.0039437
0
ARC
8
DEFAULT_255_2_778
10
38.2231649
20
5.4536637
40
29.9887228
50
186.997067
51
187.003601
0
ARC
8
DEFAULT_255_2_778
10
47.8795178
20
6.6406291
40
39.7177533
50
187.0046008
51
187.0095201
0
ARC
8
DEFAULT_255_2_778
10
-19.9835555
20
-1.7055519
40
28.6566239
50
7.0070817
51
7.0138802
0
ARC
8
DEFAULT_255_2_778
10
37.6602749
20
5.3810698
40
29.4211808
50
187.0102072
51
187.01681
0
ARC
8
DEFAULT_255_2_778
10
37.4673059
20
5.3572127
40
29.2267426
50
187.0166037
51
187.0232313
0
ARC
8
DEFAULT_255_2_778
10
37.2959103
20
5.3329765
40
29.05367
50
187.0171228
51
187.0237707
0
ARC
8
DEFAULT_255_2_778
10
37.1045547
20
5.3093018
40
28.8608554
50
187.0235765
51
187.0302496
0
ARC
8
DEFAULT_255_2_778
10
36.9413984
20
5.2856661
40
28.6960332
50
187.0232838
51
187.0299759
0
ARC
8
DEFAULT_255_2_778
10
36.7516227
20
5.2621719
40
28.5048087
50
187.0297925
51
187.0365101
0
ARC
8
DEFAULT_255_2_778
10
-18.9543465
20
-1.6152716
40
27.6240986
50
7.0328416
51
7.0397533
0
ARC
8
DEFAULT_255_2_778
10
36.4016324
20
5.2154019
40
28.1517251
50
187.0360807
51
187.0428433
0
ARC
8
DEFAULT_255_2_778
10
36.2142774
20
5.1921768
40
27.962936
50
187.0426834
51
187.049472
0
ARC
8
DEFAULT_255_2_778
10
45.2562394
20
6.3060104
40
37.0732429
50
187.0428682
51
187.0479737
0
ARC
8
DEFAULT_255_2_778
10
35.8754328
20
5.1463521
40
27.6210292
50
187.0482489
51
187.0550818
0
ARC
8
DEFAULT_255_2_778
10
35.7170583
20
5.1233425
40
27.461028
50
187.0480229
51
187.0548757
0
ARC
8
DEFAULT_255_2_778
10
35.5327923
20
5.1004721
40
27.2753481
50
187.0547376
51
187.0616171
0
ARC
8
DEFAULT_255_2_778
10
-17.9530442
20
-1.5263264
40
26.6194492
50
7.0570852
51
7.0641137
0
ARC
8
DEFAULT_255_2_778
10
35.1996124
20
5.0553501
40
26.9391484
50
187.0604384
51
187.0673634
0
ARC
8
DEFAULT_255_2_778
10
35.0242452
20
5.0331459
40
26.7623817
50
187.0663808
51
187.0733314
0
ARC
8
DEFAULT_255_2_778
10
34.8692222
20
5.0105758
40
26.6057595
50
187.0662057
51
187.0731768
0
ARC
8
DEFAULT_255_2_778
10
34.6953208
20
4.9885436
40
26.4304685
50
187.0721994
51
187.0791964
0
ARC
8
DEFAULT_255_2_778
10
-12.1672408
20
-0.8326381
40
20.7922574
50
7.0742103
51
7.0830788
0
ARC
8
DEFAULT_255_2_778
10
34.3691651
20
4.9442865
40
26.101345
50
187.0780864
51
187.0851305
0
ARC
8
DEFAULT_255_2_778
10
-16.9790459
20
-1.4391081
40
25.6421232
50
7.0805735
51
7.0877229
0
ARC
8
DEFAULT_255_2_778
10
34.0521793
20
4.9007686
40
25.781412
50
187.0831578
51
187.0902477
0
ARC
8
DEFAULT_255_2_778
10
245.8660959
20
31.2542136
40
239.228453
50
187.0919681
51
187.0931106
0
ARC
8
DEFAULT_255_2_778
10
33.6313812
20
4.8443217
40
25.3568641
50
187.0918187
51
187.1025505
0
ARC
8
DEFAULT_255_2_778
10
-11.3755744
20
-0.7647133
40
19.9982605
50
7.0966091
51
7.1056431
0
ARC
8
DEFAULT_255_2_778
10
33.2379836
20
4.7910108
40
24.9598937
50
187.1000099
51
187.1108328
0
ARC
8
DEFAULT_255_2_778
10
-15.9704421
20
-1.3487043
40
24.6300777
50
7.1059364
51
7.113218
0
ARC
8
DEFAULT_255_2_778
10
35.8983842
20
5.1186645
40
27.640392
50
187.1086256
51
187.1183276
0
ARC
8
DEFAULT_255_2_778
10
227.567336
20
29.0509413
40
220.7976879
50
187.1173962
51
187.1186054
0
ARC
8
DEFAULT_255_2_778
10
35.388196
20
5.0496473
40
27.1255837
50
187.117053
51
187.1268524
0
ARC
8
DEFAULT_255_2_778
10
40.0959105
20
5.6354249
40
31.8696014
50
187.1217861
51
187.1273235
0
ARC
8
DEFAULT_255_2_778
10
32.0234809
20
4.62469
40
23.7341416
50
187.1240869
51
187.1352045
0
ARC
8
DEFAULT_255_2_778
10
39.6026101
20
5.5701351
40
31.3720115
50
187.1291974
51
187.1347814
0
ARC
8
DEFAULT_255_2_778
10
31.6555008
20
4.5740371
40
23.3627196
50
187.1315359
51
187.1427474
0
ARC
8
DEFAULT_255_2_778
10
31.4575377
20
4.5461999
40
23.1628315
50
187.1353115
51
187.1428189
0
ARC
8
DEFAULT_255_2_778
10
38.9113499
20
5.4800456
40
30.6749139
50
187.1423869
51
187.1480391
0
ARC
8
DEFAULT_255_2_778
10
207.3712384
20
26.6036839
40
200.454012
50
187.1473017
51
187.148595
0
ARC
8
DEFAULT_255_2_778
10
30.9449511
20
4.4766822
40
22.6455784
50
187.148661
51
187.1562609
0
ARC
8
DEFAULT_255_2_778
10
202.7324376
20
26.0389416
40
195.7809923
50
187.1544241
51
187.1557384
0
ARC
8
DEFAULT_255_2_778
10
30.5945355
20
4.4278638
40
22.291811
50
187.1555065
51
187.1631702
0
ARC
8
DEFAULT_255_2_778
10
198.344386
20
25.5027937
40
191.3603326
50
187.1610126
51
187.1623475
0
ARC
8
DEFAULT_255_2_778
10
30.2478852
20
4.3795285
40
21.941839
50
187.1624544
51
187.1701828
0
ARC
8
DEFAULT_255_2_778
10
30.0955559
20
4.3584281
40
21.7880673
50
187.1651281
51
187.1767651
0
ARC
8
DEFAULT_255_2_778
10
29.9108102
20
4.3320375
40
21.6014723
50
187.1685337
51
187.1763259
0
ARC
8
DEFAULT_255_2_778
10
-377.626668
20
-46.9931503
40
389.1552332
50
7.1772607
51
7.1781228
0
ARC
8
DEFAULT_255_2_778
10
29.4904293
20
4.2735973
40
21.1770837
50
187.177376
51
187.1891897
0
ARC
8
DEFAULT_255_2_778
10
-12.7097382
20
-1.0496281
40
21.3575005
50
7.1819282
51
7.1897046
0
ARC
8
DEFAULT_255_2_778
10
31.7487443
20
4.5533927
40
23.4526603
50
187.1839991
51
187.1945875
0
ARC
8
DEFAULT_255_2_778
10
-8.1706539
20
-0.486368
40
16.7836113
50
7.1867943
51
7.1966166
0
ARC
8
DEFAULT_255_2_778
10
-379.4862259
20
-47.3781489
40
391.0483477
50
7.1962258
51
7.197066
0
ARC
8
DEFAULT_255_2_778
10
28.5857927
20
4.1453826
40
20.2635129
50
187.1944193
51
187.2065108
0
ARC
8
DEFAULT_255_2_778
10
30.8808185
20
4.4331534
40
22.5765088
50
187.2004093
51
187.2112135
0
ARC
8
DEFAULT_255_2_778
10
-7.6048451
20
-0.4368764
40
16.2160612
50
7.2030063
51
7.2129919
0
ARC
8
DEFAULT_255_2_778
10
30.5324318
20
4.3840612
40
22.2247157
50
187.205682
51
187.2165755
0
ARC
8
DEFAULT_255_2_778
10
27.9010374
20
4.0496796
40
19.572161
50
187.2131318
51
187.2213435
0
ARC
8
DEFAULT_255_2_778
10
-7.2841257
20
-0.4090367
40
15.8943843
50
7.2129775
51
7.2230591
0
ARC
8
DEFAULT_255_2_778
10
34.0587034
20
4.824762
40
25.7784145
50
187.216221
51
187.2224185
0
ARC
8
DEFAULT_255_2_778
10
27.5386599
20
3.997698
40
19.2061242
50
187.2200539
51
187.2283473
0
ARC
8
DEFAULT_255_2_778
10
29.7779121
20
4.2785552
40
21.462919
50
187.2200004
51
187.2310962
0
ARC
8
DEFAULT_255_2_778
10
33.4976396
20
4.7479978
40
25.2121514
50
187.2254163
51
187.2316869
0
ARC
8
DEFAULT_255_2_778
10
158.0832087
20
20.5578386
40
150.7968444
50
187.2320706
51
187.233638
0
ARC
8
DEFAULT_255_2_778
10
29.2448064
20
4.2033698
40
20.9245898
50
187.2294539
51
187.2406993
0
ARC
8
DEFAULT_255_2_778
10
80.0316424
20
10.6522982
40
72.119232
50
187.2378653
51
187.2416542
0
ARC
8
DEFAULT_255_2_778
10
-10.2052491
20
-0.8148508
40
18.8433541
50
7.2361921
51
7.2444383
0
ARC
8
DEFAULT_255_2_778
10
-157.3112192
20
-19.5215009
40
167.1339645
50
7.2440082
51
7.2458611
0
ARC
8
DEFAULT_255_2_778
10
26.2292227
20
3.809098
40
17.8833608
50
187.2465822
51
187.2551928
0
ARC
8
DEFAULT_255_2_778
10
77.1442882
20
10.2863134
40
69.2087758
50
187.2513426
51
187.255223
0
ARC
8
DEFAULT_255_2_778
10
107.8621691
20
14.1983077
40
100.1747557
50
187.2559837
51
187.2586505
0
ARC
8
DEFAULT_255_2_778
10
106.5785783
20
14.0367102
40
98.8810343
50
187.2597385
51
187.2624259
0
ARC
8
DEFAULT_255_2_778
10
74.639308
20
9.9666768
40
66.6834855
50
187.2625913
51
187.2665553
0
ARC
8
DEFAULT_255_2_778
10
73.8184644
20
9.8618557
40
65.8559763
50
187.266421
51
187.2704136
0
ARC
8
DEFAULT_255_2_778
10
73.0300602
20
9.7604067
40
65.0610724
50
187.2696572
51
187.2736772
0
ARC
8
DEFAULT_255_2_778
10
72.2482206
20
9.6597683
40
64.2727829
50
187.2729278
51
187.2769756
0
ARC
8
DEFAULT_255_2_778
10
-8.5378385
20
-0.6571303
40
17.169379
50
7.2715397
51
7.280156
0
ARC
8
DEFAULT_255_2_778
10
-147.9134175
20
-18.466438
40
157.6781809
50
7.2787703
51
7.2806401
0
ARC
8
DEFAULT_255_2_778
10
-146.7054892
20
-18.3275378
40
156.4623892
50
7.2824856
51
7.2843585
0
ARC
8
DEFAULT_255_2_778
10
-145.5116403
20
-18.1903716
40
155.2607842
50
7.2862464
51
7.2881223
0
ARC
8
DEFAULT_255_2_778
10
-51.87529
20
-6.2258595
40
60.8631387
50
7.2890105
51
7.2934699
0
ARC
8
DEFAULT_255_2_778
10
-143.4883486
20
-17.9650042
40
153.2252514
50
7.2949584
51
7.296837
0
ARC
8
DEFAULT_255_2_778
10
-142.2431282
20
-17.8195184
40
151.9716374
50
7.2982812
51
7.3001637
0
ARC
8
DEFAULT_255_2_778
10
-83.6440956
20
-10.3236582
40
92.8951242
50
7.3007643
51
7.3038253
0
ARC
8
DEFAULT_255_2_778
10
-7.1261735
20
-0.52311
40
15.7521199
50
7.3013896
51
7.3103654
0
ARC
8
DEFAULT_255_2_778
10
-139.4167443
20
-17.4952165
40
149.1269581
50
7.3078966
51
7.309786
0
ARC
8
DEFAULT_255_2_778
10
-81.4355253
20
-10.0676209
40
90.6719255
50
7.30988
51
7.3129686
0
ARC
8
DEFAULT_255_2_778
10
-75.0881154
20
-9.2633316
40
84.2737705
50
7.313387
51
7.3165866
0
ARC
8
DEFAULT_255_2_778
10
-79.7582923
20
-9.8738901
40
88.9836769
50
7.3174215
51
7.3205309
0
ARC
8
DEFAULT_255_2_778
10
50.7724907
20
6.8895354
40
42.6191262
50
187.3196939
51
187.326096
0
ARC
8
DEFAULT_255_2_778
10
50.8891414
20
6.9012609
40
42.73632
50
187.3217452
51
187.3281409
0
ARC
8
DEFAULT_255_2_778
10
-77.149131
20
-9.5677756
40
86.3567796
50
7.3269912
51
7.3301369
0
ARC
8
DEFAULT_255_2_778
10
-223.9893957
20
-28.474845
40
234.4092715
50
7.331588
51
7.3333148
0
ARC
8
DEFAULT_255_2_778
10
48.9443092
20
6.6429613
40
40.7744264
50
187.3333158
51
187.3398766
0
ARC
8
DEFAULT_255_2_778
10
-74.1845498
20
-9.2194546
40
83.3719877
50
7.3381437
51
7.3413327
0
ARC
8
DEFAULT_255_2_778
10
47.875901
20
6.5004611
40
39.696568
50
187.339591
51
187.3462474
0
ARC
8
DEFAULT_255_2_778
10
-72.5014921
20
-9.0202455
40
81.6772723
50
7.3438929
51
7.3471081
0
ARC
8
DEFAULT_255_2_778
10
46.8507773
20
6.3626506
40
38.6622379
50
187.3447385
51
187.3514892
0
ARC
8
DEFAULT_255_2_778
10
-48.1705814
20
-5.8978921
40
57.1468406
50
7.3481664
51
7.3527054
0
ARC
8
DEFAULT_255_2_778
10
54.6509792
20
7.3629675
40
46.5263176
50
187.3496904
51
187.3552312
0
ARC
8
DEFAULT_255_2_778
10
54.0029039
20
7.278528
40
45.8727648
50
187.35426
51
187.3598451
0
ARC
8
DEFAULT_255_2_778
10
-68.3741398
20
-8.5291038
40
77.5210034
50
7.3571717
51
7.3604563
0
ARC
8
DEFAULT_255_2_778
10
44.4065013
20
6.0325712
40
36.1958177
50
187.3567695
51
187.3637607
0
ARC
8
DEFAULT_255_2_778
10
52.2289557
20
7.041464
40
44.0830638
50
187.3611364
51
187.3668413
0
ARC
8
DEFAULT_255_2_778
10
43.4400684
20
5.9035282
40
35.220816
50
187.364211
51
187.3713073
0
ARC
8
DEFAULT_255_2_778
10
-65.1723144
20
-8.1461191
40
74.2964988
50
7.3669444
51
7.3702876
0
ARC
8
DEFAULT_255_2_778
10
-43.3413609
20
-5.3302016
40
52.284687
50
7.3694196
51
7.374141
0
ARC
8
DEFAULT_255_2_778
10
-42.7714872
20
-5.2634072
40
51.7109536
50
7.3722686
51
7.3770128
0
ARC
8
DEFAULT_255_2_778
10
49.4278396
20
6.6655604
40
41.2568695
50
187.3719113
51
187.3778208
0
ARC
8
DEFAULT_255_2_778
10
41.2318877
20
5.6019614
40
32.9921938
50
187.3737619
51
187.3811059
0
ARC
8
DEFAULT_255_2_778
10
48.3424567
20
6.5202022
40
40.1618067
50
187.3770361
51
187.3830316
0
ARC
8
DEFAULT_255_2_778
10
47.8289574
20
6.4505668
40
39.6436165
50
187.378591
51
187.3846272
0
ARC
8
DEFAULT_255_2_778
10
47.3059089
20
6.3801934
40
39.1158613
50
187.3808737
51
187.3869534
0
ARC
8
DEFAULT_255_2_778
10
46.8019229
20
6.311809
40
38.607266
50
187.3824722
51
187.3885937
0
LINE
8
DEFAULT_255_2_778
10
8.5152215
20
1.3469851
11
8.5162747
21
1.3388644
0
ARC
8
DEFAULT_255_2_778
10
-37.7010024
20
-4.6590808
40
46.60485
50
7.3893773
51
7.3943541
0
LINE
8
DEFAULT_255_2_778
10
8.5167956
20
1.3348499
11
8.51783
21
1.3268803
0
ARC
8
DEFAULT_255_2_778
10
-25.9977897
20
-3.1571247
40
34.8056648
50
7.3954332
51
7.4019731
0
ARC
8
DEFAULT_255_2_778
10
-35.5858237
20
-4.4061029
40
44.4747044
50
7.3960797
51
7.4011658
0
ARC
8
DEFAULT_255_2_778
10
53.3761909
20
7.1441434
40
45.233981
50
187.3989531
51
187.4039226
0
LINE
8
DEFAULT_255_2_778
10
8.5193553
20
1.3151348
11
8.5203589
21
1.3074112
0
ARC
8
DEFAULT_255_2_778
10
-58.6099772
20
-7.4216451
40
67.6954833
50
7.4038001
51
7.4086853
0
ARC
8
DEFAULT_255_2_778
10
-479.0541196
20
-62.0997105
40
491.6801144
50
7.4079448
51
7.4088326
0
ARC
8
DEFAULT_255_2_778
10
-246.8461099
20
-31.9245038
40
257.5196943
50
7.4098209
51
7.4114948
0
ARC
8
DEFAULT_255_2_778
10
48.6407721
20
6.5037323
40
40.4555173
50
187.4093809
51
187.4146481
0
ARC
8
DEFAULT_255_2_778
10
-160.2351508
20
-20.6840333
40
170.1823848
50
7.4139041
51
7.4163897
0
ARC
8
DEFAULT_255_2_778
10
47.0968859
20
6.2938829
40
38.8974599
50
187.4124757
51
187.4178512
0
ARC
8
DEFAULT_255_2_778
10
46.5685388
20
6.223222
40
38.3644119
50
187.4150772
51
187.4204931
0
ARC
8
DEFAULT_255_2_778
10
46.0453049
20
6.1532232
40
37.8365198
50
187.4177117
51
187.4231687
0
ARC
8
DEFAULT_255_2_778
10
-19.7135448
20
-2.414182
40
28.4780845
50
7.415527
51
7.4227316
0
ARC
8
DEFAULT_255_2_778
10
-19.3763364
20
-2.3747957
40
28.1386134
50
7.4173723
51
7.424618
0
ARC
8
DEFAULT_255_2_778
10
-109.36049
20
-14.1018831
40
118.8837094
50
7.419914
51
7.4233182
0
ARC
8
DEFAULT_255_2_778
10
43.7275791
20
5.8343027
40
35.4970162
50
187.4189682
51
187.4246039
0
LINE
8
DEFAULT_255_2_778
10
8.5281783
20
1.2473277
11
8.5419774
21
1.1414695
0
ARC
8
DEFAULT_255_2_778
10
-65.160237
20
-8.4788981
40
74.3274369
50
7.3248593
51
7.4367856
0
ARC
8
DEFAULT_255_2_778
10
-13.4004614
20
-1.8275562
40
22.1420491
50
7.0479132
51
7.3301603
0
ARC
8
DEFAULT_255_2_778
10
-0.6794044
20
-0.2545578
40
9.324108
50
6.6291554
51
7.0463912
0
ARC
8
DEFAULT_255_2_778
10
5.0074526
20
0.4021342
40
3.5994647
50
5.5885141
51
6.6960766
0
ARC
8
DEFAULT_255_2_778
10
7.701036
20
0.6624969
40
0.8933347
50
2.9330971
51
5.7927998
0
ARC
8
DEFAULT_255_2_778
10
8.3608454
20
0.6977496
40
0.2325905
50
0.1900799
51
2.5773493
0
ARC
8
DEFAULT_255_2_778
10
8.5050858
20
0.6979763
40
0.0883505
50
355.9771689
51
0.3533301
0
ARC
8
DEFAULT_255_2_778
10
8.570552
20
0.6930518
40
0.0227025
50
345.8464064
51
356.783952
0
ARC
8
DEFAULT_255_2_778
10
8.5904873
20
0.6876037
40
0.0020805
50
290.9020738
51
357.158949
0
ARC
8
DEFAULT_255_2_778
10
8.5949132
20
0.7325592
40
0.0470496
50
219.7411121
51
265.4441886
0
ARC
8
DEFAULT_255_2_778
10
8.6873655
20
0.8228226
40
0.1761485
50
208.8922597
51
223.0935006
0
ARC
8
DEFAULT_255_2_778
10
8.9392891
20
0.9676089
40
0.466698
50
202.4576095
51
209.5115453
0
ARC
8
DEFAULT_255_2_778
10
9.4277805
20
1.1730149
40
0.9966136
50
198.3825864
51
202.6430111
0
ARC
8
DEFAULT_255_2_778
10
10.1705858
20
1.4235792
40
1.7805366
50
196.0025885
51
198.49608
0
ARC
8
DEFAULT_255_2_778
10
11.2691368
20
1.7387387
40
2.9234014
50
193.8824154
51
196.0044991
0
ARC
8
DEFAULT_255_2_778
10
12.8269312
20
2.1265986
40
4.5287529
50
192.5093223
51
193.9174443
0
ARC
8
DEFAULT_255_2_778
10
14.8210106
20
2.5697013
40
6.5714699
50
191.3447999
51
192.5151575
0
ARC
8
DEFAULT_255_2_778
10
17.0702831
20
3.0239499
40
8.8661511
50
190.6560698
51
191.3636206
0
ARC
8
DEFAULT_255_2_778
10
19.9357677
20
3.5608776
40
11.7815053
50
189.7821547
51
190.6453827
0
ARC
8
DEFAULT_255_2_778
10
24.0568582
20
4.2728312
40
15.9636416
50
189.0971118
51
189.787246
0
ARC
8
DEFAULT_255_2_778
10
29.2350794
20
5.1021167
40
21.207847
50
188.4715793
51
189.097476
0
ARC
8
DEFAULT_255_2_778
10
35.7008128
20
6.0664575
40
27.7450988
50
187.9552374
51
188.4742532
0
ARC
8
DEFAULT_255_2_778
10
42.6639595
20
7.0420021
40
34.7762506
50
187.5783295
51
187.9592921
0
ARC
8
DEFAULT_255_2_778
10
51.0531716
20
8.1563522
40
43.2391492
50
187.1556497
51
187.5759909
0
ARC
8
DEFAULT_255_2_778
10
62.0456231
20
9.5369819
40
54.3179636
50
186.7786052
51
187.1562817
0
ARC
8
DEFAULT_255_2_778
10
77.1323579
20
11.3261491
40
69.5104179
50
186.345219
51
186.7752464
0
ARC
8
DEFAULT_255_2_778
10
97.3108067
20
13.5709935
40
89.8133517
50
185.9599948
51
186.3458544
0
ARC
8
DEFAULT_255_2_778
10
122.4163439
20
16.1891457
40
115.0550378
50
185.5578523
51
185.9585959
0
ARC
8
DEFAULT_255_2_778
10
142.8628237
20
18.1929807
40
135.5994706
50
185.3785334
51
185.5638344
0
ARC
8
DEFAULT_255_2_778
10
154.0134224
20
19.2441898
40
146.7995103
50
185.2234173
51
185.3790705
0
ARC
8
DEFAULT_255_2_778
10
160.5837352
20
19.845743
40
153.3973034
50
185.0976769
51
185.2237522
0
ARC
8
DEFAULT_255_2_778
10
162.557045
20
20.022445
40
155.378509
50
185.0097241
51
185.0979228
0
ARC
8
DEFAULT_255_2_778
10
160.7445736
20
19.8640538
40
153.5591299
50
184.9157105
51
185.009906
0
ARC
8
DEFAULT_255_2_778
10
155.4642191
20
19.4099118
40
148.259282
50
184.8402463
51
184.9157115
0
ARC
8
DEFAULT_255_2_778
10
146.3933289
20
18.6419755
40
139.1559432
50
184.7661806
51
184.840322
0
LINE
8
DEFAULT_255_2_778
10
7.866976
20
6.9279583
11
7.866976
21
7.3142583
0
LINE
8
DEFAULT_255_2_778
10
7.950876
20
7.3478583
11
8.219376
21
7.0964583
0
LINE
8
DEFAULT_255_2_778
10
7.718576
20
7.0795583
11
7.866976
21
6.9279583
0
LINE
8
DEFAULT_255_2_778
10
8.2030521
20
7.0957819
11
8.3707521
21
6.9448819
0
LINE
8
DEFAULT_255_2_778
10
8.3707521
20
6.9448819
11
8.2030521
21
7.0957819
0
LINE
8
DEFAULT_255_2_778
10
8.2030521
20
7.0957819
11
7.9516521
21
7.3470819
0
LINE
8
DEFAULT_255_2_778
10
7.9516521
20
7.3470819
11
8.2030521
21
7.0957819
0
LINE
8
DEFAULT_255_2_778
10
6.1387256
20
12.2309704
11
6.0212256
21
12.1135704
0
LINE
8
DEFAULT_255_2_778
10
6.0212256
20
12.1135704
11
6.1553256
21
12.2476704
0
LINE
8
DEFAULT_255_2_778
10
6.1553256
20
12.2476704
11
6.1387256
21
12.2309704
0
ARC
8
DEFAULT_255_2_778
10
7.6588651
20
7.5676961
40
4.6978374
50
66.5816134
51
70.6709022
0
ARC
8
DEFAULT_255_2_778
10
7.0219722
20
5.742871
40
6.6306107
50
70.6969326
51
74.7316449
0
ARC
8
DEFAULT_255_2_778
10
6.41127
20
3.544299
40
8.9124081
50
74.6662404
51
77.0434747
0
ARC
8
DEFAULT_255_2_778
10
5.7769989
20
0.7489619
40
11.7787913
50
77.0854261
51
80.0926824
0
ARC
8
DEFAULT_255_2_778
10
5.2129358
20
-2.407957
40
14.9856873
50
80.0449361
51
81.6464304
0
ARC
8
DEFAULT_255_2_778
10
4.8642743
20
-4.7579244
40
17.3613768
50
81.6346948
51
82.6161921
0
ARC
8
DEFAULT_255_2_778
10
4.5900589
20
-6.8620988
40
19.4833433
50
82.6117141
51
83.2002793
0
ARC
8
DEFAULT_255_2_778
10
4.2000073
20
-10.1448811
40
22.7892166
50
83.203725
51
83.698573
0
ARC
8
DEFAULT_255_2_778
10
2.9797524
20
-21.2052219
40
33.9166673
50
83.7004148
51
83.9328707
0
ARC
8
DEFAULT_255_2_778
10
21.8266962
20
156.4554984
40
144.7409358
50
263.9034833
51
263.9472099
0
LINE
8
DEFAULT_255_2_778
10
6.0043848
20
12.1108591
11
6.0032326
21
12.1097138
0
ARC
8
DEFAULT_255_2_778
10
5.93578
20
12.1635511
40
0.0863035
50
270.9326514
51
321.4048694
0
ARC
8
DEFAULT_255_2_778
10
5.9366965
20
12.1602826
40
0.0830249
50
216.5329664
51
270.3369829
0
ARC
8
DEFAULT_255_2_778
10
5.9876404
20
4.6270552
40
7.9237793
50
94.1299085
51
95.0127022
0
ARC
8
DEFAULT_255_2_778
10
6.2743634
20
1.3279012
40
11.2353684
50
94.9992268
51
95.8018081
0
ARC
8
DEFAULT_255_2_778
10
6.4818372
20
-0.7325758
40
13.3062639
50
95.7937225
51
96.4910475
0
ARC
8
DEFAULT_255_2_778
10
6.6108274
20
-1.868088
40
14.449079
50
96.4902385
51
97.4504652
0
ARC
8
DEFAULT_255_2_778
10
6.6389477
20
-2.0917999
40
14.6745485
50
97.4460702
51
98.5929659
0
ARC
8
DEFAULT_255_2_778
10
6.5023064
20
-1.2062398
40
13.7785131
50
98.5813539
51
100.3385291
0
ARC
8
DEFAULT_255_2_778
10
6.0876371
20
1.0247438
40
11.5093348
50
100.3009127
51
103.1863819
0
ARC
8
DEFAULT_255_2_778
10
5.3118935
20
4.2798797
40
8.1630742
50
103.0970329
51
107.823611
0
ARC
8
DEFAULT_255_2_778
10
4.5154187
20
6.7863812
40
5.5330926
50
107.9164178
51
111.7517228
0
ARC
8
DEFAULT_255_2_778
10
4.0992233
20
7.848385
40
4.3924748
50
111.8430505
51
113.5290668
0
ARC
8
DEFAULT_255_2_778
10
3.8978866
20
8.2936924
40
3.9038206
50
113.4289113
51
118.2551398
0
ARC
8
DEFAULT_255_2_778
10
3.998875
20
8.1054518
40
4.1174397
50
118.2529491
51
122.4393943
0
ARC
8
DEFAULT_255_2_778
10
4.1116034
20
7.9274334
40
4.3281483
50
122.4347325
51
125.8795755
0
ARC
8
DEFAULT_255_2_778
10
4.2020721
20
7.8011869
40
4.4834618
50
125.8707749
51
127.7718002
0
ARC
8
DEFAULT_255_2_778
10
4.3005871
20
7.6754225
40
4.6432154
50
127.7821514
51
131.5134507
0
ARC
8
DEFAULT_255_2_778
10
4.4031927
20
7.5587922
40
4.7985547
50
131.5078264
51
134.6240808
0
ARC
8
DEFAULT_255_2_778
10
4.448033
20
7.5129083
40
4.8627099
50
134.6203462
51
136.9042561
0
ARC
8
DEFAULT_255_2_778
10
4.4760312
20
7.4868246
40
4.9009755
50
136.9052167
51
138.8320514
0
ARC
8
DEFAULT_255_2_778
10
4.4168557
20
7.538094
40
4.8226801
50
138.8277909
51
138.9055024
0
ARC
8
DEFAULT_255_2_778
10
4.4506753
20
7.5082862
40
4.8677602
50
138.9027459
51
138.9778405
0
ARC
8
DEFAULT_255_2_778
10
4.4966072
20
7.4682182
40
4.9287126
50
138.9768864
51
139.0543583
0
ARC
8
DEFAULT_255_2_778
10
4.6152019
20
7.3651564
40
5.0858318
50
139.0529418
51
139.1284553
0
ARC
8
DEFAULT_255_2_778
10
4.7556146
20
7.2440094
40
5.2712832
50
139.1314172
51
139.2045512
0
ARC
8
DEFAULT_255_2_778
10
4.5574184
20
7.4150964
40
5.009458
50
139.2048637
51
139.2796438
0
ARC
8
DEFAULT_255_2_778
10
4.6080789
20
7.3715886
40
5.0762368
50
139.2804863
51
139.352193
0
ARC
8
DEFAULT_255_2_778
10
4.7329128
20
7.2643981
40
5.2407766
50
139.3520757
51
139.419562
0
ARC
8
DEFAULT_255_2_778
10
4.5076074
20
7.4571079
40
4.9442981
50
139.4172134
51
139.4867161
0
ARC
8
DEFAULT_255_2_778
10
4.6730518
20
7.3154797
40
5.1620831
50
139.4845308
51
139.5492095
0
ARC
8
DEFAULT_255_2_778
10
4.5076985
20
7.4562864
40
4.9449006
50
139.5476843
51
139.6132828
0
ARC
8
DEFAULT_255_2_778
10
4.6726824
20
7.3158164
40
5.1615835
50
139.6122382
51
139.673293
0
ARC
8
DEFAULT_255_2_778
10
4.898016
20
7.1245659
40
5.4571372
50
139.6735074
51
139.729609
0
ARC
8
DEFAULT_255_2_778
10
4.7567552
20
7.243956
40
5.2721818
50
139.7272685
51
139.7836809
0
ARC
8
DEFAULT_255_2_778
10
5.0744083
20
6.9755283
40
5.6880625
50
139.7849513
51
139.8357452
0
ARC
8
DEFAULT_255_2_778
10
4.9534611
20
7.0777877
40
5.5296794
50
139.8371729
51
139.8879273
0
ARC
8
DEFAULT_255_2_778
10
5.4218704
20
6.6834841
40
6.1419559
50
139.8900849
51
139.9344716
0
ARC
8
DEFAULT_255_2_778
10
5.2136085
20
6.8588909
40
5.8696683
50
139.9363241
51
139.981439
0
ARC
8
DEFAULT_255_2_778
10
5.0954503
20
6.9584841
40
5.7151363
50
139.9843675
51
140.0516503
0
ARC
8
DEFAULT_255_2_778
10
4.9142806
20
7.1097708
40
5.4791066
50
140.0480062
51
140.1151741
0
ARC
8
DEFAULT_255_2_778
10
5.0714811
20
6.9779157
40
5.6842836
50
140.1114168
51
140.173377
0
ARC
8
DEFAULT_255_2_778
10
5.3310227
20
6.7611354
40
6.0224486
50
140.1709366
51
140.2269004
0
ARC
8
DEFAULT_255_2_778
10
5.8574089
20
6.3226717
40
6.7075273
50
140.2248404
51
140.2808413
0
ARC
8
DEFAULT_255_2_778
10
6.2279955
20
6.0150744
40
7.1891396
50
140.2825513
51
140.335674
0
ARC
8
DEFAULT_255_2_778
10
6.0546213
20
6.1589787
40
6.9638241
50
140.3366154
51
140.391914
0
ARC
8
DEFAULT_255_2_778
10
7.4886989
20
4.9717368
40
8.8255766
50
140.3892692
51
140.430394
0
ARC
8
DEFAULT_255_2_778
10
7.0442724
20
5.338932
40
8.2490809
50
140.4300218
51
140.471488
0
ARC
8
DEFAULT_255_2_778
10
10.716387
20
2.3097325
40
13.0093827
50
140.4746422
51
140.4994201
0
ARC
8
DEFAULT_255_2_778
10
-4.3376151
20
14.6902688
40
6.481684
50
320.1366801
51
320.6991433
0
ARC
8
DEFAULT_255_2_778
10
0.527516
20
10.6198764
40
0.1385052
50
311.2671678
51
322.614339
0
ARC
8
DEFAULT_255_2_778
10
0.6175205
20
10.5176496
40
0.0023138
50
276.4089524
51
305.6771265
0
ARC
8
DEFAULT_255_2_778
10
0.6178525
20
10.5160469
40
0.0007006
50
162.3727596
51
263.9638969
0
ARC
8
DEFAULT_255_2_778
10
2.1675517
20
8.6460151
40
1.9827308
50
132.8321692
51
139.0476337
0
ARC
8
DEFAULT_255_2_778
10
2.0371232
20
8.7867566
40
1.7908461
50
125.3379909
51
132.8332581
0
ARC
8
DEFAULT_255_2_778
10
1.9708996
20
8.8795372
40
1.6768564
50
115.6132833
51
125.3257575
0
ARC
8
DEFAULT_255_2_778
10
2.0162369
20
8.748904
40
1.8143185
50
90.6815449
51
115.1209503
0
ARC
8
DEFAULT_255_2_778
10
2.0467395
20
8.3391368
40
2.2245671
50
89.9967594
51
91.34159
0
ARC
8
DEFAULT_255_2_778
10
2.0432193
20
8.1121626
40
2.451544
50
83.8371711
51
89.9147864
0
ARC
8
DEFAULT_255_2_778
10
1.9960941
20
7.6685986
40
2.8976037
50
78.9288745
51
83.8523122
0
ARC
8
DEFAULT_255_2_778
10
1.9092156
20
7.2154252
40
3.3590269
50
75.5956779
51
78.9588962
0
ARC
8
DEFAULT_255_2_778
10
1.6953895
20
6.4254026
40
4.1774201
50
68.6474361
51
75.4506216
0
ARC
8
DEFAULT_255_2_778
10
0.9376563
20
4.5499565
40
6.2000682
50
59.7185176
51
68.4361855
0
ARC
8
DEFAULT_255_2_778
10
-0.0932834
20
2.7055855
40
8.3127353
50
57.3895223
51
59.9924592
0
ARC
8
DEFAULT_255_2_778
10
-0.534542
20
2.008736
40
9.1375351
50
56.3705332
51
57.4136864
0
ARC
8
DEFAULT_255_2_778
10
-0.8971287
20
1.46625
40
9.7900368
50
54.5395755
51
56.3619683
0
ARC
8
DEFAULT_255_2_778
10
-1.2623634
20
0.9516147
40
10.421103
50
53.1461114
51
54.5454648
0
ARC
8
DEFAULT_255_2_778
10
-1.4508626
20
0.6991519
40
10.736173
50
52.0511265
51
53.1492613
0
ARC
8
DEFAULT_255_2_778
10
-1.4729363
20
0.6703802
40
10.7724354
50
51.1755723
51
52.0526529
0
ARC
8
DEFAULT_255_2_778
10
-1.3528016
20
0.8194874
40
10.5809535
50
50.4656589
51
51.1761826
0
ARC
8
DEFAULT_255_2_778
10
-1.1199473
20
1.10158
40
10.2151705
50
49.8836001
51
50.4657929
0
ARC
8
DEFAULT_255_2_778
10
-0.7056869
20
1.5925171
40
9.5728072
50
49.1729586
51
49.8864049
0
ARC
8
DEFAULT_255_2_778
10
-0.0248043
20
2.3803305
40
8.5315334
50
48.5455568
51
49.1740322
0
ARC
8
DEFAULT_255_2_778
10
0.8388643
20
3.3580461
40
7.2269832
50
48.0204825
51
48.5458172
0
ARC
8
DEFAULT_255_2_778
10
1.7412368
20
4.3613787
40
5.8775565
50
47.6446192
51
48.0177072
0
ARC
8
DEFAULT_255_2_778
10
2.8340161
20
5.5589883
40
4.2563117
50
47.1896747
51
47.6537755
0
ARC
8
DEFAULT_255_2_778
10
4.272537
20
7.1111651
40
2.1400429
50
46.791617
51
47.2028317
0
ARC
8
DEFAULT_255_2_778
10
5.4369281
20
8.351095
40
0.4390923
50
46.6248139
51
46.7609815
0
ARC
8
DEFAULT_255_2_778
10
7.0235131
20
7.6988753
40
1.3349699
50
132.9697485
51
133.3106963
0
ARC
8
DEFAULT_255_2_778
10
8.3322099
20
6.2956975
40
3.2537182
50
132.6131739
51
132.9903239
0
ARC
8
DEFAULT_255_2_778
10
9.4456392
20
5.0862235
40
4.8976622
50
132.247922
51
132.6196094
0
ARC
8
DEFAULT_255_2_778
10
10.3244849
20
4.1190584
40
6.204482
50
131.8851237
51
132.2506484
0
ARC
8
DEFAULT_255_2_778
10
11.1912706
20
3.1520194
40
7.5031283
50
131.3416123
51
131.8826469
0
ARC
8
DEFAULT_255_2_778
10
11.9979831
20
2.2353582
40
8.7242148
50
130.7318864
51
131.3427248
0
ARC
8
DEFAULT_255_2_778
10
12.6082272
20
1.5270847
40
9.659121
50
130.0670609
51
130.7334448
0
ARC
8
DEFAULT_255_2_778
10
12.9929587
20
1.0702372
40
10.2563878
50
129.4447576
51
130.0691081
0
ARC
8
DEFAULT_255_2_778
10
13.2399626
20
0.7699837
40
10.6451846
50
128.5617684
51
129.4446737
0
ARC
8
DEFAULT_255_2_778
10
13.3277637
20
0.6603008
40
10.7856813
50
127.5137567
51
128.563273
0
ARC
8
DEFAULT_255_2_778
10
13.2630921
20
0.7448024
40
10.6792721
50
126.6556285
51
127.5146119
0
ARC
8
DEFAULT_255_2_778
10
13.0667483
20
1.0098687
40
10.3494078
50
125.2393101
51
126.6596765
0
ARC
8
DEFAULT_255_2_778
10
12.7158462
20
1.5074868
40
9.7405107
50
123.6374173
51
125.2423863
0
ARC
8
DEFAULT_255_2_778
10
12.2487037
20
2.2118997
40
8.8952783
50
121.5283453
51
123.6456315
0
ARC
8
DEFAULT_255_2_778
10
11.6100886
20
3.260874
40
7.6672084
50
118.1053023
51
121.5596285
0
ARC
8
DEFAULT_255_2_778
10
10.5990215
20
5.2178733
40
5.4647478
50
108.6090722
51
118.4207262
0
ARC
8
DEFAULT_255_2_778
10
10.0691703
20
6.7056975
40
3.885726
50
104.4209628
51
108.2054798
0
ARC
8
DEFAULT_255_2_778
10
9.9201277
20
7.2883055
40
3.2843566
50
99.8276968
51
104.4340227
0
ARC
8
DEFAULT_255_2_778
10
9.8324644
20
7.7951579
40
2.7699792
50
94.6458262
51
99.8305032
0
ARC
8
DEFAULT_255_2_778
10
9.8012804
20
8.1652955
40
2.3985322
50
90.0465486
51
94.6195051
0
ARC
8
DEFAULT_255_2_778
10
9.8152389
20
8.6562069
40
1.9076863
50
71.776276
51
90.4777615
0
ARC
8
DEFAULT_255_2_778
10
9.880301
20
8.8890592
40
1.6662029
50
59.4184757
51
71.3973044
0
ARC
8
DEFAULT_255_2_778
10
9.8529764
20
8.8451212
40
1.7179315
50
51.1072677
51
59.3794606
0
ARC
8
DEFAULT_255_2_778
10
9.7591009
20
8.7289819
40
1.8672665
50
44.3453494
51
51.1027956
0
ARC
8
DEFAULT_255_2_778
10
9.6407635
20
8.6113547
40
2.034114
50
40.9890108
51
44.384904
0
ARC
8
DEFAULT_255_2_778
10
11.2333311
20
10.5202405
40
0.0058209
50
223.1566223
51
235.408409
0
ARC
8
DEFAULT_255_2_778
10
11.2303462
20
10.5158991
40
0.0005524
50
234.6236568
51
263.477963
0
ARC
8
DEFAULT_255_2_778
10
11.2302738
20
10.5154966
40
0.0001467
50
273.7971256
51
16.4237798
0
ARC
8
DEFAULT_255_2_778
10
11.1470825
20
10.4781956
40
0.0913162
50
24.1379476
51
36.6090399
0
ARC
8
DEFAULT_255_2_778
10
10.290158
20
9.9125612
40
1.1179595
50
33.6875184
51
36.4202659
0
ARC
8
DEFAULT_255_2_778
10
9.2648665
20
9.1621752
40
2.3885068
50
36.3028262
51
38.5425634
0
ARC
8
DEFAULT_255_2_778
10
8.5085842
20
8.5623062
40
3.3538062
50
38.5075168
51
40.7001301
0
ARC
8
DEFAULT_255_2_778
10
8.0258584
20
8.1480996
40
3.9898808
50
40.689188
51
43.1787627
0
ARC
8
DEFAULT_255_2_778
10
7.7575596
20
7.8972101
40
4.3572082
50
43.1703936
51
46.091559
0
ARC
8
DEFAULT_255_2_778
10
7.6641599
20
7.8011381
40
4.4911968
50
46.0831015
51
49.6666938
0
ARC
8
DEFAULT_255_2_778
10
7.6843751
20
7.8253236
40
4.4596765
50
49.6635615
51
52.1164312
0
ARC
8
DEFAULT_255_2_778
10
7.7436939
20
7.9020735
40
4.3626756
50
52.1123465
51
55.2614721
0
ARC
8
DEFAULT_255_2_778
10
7.8324065
20
8.030693
40
4.2064298
50
55.256147
51
59.1358109
0
ARC
8
DEFAULT_255_2_778
10
7.9306757
20
8.1956799
40
4.0143949
50
59.1317268
51
63.6409083
0
ARC
8
DEFAULT_255_2_778
10
7.9997998
20
8.333386
40
3.8603154
50
63.6527265
51
66.5794784
0
LINE
8
DEFAULT_255_2_778
10
6.4546848
20
12.5331591
11
6.1551848
21
12.2450591
0
LINE
8
DEFAULT_255_2_778
10
6.1551848
20
12.2450591
11
6.1384848
21
12.2283591
0
LINE
8
DEFAULT_255_2_778
10
6.1384848
20
12.2283591
11
6.0043848
21
12.1108591
0
LINE
8
DEFAULT_255_2_778
10
5.8699848
20
12.1108591
11
5.7357848
21
12.2283591
0
LINE
8
DEFAULT_255_2_778
10
5.7357848
20
12.2283591
11
5.7191848
21
12.2450591
0
LINE
8
DEFAULT_255_2_778
10
5.7191848
20
12.2450591
11
5.4169848
21
12.5302591
0
LINE
8
DEFAULT_255_2_778
10
0.6171848
20
10.5162591
11
0.6700848
21
9.9455591
0
LINE
8
DEFAULT_255_2_778
10
5.7384848
20
8.6702591
11
5.9231848
21
8.8379591
0
LINE
8
DEFAULT_255_2_778
10
5.9231848
20
8.8379591
11
6.1077848
21
8.6702591
0
LINE
8
DEFAULT_255_2_778
10
11.1761848
20
9.9455591
11
11.2290848
21
10.5162591
0
LINE
8
DEFAULT_255_2_778
10
9.5341848
20
11.8756591
11
9.5259848
21
11.8785591
0
ARC
8
DEFAULT_255_2_778
10
4.4606878
20
11.8168152
40
1.3355192
50
307.2871546
51
323.516536
0
ARC
8
DEFAULT_255_2_778
10
4.3722441
20
11.9350842
40
1.4831958
50
292.9540582
51
307.2376327
0
ARC
8
DEFAULT_255_2_778
10
4.2580058
20
12.2050442
40
1.7763319
50
281.4839937
51
292.9511596
0
ARC
8
DEFAULT_255_2_778
10
4.1649021
20
12.6609135
40
2.2416111
50
272.0381016
51
281.4962356
0
ARC
8
DEFAULT_255_2_778
10
4.1419925
20
13.0626622
40
2.6439345
50
269.9867979
51
272.2246271
0
ARC
8
DEFAULT_255_2_778
10
4.1498813
20
11.8314988
40
1.4127966
50
254.9606757
51
269.6553611
0
ARC
8
DEFAULT_255_2_778
10
4.6992113
20
13.6528024
40
3.314764
50
244.2268627
51
253.9594943
0
ARC
8
DEFAULT_255_2_778
10
25.6421514
20
60.1565219
40
54.3156432
50
245.622549
51
245.6623067
0
ARC
8
DEFAULT_255_2_778
10
-26.650669
20
-55.2565147
40
72.3915314
50
65.6269443
51
65.6326928
0
ARC
8
DEFAULT_255_2_778
10
1.6188973
20
7.383401
40
3.6692147
50
64.1806135
51
72.9887385
0
ARC
8
DEFAULT_255_2_778
10
2.2955676
20
9.5142052
40
1.4338682
50
73.934878
51
89.0167575
0
ARC
8
DEFAULT_255_2_778
10
2.307606
20
9.6905679
40
1.2573571
50
89.4273435
51
89.9986058
0
ARC
8
DEFAULT_255_2_778
10
2.3078343
20
9.7011608
40
1.2467642
50
90.0090858
51
101.2990335
0
ARC
8
DEFAULT_255_2_778
10
2.3355816
20
9.5683278
40
1.3824596
50
101.348087
51
110.1069163
0
ARC
8
DEFAULT_255_2_778
10
2.4317115
20
9.3054316
40
1.6623796
50
110.1032772
51
117.0881922
0
ARC
8
DEFAULT_255_2_778
10
2.6104048
20
8.9539339
40
2.0566907
50
117.0612634
51
122.4149581
0
ARC
8
DEFAULT_255_2_778
10
2.8821433
20
8.5250638
40
2.5644024
50
122.4038703
51
126.8999057
0
ARC
8
DEFAULT_255_2_778
10
3.2574999
20
8.023238
40
3.1910767
50
126.879466
51
130.4272504
0
ARC
8
DEFAULT_255_2_778
10
3.7598943
20
7.4333975
40
3.9658748
50
130.4263363
51
133.6555563
0
ARC
8
DEFAULT_255_2_778
10
4.4293051
20
6.7305688
40
4.9364819
50
133.645608
51
136.3597973
0
ARC
8
DEFAULT_255_2_778
10
5.2665766
20
5.9310854
40
6.0941507
50
136.3527251
51
138.6768715
0
ARC
8
DEFAULT_255_2_778
10
5.6769922
20
5.5640514
40
6.6447278
50
138.6368421
51
138.7086657
0
ARC
8
DEFAULT_255_2_778
10
-25.2969925
20
7.991036
40
27.821589
50
356.8470984
51
357.245443
0
ARC
8
DEFAULT_255_2_778
10
-35.8929352
20
8.5041645
40
38.4299485
50
357.2404926
51
357.515032
0
ARC
8
DEFAULT_255_2_778
10
-50.1905738
20
9.1213682
40
52.7409025
50
357.518599
51
357.8340763
0
ARC
8
DEFAULT_255_2_778
10
-69.383931
20
9.8506806
40
71.9481108
50
357.8313629
51
358.0697848
0
ARC
8
DEFAULT_255_2_778
10
-98.6817171
20
10.8257436
40
101.2621163
50
358.0767473
51
358.4140156
0
ARC
8
DEFAULT_255_2_778
10
-125.3425039
20
11.5815631
40
127.9336098
50
358.4061171
51
358.5450409
0
ARC
8
DEFAULT_255_2_778
10
-134.8847298
20
11.8259744
40
137.4789652
50
358.5441887
51
358.6378427
0
ARC
8
DEFAULT_255_2_778
10
-134.3095958
20
11.8129643
40
136.9036844
50
358.6375641
51
358.7191733
0
ARC
8
DEFAULT_255_2_778
10
-124.1336594
20
11.5857498
40
126.7252117
50
358.7190364
51
358.7773866
0
ARC
8
DEFAULT_255_2_778
10
-106.394403
20
11.207273
40
108.9819183
50
358.7773277
51
358.8174111
0
ARC
8
DEFAULT_255_2_778
10
-81.93511
20
10.7040694
40
84.5174496
50
358.8162524
51
358.8637497
0
ARC
8
DEFAULT_255_2_778
10
-42.7182203
20
9.9270578
40
45.292863
50
358.8627219
51
358.903015
0
ARC
8
DEFAULT_255_2_778
10
-5.818651
20
9.2200029
40
8.3865203
50
358.9063585
51
358.9213514
0
ARC
8
DEFAULT_255_2_778
10
4.0030753
20
7.3083446
40
0.0645152
50
81.9737904
51
132.8698847
0
ARC
8
DEFAULT_255_2_778
10
4.0184066
20
7.3256511
40
0.047004
50
352.2687833
51
97.731323
0
LINE
8
DEFAULT_255_2_778
10
5.7693833
20
8.6732278
11
5.5344833
21
11.0227278
0
LINE
8
DEFAULT_255_2_778
10
0.6843833
20
9.9488278
11
1.0706833
21
6.0382278
0
LINE
8
DEFAULT_255_2_778
10
1.0706833
20
6.0382278
11
1.5405833
21
6.5250278
0
LINE
8
DEFAULT_255_2_778
10
1.5405833
20
6.5250278
11
1.5934833
21
9.7807278
0
LINE
8
DEFAULT_255_2_778
10
1.5934833
20
9.7807278
11
1.6606833
21
9.8337278
0
LINE
8
DEFAULT_255_2_778
10
1.6606833
20
9.8337278
11
1.6773833
21
5.7556278
0
LINE
8
DEFAULT_255_2_778
10
1.6773833
20
5.7556278
11
2.2311833
21
6.2425278
0
LINE
8
DEFAULT_255_2_778
10
2.2311833
20
6.2425278
11
2.4824833
21
6.4608278
0
LINE
8
DEFAULT_255_2_778
10
2.5663833
20
9.0621278
11
2.6502833
21
9.1151278
0
LINE
8
DEFAULT_255_2_778
10
2.6502833
20
9.1151278
11
2.6668833
21
6.1110278
0
LINE
8
DEFAULT_255_2_778
10
2.6668833
20
6.1110278
11
3.1201833
21
6.5475278
0
LINE
8
DEFAULT_255_2_778
10
3.1201833
20
6.5475278
11
3.4222833
21
6.8497278
0
LINE
8
DEFAULT_255_2_778
10
3.4222833
20
6.8497278
11
3.4558833
21
8.3578278
0
LINE
8
DEFAULT_255_2_778
10
3.4558833
20
8.3578278
11
3.5397833
21
8.4250278
0
LINE
8
DEFAULT_255_2_778
10
3.5397833
20
8.4250278
11
3.5397833
21
6.9534278
0
LINE
8
DEFAULT_255_2_778
10
3.5397833
20
6.9534278
11
3.6905833
21
7.1042278
0
LINE
8
DEFAULT_255_2_778
10
3.6905833
20
7.1042278
11
3.9591833
21
7.3556278
0
LINE
8
DEFAULT_255_2_778
10
4.0649833
20
7.3193278
11
4.0649833
21
6.9330278
0
LINE
8
DEFAULT_255_2_778
10
4.0649833
20
6.9330278
11
5.7693833
21
8.6732278
0
ARC
8
DEFAULT_255_2_778
10
4.6739403
20
13.054147
40
0.0703139
50
114.3963838
51
180.102635
0
ARC
8
DEFAULT_255_2_778
10
4.7003853
20
13.0554668
40
0.0967694
50
180.8560116
51
202.9829233
0
LINE
8
DEFAULT_255_2_778
10
5.8695974
20
11.8261825
11
5.8707497
21
11.8250373
0
ARC
8
DEFAULT_255_2_778
10
5.9382022
20
11.8788745
40
0.0863035
50
218.5951306
51
269.0673486
0
ARC
8
DEFAULT_255_2_778
10
5.9373622
20
11.8754533
40
0.0828727
50
269.6094948
51
323.5203804
0
ARC
8
DEFAULT_255_2_778
10
7.2831869
20
13.0002208
40
0.0208034
50
154.0244541
51
177.9017245
0
ARC
8
DEFAULT_255_2_778
10
7.2779668
20
13.0027003
40
0.0150249
50
85.6843665
51
153.8056083
0
ARC
8
DEFAULT_255_2_778
10
7.1583098
20
13.0579227
40
0.1273143
50
341.5746222
51
358.9345586
0
ARC
8
DEFAULT_255_2_778
10
7.2196709
20
13.0574894
40
0.0659595
50
358.319712
51
66.9489265
0
LINE
8
DEFAULT_255_2_778
10
7.2462974
20
13.1181825
11
4.6448974
21
13.1181825
0
LINE
8
DEFAULT_255_2_778
10
4.6112974
20
13.0176825
11
4.6278974
21
13.0009825
0
LINE
8
DEFAULT_255_2_778
10
4.6278974
20
13.0009825
11
5.7354974
21
11.9603825
0
LINE
8
DEFAULT_255_2_778
10
5.7354974
20
11.9603825
11
5.8695974
21
11.8261825
0
LINE
8
DEFAULT_255_2_778
10
6.0039974
20
11.8261825
11
6.1548974
21
11.9603825
0
LINE
8
DEFAULT_255_2_778
10
6.1548974
20
11.9603825
11
7.2623974
21
13.0009825
0
LINE
8
DEFAULT_255_2_778
10
7.2454974
20
13.1181825
11
7.2462974
21
13.1181825
0
ARC
8
DEFAULT_255_2_778
10
7.4542326
20
11.8218425
40
1.3439731
50
216.4868087
51
232.597853
0
ARC
8
DEFAULT_255_2_778
10
7.5422261
20
11.9387273
40
1.4902735
50
232.6399596
51
247.3512804
0
ARC
8
DEFAULT_255_2_778
10
7.6505841
20
12.199077
40
1.7722724
50
247.3594829
51
259.3142156
0
ARC
8
DEFAULT_255_2_778
10
7.7342213
20
12.6378485
40
2.2189434
50
259.2928225
51
268.9060505
0
ARC
8
DEFAULT_255_2_778
10
7.7493104
20
12.9801374
40
2.5614722
50
268.714769
51
270.0039415
0
ARC
8
DEFAULT_255_2_778
10
7.7409885
20
11.8314364
40
1.4127966
50
270.3446389
51
285.0393243
0
ARC
8
DEFAULT_255_2_778
10
7.1916586
20
13.65274
40
3.314764
50
286.0405057
51
295.7731373
0
ARC
8
DEFAULT_255_2_778
10
-13.7512816
20
60.1564595
40
54.3156432
50
294.3376933
51
294.377451
0
ARC
8
DEFAULT_255_2_778
10
38.5415389
20
-55.2565771
40
72.3915314
50
114.3673072
51
114.3730557
0
ARC
8
DEFAULT_255_2_778
10
10.2719725
20
7.3833386
40
3.6692147
50
107.0112615
51
115.8193865
0
ARC
8
DEFAULT_255_2_778
10
9.5953022
20
9.5141428
40
1.4338682
50
90.9832425
51
106.065122
0
ARC
8
DEFAULT_255_2_778
10
9.5832638
20
9.6905055
40
1.2573571
50
90.0013942
51
90.5726565
0
ARC
8
DEFAULT_255_2_778
10
9.5830355
20
9.7010983
40
1.2467642
50
78.7009665
51
89.9909142
0
ARC
8
DEFAULT_255_2_778
10
9.5552882
20
9.5682653
40
1.3824596
50
69.8930837
51
78.651913
0
ARC
8
DEFAULT_255_2_778
10
9.4591584
20
9.3053692
40
1.6623796
50
62.9118078
51
69.8967228
0
ARC
8
DEFAULT_255_2_778
10
9.280465
20
8.9538715
40
2.0566907
50
57.5850419
51
62.9387366
0
ARC
8
DEFAULT_255_2_778
10
9.0087265
20
8.5250014
40
2.5644024
50
53.1000943
51
57.5961297
0
ARC
8
DEFAULT_255_2_778
10
8.6333699
20
8.0231756
40
3.1910767
50
49.5727496
51
53.120534
0
ARC
8
DEFAULT_255_2_778
10
8.1309755
20
7.4333351
40
3.9658748
50
46.3444437
51
49.5736637
0
ARC
8
DEFAULT_255_2_778
10
7.4615648
20
6.7305064
40
4.9364819
50
43.6402027
51
46.354392
0
ARC
8
DEFAULT_255_2_778
10
6.6242932
20
5.931023
40
6.0941507
50
41.3231285
51
43.6472749
0
ARC
8
DEFAULT_255_2_778
10
6.2138777
20
5.563989
40
6.6447278
50
41.2913343
51
41.3631579
0
ARC
8
DEFAULT_255_2_778
10
7.8875191
20
7.2869266
40
0.0644609
50
46.9936048
51
97.9652867
0
ARC
8
DEFAULT_255_2_778
10
7.8723116
20
7.3041403
40
0.0470454
50
82.3350183
51
187.6649817
0
LINE
8
DEFAULT_255_2_778
10
6.1386866
20
8.6731654
11
6.3736866
21
11.0226654
0
LINE
8
DEFAULT_255_2_778
10
11.2064866
20
9.9487654
11
10.8704866
21
6.2233654
0
LINE
8
DEFAULT_255_2_778
10
10.8704866
20
6.2233654
11
10.8368866
21
6.0386654
0
LINE
8
DEFAULT_255_2_778
10
10.8368866
20
6.0386654
11
10.3669866
21
6.5255654
0
LINE
8
DEFAULT_255_2_778
10
10.3669866
20
6.5255654
11
10.2997866
21
9.7812654
0
LINE
8
DEFAULT_255_2_778
10
10.2997866
20
9.7812654
11
10.2325866
21
9.8341654
0
LINE
8
DEFAULT_255_2_778
10
10.2325866
20
9.8341654
11
10.2158866
21
5.7561654
0
LINE
8
DEFAULT_255_2_778
10
10.2158866
20
5.7561654
11
9.6620866
21
6.2429654
0
LINE
8
DEFAULT_255_2_778
10
9.6620866
20
6.2429654
11
9.4107866
21
6.4612654
0
LINE
8
DEFAULT_255_2_778
10
9.4107866
20
6.4612654
11
9.3578866
21
9.0626654
0
LINE
8
DEFAULT_255_2_778
10
9.3578866
20
9.0626654
11
9.2572866
21
9.1155654
0
LINE
8
DEFAULT_255_2_778
10
9.2572866
20
9.1155654
11
9.2406866
21
6.0947654
0
LINE
8
DEFAULT_255_2_778
10
9.2406866
20
6.0947654
11
8.7873866
21
6.5313654
0
LINE
8
DEFAULT_255_2_778
10
8.7873866
20
6.5313654
11
8.4852866
21
6.8335654
0
LINE
8
DEFAULT_255_2_778
10
8.4852866
20
6.8335654
11
8.4516866
21
8.3416654
0
LINE
8
DEFAULT_255_2_778
10
8.4516866
20
8.3416654
11
8.3677866
21
8.4088654
0
LINE
8
DEFAULT_255_2_778
10
8.3677866
20
8.4088654
11
8.3677866
21
6.9319654
0
LINE
8
DEFAULT_255_2_778
10
8.3677866
20
6.9319654
11
8.2000866
21
7.0827654
0
LINE
8
DEFAULT_255_2_778
10
8.2000866
20
7.0827654
11
7.9314866
21
7.3340654
0
LINE
8
DEFAULT_255_2_778
10
7.8256866
20
7.2978654
11
7.8256866
21
6.9115654
0
LINE
8
DEFAULT_255_2_778
10
7.8256866
20
6.9115654
11
6.1386866
21
8.6731654
0
LINE
8
DEFAULT_255_2_778
10
10.6194
20
13.7415108
11
10.6194
21
14.0267108
0
LINE
8
DEFAULT_255_2_778
10
10.6194
20
14.0267108
11
10.6194
21
13.7415108
0
LINE
8
DEFAULT_255_2_778
10
10.6194
20
13.7415108
11
10.6194
21
13.7415108
0
ARC
8
DEFAULT_255_2_778
10
4.3446925
20
14.4841111
40
0.3901368
50
269.3252139
51
285.5320293
0
ARC
8
DEFAULT_255_2_778
10
4.3816216
20
14.3545257
40
0.2553964
50
285.3344941
51
318.7264924
0
ARC
8
DEFAULT_255_2_778
10
4.297617
20
14.4096982
40
0.3552004
50
320.9769656
51
352.1705775
0
ARC
8
DEFAULT_255_2_778
10
3.9492202
20
14.4776704
40
0.7098873
50
350.5659582
51
0.3708278
0
ARC
8
DEFAULT_255_2_778
10
3.6528219
20
14.4810439
40
1.0062716
50
0.0695174
51
3.7639312
0
ARC
8
DEFAULT_255_2_778
10
3.2180971
20
14.4456483
40
1.4423981
50
4.0333103
51
11.4892286
0
ARC
8
DEFAULT_255_2_778
10
2.7439804
20
14.3566778
40
1.9247497
50
11.2734509
51
14.1634188
0
ARC
8
DEFAULT_255_2_778
10
2.6510106
20
14.3343287
40
2.0203623
50
14.1328212
51
14.3032237
0
ARC
8
DEFAULT_255_2_778
10
2.588978
20
14.3183668
40
2.0844154
50
14.3071208
51
16.2364808
0
ARC
8
DEFAULT_255_2_778
10
2.6579516
20
14.3386905
40
2.0125103
50
16.2299921
51
17.4529834
0
ARC
8
DEFAULT_255_2_778
10
2.9217895
20
14.4220568
40
1.7358153
50
17.4398699
51
18.6312412
0
ARC
8
DEFAULT_255_2_778
10
3.4073129
20
14.5858577
40
1.2234054
50
18.6263803
51
19.4931354
0
ARC
8
DEFAULT_255_2_778
10
4.0550485
20
14.8155015
40
0.5361665
50
19.4572808
51
20.1501901
0
ARC
8
DEFAULT_255_2_778
10
4.4635301
20
14.987214
40
0.0957526
50
6.2736659
51
7.7952896
0
ARC
8
DEFAULT_255_2_778
10
4.3395847
20
14.9732719
40
0.2204796
50
4.4670198
51
6.3553079
0
ARC
8
DEFAULT_255_2_778
10
4.2475667
20
14.9659948
40
0.3127849
50
2.0726033
51
4.4831844
0
ARC
8
DEFAULT_255_2_778
10
4.1962535
20
14.963962
40
0.3641381
50
359.9859034
51
2.1002358
0
ARC
8
DEFAULT_255_2_778
10
4.1676956
20
14.9640594
40
0.3926959
50
352.6859749
51
359.9727238
0
ARC
8
DEFAULT_255_2_778
10
4.2038836
20
14.9583343
40
0.3560752
50
339.7291295
51
352.858389
0
ARC
8
DEFAULT_255_2_778
10
4.2432486
20
14.9450476
40
0.314547
50
335.7088667
51
339.5151721
0
ARC
8
DEFAULT_255_2_778
10
4.2728408
20
14.9301474
40
0.2814487
50
308.9254781
51
335.9954162
0
ARC
8
DEFAULT_255_2_778
10
4.2473563
20
14.9663645
40
0.3256495
50
288.2328712
51
308.4100512
0
ARC
8
DEFAULT_255_2_778
10
4.1958428
20
15.1195726
40
0.487284
50
274.9749899
51
288.3494504
0
ARC
8
DEFAULT_255_2_778
10
4.1734415
20
15.323809
40
0.6927089
50
269.888862
51
275.3559081
0
ARC
8
DEFAULT_255_2_778
10
4.1678943
20
17.6996886
40
3.0685902
50
266.8233583
51
270.0784873
0
ARC
8
DEFAULT_255_2_778
10
4.1266656
20
16.959985
40
2.3277385
50
262.9839794
51
266.827667
0
ARC
8
DEFAULT_255_2_778
10
4.0670356
20
16.4775683
40
1.8416504
50
258.0195193
51
262.9920008
0
ARC
8
DEFAULT_255_2_778
10
4.0360006
20
16.3203125
40
1.6813792
50
252.3072453
51
257.9416905
0
ARC
8
DEFAULT_255_2_778
10
4.339797
20
17.2366458
40
2.6467201
50
248.5230201
51
252.0703827
0
ARC
8
DEFAULT_255_2_778
10
2335.6051261
20
6027.5282952
40
6449.2274687
50
248.7990699
51
248.7996641
0
ARC
8
DEFAULT_255_2_778
10
2.5911661
20
13.0139538
40
1.9227205
50
68.096915
51
74.9637953
0
ARC
8
DEFAULT_255_2_778
10
2.7541661
20
13.5666079
40
1.3467746
50
75.5613024
51
82.1051721
0
ARC
8
DEFAULT_255_2_778
10
2.7191045
20
13.3054545
40
1.6102689
50
82.1457859
51
87.3116833
0
ARC
8
DEFAULT_255_2_778
10
2.6968602
20
12.8818812
40
2.0344208
50
87.2454158
51
90.0468181
0
ARC
8
DEFAULT_255_2_778
10
2.6923151
20
12.5939415
40
2.3223617
50
89.9288786
51
93.9731838
0
ARC
8
DEFAULT_255_2_778
10
2.6595605
20
13.05696
40
1.8581866
50
93.9548827
51
98.6411474
0
ARC
8
DEFAULT_255_2_778
10
2.600802
20
13.4427494
40
1.4679482
50
98.6361345
51
103.5752444
0
ARC
8
DEFAULT_255_2_778
10
2.5231734
20
13.7620608
40
1.1393365
50
103.5495766
51
109.1343978
0
ARC
8
DEFAULT_255_2_778
10
2.4677656
20
13.9280957
40
0.9643152
50
109.2578127
51
110.3110844
0
ARC
8
DEFAULT_255_2_778
10
2.4105704
20
14.0765119
40
0.8052765
50
110.1601692
51
116.0747951
0
ARC
8
DEFAULT_255_2_778
10
2.3003099
20
14.3007587
40
0.5553891
50
116.0261076
51
122.0885573
0
ARC
8
DEFAULT_255_2_778
10
2.174983
20
14.4997874
40
0.3201893
50
122.0079304
51
127.6232793
0
ARC
8
DEFAULT_255_2_778
10
2.0486384
20
14.6634627
40
0.1134226
50
127.5465927
51
131.3548136
0
ARC
8
DEFAULT_255_2_778
10
2.5028482
20
12.4185961
40
2.3893357
50
99.9171558
51
102.7950001
0
ARC
8
DEFAULT_255_2_778
10
2.4609587
20
12.6577754
40
2.1465159
50
96.9533197
51
99.9152542
0
ARC
8
DEFAULT_255_2_778
10
2.4364516
20
12.8596485
40
1.9431605
50
93.5509782
51
96.9566249
0
ARC
8
DEFAULT_255_2_778
10
2.4261457
20
13.0242145
40
1.7782722
50
90.0231554
51
93.5479668
0
ARC
8
DEFAULT_255_2_778
10
2.4275935
20
13.1952354
40
1.6072526
50
82.2188021
51
90.0772293
0
ARC
8
DEFAULT_255_2_778
10
2.4363748
20
13.2718008
40
1.5302041
50
72.5465625
51
82.15643
0
ARC
8
DEFAULT_255_2_778
10
2.339822
20
12.9914692
40
1.8266062
50
62.1149637
51
72.294759
0
ARC
8
DEFAULT_255_2_778
10
1.4278715
20
11.2872405
40
3.7594825
50
57.2255582
51
61.9778643
0
LINE
8
DEFAULT_255_2_778
10
3.4630042
20
14.448244
11
3.464529
21
14.4472815
0
LINE
8
DEFAULT_255_2_778
10
3.464529
20
14.4472815
11
3.4660414
21
14.4463266
0
LINE
8
DEFAULT_255_2_778
10
3.4660414
20
14.4463266
11
3.4667915
21
14.4458528
0
LINE
8
DEFAULT_255_2_778
10
3.4667915
20
14.4458528
11
3.4682855
21
14.4449091
0
LINE
8
DEFAULT_255_2_778
10
3.4682855
20
14.4449091
11
3.4690265
21
14.4444409
0
LINE
8
DEFAULT_255_2_778
10
3.4690265
20
14.4444409
11
3.4697644
21
14.4439745
0
LINE
8
DEFAULT_255_2_778
10
3.4697644
20
14.4439745
11
3.4704994
21
14.44351
0
ARC
8
DEFAULT_255_2_778
10
9.9147572
20
24.6354325
40
12.0583475
50
237.6952132
51
237.7034419
0
LINE
8
DEFAULT_255_2_778
10
3.4719632
20
14.4425846
11
3.4726892
21
14.4421255
0
LINE
8
DEFAULT_255_2_778
10
3.4726892
20
14.4421255
11
3.4741352
21
14.441211
0
ARC
8
DEFAULT_255_2_778
10
13.3442365
20
29.909408
40
18.3489514
50
237.4584611
51
238.0444093
0
ARC
8
DEFAULT_255_2_778
10
6.1779955
20
18.4575164
40
4.8397163
50
238.2718305
51
238.5845092
0
ARC
8
DEFAULT_255_2_778
10
4.6054417
20
15.7986187
40
1.7514582
50
237.1485159
51
251.1814671
0
ARC
8
DEFAULT_255_2_778
10
4.3425377
20
15.0901943
40
0.9963046
50
252.3508445
51
266.998967
0
ARC
8
DEFAULT_255_2_778
10
4.3400024
20
15.0760742
40
0.9820728
50
267.1035515
51
270.00557
0
LINE
8
DEFAULT_255_2_778
10
4.3400978
20
14.0940014
11
4.3400978
21
14.0940014
0
LINE
8
DEFAULT_255_2_778
10
6.7261
20
8.0691
11
6.7261
21
8.0691
0
ARC
8
DEFAULT_255_2_778
10
6.0127556
20
9.9680775
40
1.9331632
50
268.2624496
51
277.7348974
0
ARC
8
DEFAULT_255_2_778
10
5.8958243
20
9.9814902
40
1.9465605
50
262.3582692
51
271.7167284
0
ARC
8
DEFAULT_255_2_778
10
5.7955725
20
9.0180637
40
0.9787814
50
260.5719584
51
260.6748641
0
ARC
8
DEFAULT_255_2_778
10
5.897019
20
7.3170275
40
1.177735
50
230.5348012
51
270.9128028
0
ARC
8
DEFAULT_255_2_778
10
5.9369123
20
7.7525429
40
1.6132394
50
269.2494845
51
270.0009656
0
ARC
8
DEFAULT_255_2_778
10
5.9751771
20
7.41338
40
1.2742503
50
269.0540151
51
294.6466175
0
ARC
8
DEFAULT_255_2_778
10
6.0420575
20
7.2323381
40
1.0819114
50
295.4256949
51
310.3495075
0
LINE
8
DEFAULT_255_2_778
10
6.5750395
20
7.7503034
11
6.2729395
21
8.0525034
0
LINE
8
DEFAULT_255_2_778
10
5.6352395
20
8.0525034
11
5.3331395
21
7.7503034
0
LINE
8
DEFAULT_255_2_778
10
5.3331395
20
7.7503034
11
5.1484395
21
6.4078034
0
LINE
8
DEFAULT_255_2_778
10
5.9369395
20
6.1393034
11
5.9541395
21
6.1393034
0
LINE
8
DEFAULT_255_2_778
10
6.7425395
20
6.4078034
11
6.5750395
21
7.7503034
0
ARC
8
DEFAULT_255_2_778
10
5.8708865
20
8.9042579
40
0.6498624
50
290.2052346
51
316.2542329
0
ARC
8
DEFAULT_255_2_778
10
5.9521236
20
8.7062947
40
0.4360947
50
270.253998
51
289.1718992
0
ARC
8
DEFAULT_255_2_778
10
5.9630858
20
8.7332972
40
0.463181
50
230.837604
51
268.8830378
0
ARC
8
DEFAULT_255_2_778
10
6.1168164
20
8.9494925
40
0.7281006
50
221.0533324
51
232.2018875
0
ARC
8
DEFAULT_255_2_778
10
5.3742206
20
7.8741453
40
0.2113565
50
73.6497227
51
87.5225271
0
ARC
8
DEFAULT_255_2_778
10
5.4931645
20
8.2791929
40
0.2107943
50
253.6200402
51
267.469253
0
ARC
8
DEFAULT_255_2_778
10
5.9543893
20
10.1347858
40
2.1190817
50
257.1707982
51
269.9828988
0
ARC
8
DEFAULT_255_2_778
10
5.9098312
20
10.1650369
40
2.1497815
50
271.1707813
51
280.1302948
0
ARC
8
DEFAULT_255_2_778
10
7.1146891
20
2.8664139
40
5.2478863
50
97.5665805
51
99.0639905
0
ARC
8
DEFAULT_255_2_778
10
6.4227492
20
8.1971105
40
0.1285095
50
270.4046703
51
279.4391844
0
ARC
8
DEFAULT_255_2_778
10
6.3817785
20
8.4265679
40
0.36159
50
279.8804551
51
284.7875775
0
ARC
8
DEFAULT_255_2_778
10
6.5336066
20
7.8741067
40
0.2114044
50
92.5348423
51
106.3573576
0
LINE
8
DEFAULT_255_2_778
10
6.4911568
20
8.3041042
11
6.3403568
21
8.4549042
0
LINE
8
DEFAULT_255_2_778
10
5.5677568
20
8.4713042
11
5.4169568
21
8.3036042
0
LINE
8
DEFAULT_255_2_778
10
5.4169568
20
8.3036042
11
5.3833568
21
8.0853042
0
LINE
8
DEFAULT_255_2_778
10
6.5242568
20
8.0853042
11
6.4911568
21
8.3041042
0
ARC
8
DEFAULT_255_2_778
10
7.5633951
20
14.4841111
40
0.3901368
50
254.4679707
51
270.6747861
0
ARC
8
DEFAULT_255_2_778
10
7.526466
20
14.3545257
40
0.2553964
50
221.2735076
51
254.6655059
0
ARC
8
DEFAULT_255_2_778
10
7.6104706
20
14.4096982
40
0.3552004
50
187.8294225
51
219.0230344
0
ARC
8
DEFAULT_255_2_778
10
7.9588674
20
14.4776704
40
0.7098873
50
179.6291722
51
189.4340418
0
ARC
8
DEFAULT_255_2_778
10
8.2552658
20
14.4810439
40
1.0062716
50
176.2360688
51
179.9304826
0
ARC
8
DEFAULT_255_2_778
10
8.6899905
20
14.4456483
40
1.4423981
50
168.5107714
51
175.9666897
0
ARC
8
DEFAULT_255_2_778
10
9.1641073
20
14.3566778
40
1.9247497
50
165.8365812
51
168.7265491
0
ARC
8
DEFAULT_255_2_778
10
9.257077
20
14.3343287
40
2.0203623
50
165.6967763
51
165.8671788
0
ARC
8
DEFAULT_255_2_778
10
9.3191097
20
14.3183668
40
2.0844154
50
163.7635192
51
165.6928792
0
ARC
8
DEFAULT_255_2_778
10
9.2501361
20
14.3386905
40
2.0125103
50
162.5470166
51
163.7700079
0
ARC
8
DEFAULT_255_2_778
10
8.9862981
20
14.4220568
40
1.7358153
50
161.3687588
51
162.5601301
0
ARC
8
DEFAULT_255_2_778
10
8.5007747
20
14.5858577
40
1.2234054
50
160.5068646
51
161.3736197
0
ARC
8
DEFAULT_255_2_778
10
7.8530391
20
14.8155015
40
0.5361665
50
159.8498099
51
160.5427192
0
ARC
8
DEFAULT_255_2_778
10
7.4445576
20
14.987214
40
0.0957526
50
172.2047104
51
173.7263341
0
ARC
8
DEFAULT_255_2_778
10
7.568503
20
14.9732719
40
0.2204796
50
173.6446921
51
175.5329802
0
ARC
8
DEFAULT_255_2_778
10
7.6605209
20
14.9659948
40
0.3127849
50
175.5168156
51
177.9273967
0
ARC
8
DEFAULT_255_2_778
10
7.7118341
20
14.963962
40
0.3641381
50
177.8997642
51
180.0140966
0
ARC
8
DEFAULT_255_2_778
10
7.740392
20
14.9640594
40
0.3926959
50
180.0272762
51
187.3140251
0
ARC
8
DEFAULT_255_2_778
10
7.7042041
20
14.9583343
40
0.3560752
50
187.141611
51
200.2708705
0
ARC
8
DEFAULT_255_2_778
10
7.664839
20
14.9450476
40
0.314547
50
200.4848279
51
204.2911333
0
ARC
8
DEFAULT_255_2_778
10
7.6352468
20
14.9301474
40
0.2814487
50
204.0045838
51
231.0745219
0
ARC
8
DEFAULT_255_2_778
10
7.6607313
20
14.9663645
40
0.3256495
50
231.5899488
51
251.7671288
0
ARC
8
DEFAULT_255_2_778
10
7.7122449
20
15.1195726
40
0.487284
50
251.6505496
51
265.0250101
0
ARC
8
DEFAULT_255_2_778
10
7.7346461
20
15.323809
40
0.6927089
50
264.6440919
51
270.111138
0
ARC
8
DEFAULT_255_2_778
10
7.7401933
20
17.6996886
40
3.0685902
50
269.9215127
51
273.1766417
0
ARC
8
DEFAULT_255_2_778
10
7.781422
20
16.959985
40
2.3277385
50
273.172333
51
277.0160206
0
ARC
8
DEFAULT_255_2_778
10
7.841052
20
16.4775683
40
1.8416504
50
277.0079992
51
281.9804807
0
ARC
8
DEFAULT_255_2_778
10
7.872087
20
16.3203125
40
1.6813792
50
282.0583095
51
287.6927547
0
ARC
8
DEFAULT_255_2_778
10
7.5682906
20
17.2366458
40
2.6467201
50
287.9296173
51
291.4769799
0
ARC
8
DEFAULT_255_2_778
10
-2323.6970384
20
6027.5282952
40
6449.2274687
50
291.2003359
51
291.2009301
0
ARC
8
DEFAULT_255_2_778
10
9.3169215
20
13.0139538
40
1.9227205
50
105.0362047
51
111.903085
0
ARC
8
DEFAULT_255_2_778
10
9.1539215
20
13.5666079
40
1.3467746
50
97.8948279
51
104.4386976
0
ARC
8
DEFAULT_255_2_778
10
9.1889832
20
13.3054545
40
1.6102689
50
92.6883167
51
97.8542141
0
ARC
8
DEFAULT_255_2_778
10
9.2112274
20
12.8818812
40
2.0344208
50
89.9531819
51
92.7545842
0
ARC
8
DEFAULT_255_2_778
10
9.2157725
20
12.5939415
40
2.3223617
50
86.0268162
51
90.0711214
0
ARC
8
DEFAULT_255_2_778
10
9.2485271
20
13.05696
40
1.8581866
50
81.3588526
51
86.0451173
0
ARC
8
DEFAULT_255_2_778
10
9.3072856
20
13.4427494
40
1.4679482
50
76.4247556
51
81.3638655
0
ARC
8
DEFAULT_255_2_778
10
9.3849142
20
13.7620608
40
1.1393365
50
70.8656022
51
76.4504234
0
ARC
8
DEFAULT_255_2_778
10
9.4403221
20
13.9280957
40
0.9643152
50
69.6889156
51
70.7421873
0
ARC
8
DEFAULT_255_2_778
10
9.4975172
20
14.0765119
40
0.8052765
50
63.9252049
51
69.8398308
0
ARC
8
DEFAULT_255_2_778
10
9.6077777
20
14.3007587
40
0.5553891
50
57.9114427
51
63.9738924
0
ARC
8
DEFAULT_255_2_778
10
9.7331046
20
14.4997874
40
0.3201893
50
52.3767207
51
57.9920696
0
ARC
8
DEFAULT_255_2_778
10
9.8594492
20
14.6634627
40
0.1134226
50
48.6451864
51
52.4534073
0
ARC
8
DEFAULT_255_2_778
10
9.4052394
20
12.4185961
40
2.3893357
50
77.2049999
51
80.0828442
0
ARC
8
DEFAULT_255_2_778
10
9.447129
20
12.6577754
40
2.1465159
50
80.0847458
51
83.0466803
0
ARC
8
DEFAULT_255_2_778
10
9.471636
20
12.8596485
40
1.9431605
50
83.0433751
51
86.4490218
0
ARC
8
DEFAULT_255_2_778
10
9.4819419
20
13.0242145
40
1.7782722
50
86.4520332
51
89.9768446
0
ARC
8
DEFAULT_255_2_778
10
9.4804942
20
13.1952354
40
1.6072526
50
89.9227707
51
97.7811979
0
ARC
8
DEFAULT_255_2_778
10
9.4717129
20
13.2718008
40
1.5302041
50
97.84357
51
107.4534375
0
ARC
8
DEFAULT_255_2_778
10
9.5682656
20
12.9914692
40
1.8266062
50
107.705241
51
117.8850363
0
ARC
8
DEFAULT_255_2_778
10
10.4802161
20
11.2872405
40
3.7594825
50
118.0221357
51
122.7744418
0
LINE
8
DEFAULT_255_2_778
10
8.4450834
20
14.448244
11
8.4435586
21
14.4472815
0
LINE
8
DEFAULT_255_2_778
10
8.4435586
20
14.4472815
11
8.4420462
21
14.4463266
0
LINE
8
DEFAULT_255_2_778
10
8.4420462
20
14.4463266
11
8.4412961
21
14.4458528
0
LINE
8
DEFAULT_255_2_778
10
8.4412961
20
14.4458528
11
8.4398021
21
14.4449091
0
LINE
8
DEFAULT_255_2_778
10
8.4398021
20
14.4449091
11
8.4390612
21
14.4444409
0
LINE
8
DEFAULT_255_2_778
10
8.4390612
20
14.4444409
11
8.4383232
21
14.4439745
0
LINE
8
DEFAULT_255_2_778
10
8.4383232
20
14.4439745
11
8.4375883
21
14.44351
0
ARC
8
DEFAULT_255_2_778
10
1.9933304
20
24.6354325
40
12.0583475
50
302.2965581
51
302.3047868
0
LINE
8
DEFAULT_255_2_778
10
8.4361245
20
14.4425846
11
8.4353984
21
14.4421255
0
LINE
8
DEFAULT_255_2_778
10
8.4353984
20
14.4421255
11
8.4339524
21
14.441211
0
ARC
8
DEFAULT_255_2_778
10
-1.4361489
20
29.909408
40
18.3489514
50
301.9555907
51
302.5415389
0
ARC
8
DEFAULT_255_2_778
10
5.7300922
20
18.4575164
40
4.8397163
50
301.4154908
51
301.7281695
0
ARC
8
DEFAULT_255_2_778
10
7.3026459
20
15.7986187
40
1.7514582
50
288.8185329
51
302.8514841
0
ARC
8
DEFAULT_255_2_778
10
7.5655499
20
15.0901943
40
0.9963046
50
273.001033
51
287.6491555
0
ARC
8
DEFAULT_255_2_778
10
7.5680852
20
15.0760742
40
0.9820728
50
269.99443
51
272.8964485
0
LINE
8
DEFAULT_255_2_778
10
7.5679898
20
14.0940014
11
7.5679898
21
14.0940014
0
ENDSEC
0
EOF