0
SECTION
2
HEADER
9
$MEASUREMENT
70
1
0
ENDSEC
0
SECTION
2
TABLES
0
TABLE
2
LTYPE
0
LTYPE
72
65
70
64
2
CONTINUOUS
3
______
73
0
40
0
0
ENDTAB
0
TABLE
2
LAYER
0
LAYER
2
DEFAULT_255_2_778
70
0
62
255
6
CONTINUOUS
0
ENDTAB
0
ENDSEC
0
SECTION
2
ENTITIES
0
ARC
8
DEFAULT_255_2_778
10
8.6802823
20
8.3306406
40
8.517552
50
349.890514
51
0.0243902
0
ARC
8
DEFAULT_255_2_778
10
8.7927027
20
8.312576
40
8.4037065
50
336.5779304
51
349.8772261
0
ARC
8
DEFAULT_255_2_778
10
8.7082237
20
8.3569171
40
8.4988531
50
295.0611702
51
336.5300178
0
ARC
8
DEFAULT_255_2_778
10
8.7529797
20
8.2729351
40
8.4038209
50
281.2627772
51
295.0272932
0
ARC
8
DEFAULT_255_2_778
10
8.736695
20
8.3661062
40
8.4983786
50
270.7713974
51
281.247769
0
ARC
8
DEFAULT_255_2_778
10
8.7312868
20
8.5025219
40
8.6348555
50
269.9996471
51
270.7950937
0
ARC
8
DEFAULT_255_2_778
10
8.7276063
20
8.3855343
40
8.5178686
50
259.8907034
51
270.0243993
0
ARC
8
DEFAULT_255_2_778
10
8.709518
20
8.2729853
40
8.4038923
50
246.5782293
51
259.8774227
0
ARC
8
DEFAULT_255_2_778
10
8.7537706
20
8.3572917
40
8.4988454
50
205.0613096
51
246.5303991
0
ARC
8
DEFAULT_255_2_778
10
8.6697548
20
8.3125127
40
8.4037728
50
191.2627895
51
205.0273888
0
ARC
8
DEFAULT_255_2_778
10
8.7629497
20
8.3288036
40
8.4983549
50
180.77139
51
191.247791
0
ARC
8
DEFAULT_255_2_778
10
8.899389
20
8.3342132
40
8.6348555
50
179.9996471
51
180.7950937
0
ARC
8
DEFAULT_255_2_778
10
8.7824015
20
8.3378937
40
8.5178687
50
169.8907033
51
180.0243993
0
ARC
8
DEFAULT_255_2_778
10
8.6698271
20
8.355983
40
8.4038671
50
156.5781626
51
169.8773991
0
ARC
8
DEFAULT_255_2_778
10
8.7541397
20
8.3117189
40
8.4988305
50
115.0609283
51
156.5302784
0
ARC
8
DEFAULT_255_2_778
10
8.7094515
20
8.3955673
40
8.4039482
50
101.2625793
51
115.0270818
0
ARC
8
DEFAULT_255_2_778
10
8.725768
20
8.3022499
40
8.4986553
50
90.7713616
51
101.2475913
0
ARC
8
DEFAULT_255_2_778
10
8.7311804
20
8.1657544
40
8.635212
50
89.9996471
51
90.7950778
0
ARC
8
DEFAULT_255_2_778
10
8.7348594
20
8.2834151
40
8.5175521
50
79.890514
51
90.0243901
0
ARC
8
DEFAULT_255_2_778
10
8.752925
20
8.3958608
40
8.4036813
50
66.5778637
51
79.8772024
0
ARC
8
DEFAULT_255_2_778
10
8.7085724
20
8.3113758
40
8.4988381
50
25.0607888
51
66.529897
0
ARC
8
DEFAULT_255_2_778
10
8.7923869
20
8.3560408
40
8.4039963
50
11.2625669
51
25.0269861
0
ARC
8
DEFAULT_255_2_778
10
8.6990934
20
8.3397306
40
8.498679
50
0.771369
51
11.2475693
0
ARC
8
DEFAULT_255_2_778
10
8.5626216
20
8.3343196
40
8.635212
50
359.9996471
51
0.7950778
0
LINE
8
DEFAULT_255_2_778
10
17.1978336
20
8.3342664
11
17.1978336
21
8.3342664
0
ARC
8
DEFAULT_255_2_778
10
14.3600426
20
8.8050788
40
0.0334806
50
354.8157215
51
46.6337159
0
ARC
8
DEFAULT_255_2_778
10
14.3002504
20
8.8027758
40
0.0931386
50
350.8730077
51
359.5557072
0
ARC
8
DEFAULT_255_2_778
10
14.2463345
20
8.8108238
40
0.1476498
50
346.8839446
51
351.1082358
0
ARC
8
DEFAULT_255_2_778
10
12.9783587
20
9.0784959
40
1.4435418
50
344.9677138
51
347.9574632
0
ARC
8
DEFAULT_255_2_778
10
12.5945227
20
9.1764127
40
1.8396456
50
344.9483341
51
345.1230322
0
ARC
8
DEFAULT_255_2_778
10
12.8158102
20
9.1162202
40
1.6103188
50
343.6973586
51
344.9718631
0
ARC
8
DEFAULT_255_2_778
10
13.6359676
20
8.8716263
40
0.7544913
50
339.9727105
51
344.0415331
0
ARC
8
DEFAULT_255_2_778
10
14.0659455
20
8.7184361
40
0.29807
50
338.7942055
51
339.3332097
0
ARC
8
DEFAULT_255_2_778
10
14.0698724
20
8.647753
40
0.2703293
50
315.3934788
51
345.1166677
0
ARC
8
DEFAULT_255_2_778
10
13.838253
20
8.9303474
40
0.6348483
50
301.873681
51
311.9129778
0
ARC
8
DEFAULT_255_2_778
10
13.6507347
20
9.2162558
40
0.9766995
50
300.6379906
51
302.3588137
0
ARC
8
DEFAULT_255_2_778
10
13.2912916
20
9.8471406
40
1.702736
50
295.1984009
51
300.2261183
0
ARC
8
DEFAULT_255_2_778
10
12.1751026
20
12.1709655
40
4.2806948
50
293.9317143
51
295.4740388
0
ARC
8
DEFAULT_255_2_778
10
9.1756235
20
18.9153129
40
11.6619606
50
293.3073436
51
293.9601331
0
ARC
8
DEFAULT_255_2_778
10
12.9246805
20
10.2184715
40
2.1914563
50
286.1885539
51
293.2525046
0
ARC
8
DEFAULT_255_2_778
10
12.5384088
20
11.5334199
40
3.5619611
50
280.1669123
51
286.2585112
0
ARC
8
DEFAULT_255_2_778
10
12.3311127
20
12.6567892
40
4.7042856
50
272.8544478
51
280.2369213
0
ARC
8
DEFAULT_255_2_778
10
12.3357309
20
12.4924048
40
4.5398765
50
270.0227007
51
272.8995497
0
ARC
8
DEFAULT_255_2_778
10
12.3374817
20
12.2399962
40
4.2874676
50
269.6291686
51
270.0006399
0
ARC
8
DEFAULT_255_2_778
10
12.4652568
20
13.0214729
40
5.0712398
50
263.40135
51
268.2425816
0
ARC
8
DEFAULT_255_2_778
10
13.4219032
20
22.1923669
40
14.291688
50
263.5877487
51
263.8164993
0
ARC
8
DEFAULT_255_2_778
10
15.6802054
20
42.2693515
40
34.4952826
50
263.4822859
51
263.5845128
0
ARC
8
DEFAULT_255_2_778
10
10.316888
20
-4.3615481
40
12.4430757
50
83.3185376
51
84.1104371
0
ARC
8
DEFAULT_255_2_778
10
11.2419421
20
4.6404246
40
3.3937004
50
84.0507843
51
86.8338775
0
ARC
8
DEFAULT_255_2_778
10
11.3347758
20
6.2502504
40
1.7812088
50
86.9554536
51
89.8897338
0
ARC
8
DEFAULT_255_2_778
10
11.3233783
20
7.1554549
40
0.8761265
50
89.030417
51
102.392199
0
ARC
8
DEFAULT_255_2_778
10
11.2043608
20
7.6517587
40
0.3659739
50
100.8676815
51
157.1764563
0
ARC
8
DEFAULT_255_2_778
10
11.4478711
20
7.5444586
40
0.632055
50
156.7737289
51
170.9549854
0
ARC
8
DEFAULT_255_2_778
10
11.6899948
20
7.4951801
40
0.878979
50
170.2639217
51
170.6344647
0
ARC
8
DEFAULT_255_2_778
10
11.6749076
20
7.4990699
40
0.8634609
50
170.7262188
51
180.1608254
0
ARC
8
DEFAULT_255_2_778
10
11.8716963
20
7.498759
40
1.0602483
50
180.1141776
51
186.857357
0
ARC
8
DEFAULT_255_2_778
10
12.5257878
20
7.6118734
40
1.7235058
50
187.9946346
51
205.4075523
0
ARC
8
DEFAULT_255_2_778
10
13.3512555
20
7.9598618
40
2.6187422
50
204.5358585
51
208.1196071
0
ARC
8
DEFAULT_255_2_778
10
13.6258234
20
8.1055912
40
2.9295861
50
208.1024102
51
211.2073234
0
ARC
8
DEFAULT_255_2_778
10
13.6742843
20
8.1337986
40
2.9856501
50
211.1884456
51
213.2811858
0
ARC
8
DEFAULT_255_2_778
10
13.4543439
20
7.9887462
40
2.7221853
50
213.2691875
51
214.9644774
0
ARC
8
DEFAULT_255_2_778
10
12.9766631
20
7.654401
40
2.1391197
50
214.9576574
51
216.2305514
0
ARC
8
DEFAULT_255_2_778
10
12.1938858
20
7.0792276
40
1.1677487
50
216.1662082
51
217.5631175
0
ARC
8
DEFAULT_255_2_778
10
11.3645976
20
6.4402425
40
0.1208426
50
217.1131353
51
219.7823703
0
ARC
8
DEFAULT_255_2_778
10
11.8366261
20
8.3421758
40
2.1690818
50
223.4643537
51
225.7931621
0
ARC
8
DEFAULT_255_2_778
10
14.0161037
20
10.4239507
40
5.1830247
50
222.518384
51
223.5935581
0
ARC
8
DEFAULT_255_2_778
10
17.6073469
20
13.7188245
40
10.0567523
50
221.6866278
51
222.5267201
0
ARC
8
DEFAULT_255_2_778
10
23.182792
20
18.6927375
40
17.5283903
50
221.1913148
51
221.707881
0
ARC
8
DEFAULT_255_2_778
10
30.623024
20
25.2069774
40
27.4173928
50
220.7905301
51
221.1957195
0
ARC
8
DEFAULT_255_2_778
10
8.2682822
20
5.9179899
40
2.1088585
50
40.776927
51
47.2613906
0
ARC
8
DEFAULT_255_2_778
10
8.4637483
20
6.1296665
40
1.8207371
50
47.2584387
51
54.7037751
0
ARC
8
DEFAULT_255_2_778
10
8.5847332
20
6.3006254
40
1.6112992
50
54.7025044
51
63.5461797
0
ARC
8
DEFAULT_255_2_778
10
8.6268671
20
6.3811947
40
1.5203974
50
63.6151607
51
66.1125719
0
ARC
8
DEFAULT_255_2_778
10
8.6485623
20
6.4326914
40
1.4645268
50
66.0728136
51
76.5364012
0
ARC
8
DEFAULT_255_2_778
10
8.6533905
20
6.448399
40
1.4481271
50
76.5774835
51
88.3209181
0
ARC
8
DEFAULT_255_2_778
10
8.6520195
20
6.4221151
40
1.4744401
50
88.2975931
51
90.0008966
0
ARC
8
DEFAULT_255_2_778
10
8.6528169
20
6.3878718
40
1.5086838
50
90.0311593
51
99.2309491
0
ARC
8
DEFAULT_255_2_778
10
8.658622
20
6.3480596
40
1.5489118
50
99.2066618
51
103.7132571
0
ARC
8
DEFAULT_255_2_778
10
8.5148891
20
7.0642526
40
0.8196152
50
105.8211894
51
134.2926661
0
ARC
8
DEFAULT_255_2_778
10
8.4430766
20
7.1825928
40
0.6854732
50
136.9045943
51
168.5284285
0
ARC
8
DEFAULT_255_2_778
10
8.9206184
20
7.0426423
40
1.1820616
50
166.4834648
51
170.3599673
0
ARC
8
DEFAULT_255_2_778
10
9.2930007
20
6.9846302
40
1.5589087
50
170.549812
51
177.8063939
0
ARC
8
DEFAULT_255_2_778
10
9.7176877
20
6.9623036
40
1.9841482
50
177.6315518
51
180.0243609
0
ARC
8
DEFAULT_255_2_778
10
9.9859811
20
6.9623996
40
2.2524416
50
180.0238999
51
182.1908093
0
ARC
8
DEFAULT_255_2_778
10
10.2493508
20
6.9718623
40
2.5159805
50
182.176868
51
183.2813279
0
ARC
8
DEFAULT_255_2_778
10
10.5779035
20
6.9908147
40
2.8450793
50
183.2836521
51
184.1412199
0
ARC
8
DEFAULT_255_2_778
10
11.1696513
20
7.0332031
40
3.4383432
50
184.1336318
51
184.4656097
0
ARC
8
DEFAULT_255_2_778
10
11.8432285
20
7.0854386
40
4.1139426
50
184.4604812
51
184.5467164
0
ARC
8
DEFAULT_255_2_778
10
11.657608
20
7.0643732
40
3.9272413
50
184.4550278
51
186.0671891
0
ARC
8
DEFAULT_255_2_778
10
8.9661004
20
6.7736967
40
1.2200955
50
185.8525609
51
189.2908582
0
ARC
8
DEFAULT_255_2_778
10
8.0256294
20
6.6168879
40
0.2666619
50
188.6643064
51
197.753036
0
ARC
8
DEFAULT_255_2_778
10
7.6633041
20
6.501661
40
0.1135462
50
15.3801219
51
17.3803612
0
ARC
8
DEFAULT_255_2_778
10
7.7064803
20
6.5137774
40
0.0687028
50
14.7062378
51
15.1873041
0
ARC
8
DEFAULT_255_2_778
10
5.0400896
20
6.5361676
40
2.0206844
50
12.5579417
51
20.4331856
0
ARC
8
DEFAULT_255_2_778
10
4.9231439
20
6.4801831
40
2.1498484
50
20.7432585
51
46.6636461
0
ARC
8
DEFAULT_255_2_778
10
5.1343173
20
6.7228917
40
1.8284393
50
46.2571606
51
74.0109556
0
ARC
8
DEFAULT_255_2_778
10
5.2281379
20
6.9867081
40
1.5490848
50
74.6590527
51
80.2065474
0
ARC
8
DEFAULT_255_2_778
10
5.1146184
20
6.3316185
40
2.2139373
50
80.195249
51
83.1208269
0
ARC
8
DEFAULT_255_2_778
10
5.1268419
20
6.4368121
40
2.1080371
50
83.1082116
51
86.9577541
0
ARC
8
DEFAULT_255_2_778
10
5.1346105
20
6.5774811
40
1.9671541
50
86.9662598
51
89.9831969
0
ARC
8
DEFAULT_255_2_778
10
5.132862
20
6.7700499
40
1.7745867
50
89.9249222
51
96.5300562
0
ARC
8
DEFAULT_255_2_778
10
5.1036665
20
7.0183797
40
1.5245481
50
96.5013054
51
105.1488758
0
ARC
8
DEFAULT_255_2_778
10
5.0408506
20
7.2417736
40
1.2925035
50
105.0489608
51
120.87485
0
ARC
8
DEFAULT_255_2_778
10
5.008883
20
7.3030367
40
1.2235239
50
121.0621891
51
134.7531611
0
ARC
8
DEFAULT_255_2_778
10
5.0930611
20
7.2200856
40
1.341698
50
134.8119548
51
145.8211566
0
ARC
8
DEFAULT_255_2_778
10
5.2635198
20
7.1020098
40
1.5490498
50
145.7500371
51
152.130876
0
ARC
8
DEFAULT_255_2_778
10
4.8482883
20
7.3309303
40
1.0749999
50
152.5715715
51
180.4806705
0
ARC
8
DEFAULT_255_2_778
10
4.9854323
20
7.322345
40
1.2121061
50
180.0204692
51
186.5601412
0
ARC
8
DEFAULT_255_2_778
10
5.0420132
20
7.3303509
40
1.2692322
50
186.6273727
51
207.9214962
0
ARC
8
DEFAULT_255_2_778
10
4.9739265
20
7.2796993
40
1.1854231
50
207.2992959
51
264.1174248
0
ARC
8
DEFAULT_255_2_778
10
5.0470484
20
7.8709962
40
1.781142
50
263.7270673
51
267.8819589
0
ARC
8
DEFAULT_255_2_778
10
5.037663
20
7.6533674
40
1.5633154
50
267.930917
51
269.9860196
0
ARC
8
DEFAULT_255_2_778
10
5.0477944
20
7.2832726
40
1.193267
50
269.4952079
51
283.2425065
0
ARC
8
DEFAULT_255_2_778
10
5.1542084
20
6.8531165
40
0.7501895
50
282.8570284
51
307.7796003
0
ARC
8
DEFAULT_255_2_778
10
5.2261612
20
6.7471836
40
0.6224347
50
308.5185675
51
322.3430996
0
ARC
8
DEFAULT_255_2_778
10
5.1415885
20
6.8138479
40
0.7301178
50
322.2560832
51
0.0157044
0
ARC
8
DEFAULT_255_2_778
10
5.1404471
20
6.8140442
40
0.7312592
50
0.000305
51
1.7348865
0
ARC
8
DEFAULT_255_2_778
10
5.1420096
20
6.814137
40
0.7296946
50
1.7313135
51
25.6253302
0
ARC
8
DEFAULT_255_2_778
10
5.0420015
20
6.7713109
40
0.8384005
50
25.3083632
51
46.4246674
0
ARC
8
DEFAULT_255_2_778
10
5.1663786
20
6.8800145
40
0.6740847
50
47.7147941
51
86.7552728
0
ARC
8
DEFAULT_255_2_778
10
5.1478747
20
6.9280818
40
0.6274998
50
84.8196435
51
89.9716508
0
ARC
8
DEFAULT_255_2_778
10
5.1436171
20
7.0221412
40
0.5334598
50
89.5093641
51
111.7800994
0
ARC
8
DEFAULT_255_2_778
10
5.076881
20
7.1799266
40
0.3621921
50
111.2380329
51
136.8692921
0
ARC
8
DEFAULT_255_2_778
10
4.9775492
20
7.2796056
40
0.2216057
50
138.1196256
51
147.7008352
0
ARC
8
DEFAULT_255_2_778
10
5.1738997
20
7.169929
40
0.4463467
50
149.2685947
51
154.0986637
0
ARC
8
DEFAULT_255_2_778
10
5.0230364
20
7.2429043
40
0.278761
50
154.0460883
51
174.4083653
0
ARC
8
DEFAULT_255_2_778
10
5.0150214
20
7.2447636
40
0.2706051
50
174.6348065
51
179.3743305
0
ARC
8
DEFAULT_255_2_778
10
5.0040799
20
7.241394
40
0.2596742
50
179.1781677
51
204.2635235
0
ARC
8
DEFAULT_255_2_778
10
4.9860304
20
7.2378835
40
0.2418133
50
205.2627079
51
236.5497199
0
ARC
8
DEFAULT_255_2_778
10
5.0085648
20
7.2664065
40
0.2780503
50
235.915106
51
236.6946663
0
ARC
8
DEFAULT_255_2_778
10
5.0158266
20
7.2780241
40
0.2917474
50
236.7555878
51
251.335423
0
ARC
8
DEFAULT_255_2_778
10
4.9837693
20
7.1762889
40
0.1851162
50
250.6585732
51
261.935944
0
ARC
8
DEFAULT_255_2_778
10
4.9649239
20
7.0539575
40
0.061369
50
263.3350686
51
266.2708221
0
ARC
8
DEFAULT_255_2_778
10
4.9556904
20
7.4260455
40
0.4333587
50
270.6930863
51
276.4625278
0
ARC
8
DEFAULT_255_2_778
10
4.9342446
20
7.6421367
40
0.6504976
50
276.197201
51
284.5560643
0
ARC
8
DEFAULT_255_2_778
10
5.2265106
20
6.785998
40
0.2540852
50
90.0302236
51
101.4589905
0
ARC
8
DEFAULT_255_2_778
10
5.2252206
20
6.7870454
40
0.2530403
50
15.6060065
51
89.7382409
0
ARC
8
DEFAULT_255_2_778
10
5.2157005
20
6.7839816
40
0.263034
50
0.2258675
51
15.690904
0
ARC
8
DEFAULT_255_2_778
10
5.2244038
20
6.7865005
40
0.254333
50
303.4602601
51
359.6661382
0
ARC
8
DEFAULT_255_2_778
10
5.1857883
20
6.7944518
40
0.2820569
50
289.9356666
51
305.0404073
0
ARC
8
DEFAULT_255_2_778
10
5.0390317
20
7.1933819
40
0.7071231
50
286.9383483
51
290.0929625
0
ARC
8
DEFAULT_255_2_778
10
1.7250179
20
17.7757733
40
11.7962726
50
287.3320493
51
287.3616356
0
ARC
8
DEFAULT_255_2_778
10
4.9447399
20
7.3683363
40
0.9026109
50
271.4887603
51
289.0423755
0
ARC
8
DEFAULT_255_2_778
10
4.9548569
20
7.2625065
40
0.7965879
50
269.9982366
51
270.9590845
0
ARC
8
DEFAULT_255_2_778
10
4.9589056
20
7.0940314
40
0.6281261
50
257.8990106
51
269.6284566
0
ARC
8
DEFAULT_255_2_778
10
4.9820756
20
7.2124917
40
0.7488147
50
250.7325441
51
258.065683
0
ARC
8
DEFAULT_255_2_778
10
5.0056698
20
7.2788859
40
0.8192758
50
223.6484885
51
250.7070858
0
ARC
8
DEFAULT_255_2_778
10
4.9535904
20
7.2293025
40
0.7473675
50
195.8534042
51
223.6537702
0
ARC
8
DEFAULT_255_2_778
10
5.009609
20
7.2426355
40
0.8049015
50
180.4496729
51
195.6770765
0
ARC
8
DEFAULT_255_2_778
10
5.0344263
20
7.2442386
40
0.8297317
50
179.9987942
51
180.546916
0
ARC
8
DEFAULT_255_2_778
10
5.0359078
20
7.2390125
40
0.8312297
50
123.2214522
51
179.6385626
0
ARC
8
DEFAULT_255_2_778
10
5.1371225
20
7.1243973
40
0.9828087
50
123.4819363
51
124.4969485
0
ARC
8
DEFAULT_255_2_778
10
5.1162044
20
7.1376349
40
0.9602814
50
108.413504
51
122.876671
0
ARC
8
DEFAULT_255_2_778
10
5.1743801
20
6.9702831
40
1.1374435
50
93.9996449
51
108.5311405
0
ARC
8
DEFAULT_255_2_778
10
5.1804788
20
6.9143457
40
1.1936721
50
89.9953056
51
94.104391
0
ARC
8
DEFAULT_255_2_778
10
5.1799275
20
6.887439
40
1.2205791
50
78.0446521
51
89.9695277
0
ARC
8
DEFAULT_255_2_778
10
5.1705281
20
6.8433971
40
1.2656127
50
67.8400036
51
78.0413819
0
ARC
8
DEFAULT_255_2_778
10
5.1470936
20
6.7848035
40
1.3287178
50
61.3873172
51
67.8571522
0
ARC
8
DEFAULT_255_2_778
10
5.1214452
20
6.7367529
40
1.3831831
50
58.4768695
51
61.4078049
0
ARC
8
DEFAULT_255_2_778
10
5.1784921
20
6.8249861
40
1.2781464
50
41.5412624
51
58.5887754
0
ARC
8
DEFAULT_255_2_778
10
5.1499795
20
6.805166
40
1.3126374
50
19.1441027
51
41.3634577
0
ARC
8
DEFAULT_255_2_778
10
5.0849581
20
6.778947
40
1.3826658
50
10.7489958
51
19.2868823
0
ARC
8
DEFAULT_255_2_778
10
5.0952614
20
6.7802235
40
1.3723051
50
1.3854486
51
10.7768649
0
ARC
8
DEFAULT_255_2_778
10
5.1354341
20
6.7819411
40
1.3321028
50
0.0013041
51
1.3533712
0
ARC
8
DEFAULT_255_2_778
10
5.2144382
20
6.7796828
40
1.2531007
50
349.5329706
51
0.104642
0
ARC
8
DEFAULT_255_2_778
10
5.3706171
20
6.7518934
40
1.0944726
50
342.3264262
51
349.4782121
0
ARC
8
DEFAULT_255_2_778
10
5.0656778
20
6.8406768
40
1.4119959
50
321.301006
51
342.6504315
0
ARC
8
DEFAULT_255_2_778
10
5.1326146
20
6.806135
40
1.3382421
50
285.974678
51
320.6633616
0
ARC
8
DEFAULT_255_2_778
10
5.0065386
20
7.2015329
40
1.7531128
50
271.6011447
51
286.3795807
0
ARC
8
DEFAULT_255_2_778
10
4.9871912
20
7.4935758
40
2.0456128
50
269.9935009
51
271.9142804
0
ARC
8
DEFAULT_255_2_778
10
4.9878653
20
7.6202761
40
2.1723133
50
266.4070525
51
269.9760985
0
ARC
8
DEFAULT_255_2_778
10
4.9952919
20
7.7504476
40
2.3026944
50
264.8584524
51
266.4256031
0
ARC
8
DEFAULT_255_2_778
10
4.961619
20
7.4073508
40
1.9579624
50
222.7786748
51
264.940105
0
ARC
8
DEFAULT_255_2_778
10
4.8284824
20
7.2657149
40
1.7640999
50
214.8079317
51
222.3390319
0
ARC
8
DEFAULT_255_2_778
10
5.0002994
20
7.3993956
40
1.9815169
50
194.4923809
51
215.1457627
0
ARC
8
DEFAULT_255_2_778
10
4.7111649
20
7.3136575
40
1.6801602
50
188.9641721
51
194.129071
0
ARC
8
DEFAULT_255_2_778
10
4.9827862
20
7.3530415
40
1.9546036
50
180.3703126
51
188.8639157
0
ARC
8
DEFAULT_255_2_778
10
5.1893938
20
7.3593041
40
2.1612531
50
179.9998108
51
180.5009307
0
ARC
8
DEFAULT_255_2_778
10
5.3928077
20
7.3547192
40
2.3646713
50
171.920887
51
179.8887357
0
ARC
8
DEFAULT_255_2_778
10
5.5417358
20
7.33731
40
2.5145708
50
166.7797352
51
172.0050572
0
ARC
8
DEFAULT_255_2_778
10
5.2796357
20
7.4007591
40
2.2449071
50
162.4539896
51
166.826353
0
ARC
8
DEFAULT_255_2_778
10
4.9556213
20
7.5001814
40
1.9059966
50
161.7011115
51
162.3672821
0
ARC
8
DEFAULT_255_2_778
10
4.7686017
20
7.5627037
40
1.7088041
50
159.9825368
51
161.722615
0
ARC
8
DEFAULT_255_2_778
10
4.4678779
20
7.6725174
40
1.3886575
50
158.0666938
51
159.9924349
0
ARC
8
DEFAULT_255_2_778
10
6.4651908
20
6.8532734
40
3.5474405
50
140.4587898
51
157.8422549
0
ARC
8
DEFAULT_255_2_778
10
7.0620609
20
6.3695732
40
4.3156721
50
130.4537575
51
140.5513728
0
ARC
8
DEFAULT_255_2_778
10
7.7322003
20
5.5889291
40
5.3444979
50
122.8260782
51
130.4904275
0
ARC
8
DEFAULT_255_2_778
10
8.1342936
20
4.9919762
40
6.0641172
50
121.9539829
51
122.9610422
0
ARC
8
DEFAULT_255_2_778
10
9.6462082
20
2.5866252
40
8.9054058
50
118.3223871
51
121.6095842
0
ARC
8
DEFAULT_255_2_778
10
9.1145424
20
3.5740878
40
7.7839111
50
114.6229244
51
118.3257937
0
ARC
8
DEFAULT_255_2_778
10
8.7431993
20
4.3835528
40
6.8933332
50
110.7023737
51
114.6202856
0
ARC
8
DEFAULT_255_2_778
10
8.5055005
20
5.0126659
40
6.2208126
50
106.2409286
51
110.7028306
0
ARC
8
DEFAULT_255_2_778
10
8.3832689
20
5.4287452
40
5.7871521
50
101.5154823
51
106.2311665
0
ARC
8
DEFAULT_255_2_778
10
8.3603315
20
5.5314616
40
5.6819246
50
96.7820904
51
101.4956157
0
ARC
8
DEFAULT_255_2_778
10
8.4074644
20
5.1055274
40
6.1104454
50
92.4572095
51
96.7492995
0
ARC
8
DEFAULT_255_2_778
10
8.4660454
20
3.7500014
40
7.4672365
50
89.9420062
51
92.4603661
0
ARC
8
DEFAULT_255_2_778
10
8.468541
20
1.1523955
40
10.0648399
50
88.8616318
51
89.9711801
0
ARC
8
DEFAULT_255_2_778
10
8.3720082
20
-3.7851965
40
15.0033753
50
88.27203
51
88.8676701
0
ARC
8
DEFAULT_255_2_778
10
7.8140385
20
-22.217154
40
33.4437762
50
88.011302
51
88.2687491
0
ARC
8
DEFAULT_255_2_778
10
1.6154335
20
-203.842533
40
215.1748941
50
88.0318114
51
88.0400484
0
ARC
8
DEFAULT_255_2_778
10
8.798772
20
5.3808199
40
5.8282673
50
85.7649148
51
87.96698
0
ARC
8
DEFAULT_255_2_778
10
8.6477913
20
3.6091235
40
7.6063013
50
80.4024891
51
85.61629
0
ARC
8
DEFAULT_255_2_778
10
8.3198376
20
1.5520325
40
9.6892979
50
78.3137015
51
80.5184312
0
ARC
8
DEFAULT_255_2_778
10
8.1170168
20
0.5576101
40
10.7041896
50
76.9273602
51
78.3287254
0
ARC
8
DEFAULT_255_2_778
10
8.0271712
20
0.1652541
40
11.1066991
50
76.5060093
51
76.9336966
0
ARC
8
DEFAULT_255_2_778
10
7.9860679
20
-0.0054336
40
11.2822663
50
75.6816597
51
76.5052994
0
ARC
8
DEFAULT_255_2_778
10
7.9818553
20
-0.0232099
40
11.3005322
50
74.6983373
51
75.6832544
0
ARC
8
DEFAULT_255_2_778
10
8.0950157
20
0.3887043
40
10.8733573
50
73.8493122
51
74.700678
0
ARC
8
DEFAULT_255_2_778
10
8.3512206
20
1.2725163
40
9.9531592
50
73.1422621
51
73.8507409
0
ARC
8
DEFAULT_255_2_778
10
8.712364
20
2.4650053
40
8.7071839
50
72.6292415
51
73.1409909
0
ARC
8
DEFAULT_255_2_778
10
9.2409726
20
4.1504507
40
6.9407889
50
71.9680795
51
72.6400075
0
ARC
8
DEFAULT_255_2_778
10
10.0760308
20
6.7114482
40
4.2470874
50
71.2518222
51
71.9855511
0
ARC
8
DEFAULT_255_2_778
10
10.7342149
20
8.6552523
40
2.1948749
50
70.885769
51
71.2127784
0
ARC
8
DEFAULT_255_2_778
10
11.1862335
20
8.9830359
40
2.1466119
50
81.4526661
51
82.2061886
0
ARC
8
DEFAULT_255_2_778
10
10.4032894
20
3.7028279
40
7.4845485
50
81.0689374
51
81.533277
0
ARC
8
DEFAULT_255_2_778
10
9.8004289
20
-0.1465955
40
11.3808928
50
80.6221053
51
81.079289
0
ARC
8
DEFAULT_255_2_778
10
9.447941
20
-2.2882638
40
13.5513742
50
80.2013026
51
80.62717
0
ARC
8
DEFAULT_255_2_778
10
9.2563992
20
-3.3985257
40
14.6780374
50
79.5848136
51
80.2021016
0
ARC
8
DEFAULT_255_2_778
10
9.2367198
20
-3.5102623
40
14.7914907
50
78.8181626
51
79.5880851
0
ARC
8
DEFAULT_255_2_778
10
9.4534501
20
-2.4253915
40
13.6851853
50
77.600752
51
78.8275165
0
ARC
8
DEFAULT_255_2_778
10
10.0188192
20
0.1170576
40
11.0806428
50
75.5262916
51
77.6331262
0
ARC
8
DEFAULT_255_2_778
10
10.9681143
20
3.7475095
40
7.3281593
50
71.8789299
51
75.6184503
0
ARC
8
DEFAULT_255_2_778
10
11.8591488
20
6.4882877
40
4.4461887
50
68.3658285
51
71.8066018
0
ARC
8
DEFAULT_255_2_778
10
12.4459115
20
7.9670853
40
2.8552353
50
64.324613
51
68.3703944
0
ARC
8
DEFAULT_255_2_778
10
12.8760951
20
8.8633905
40
1.8610421
50
59.921181
51
64.3050588
0
ARC
8
DEFAULT_255_2_778
10
13.5259343
20
9.992599
40
0.5582146
50
44.498373
51
59.5496905
0
ARC
8
DEFAULT_255_2_778
10
12.8535256
20
9.3147616
40
1.5129618
50
43.3265969
51
44.9602968
0
ARC
8
DEFAULT_255_2_778
10
16.3012833
20
12.5669201
40
3.2266129
50
223.328315
51
224.096547
0
ARC
8
DEFAULT_255_2_778
10
13.693252
20
10.045254
40
0.4011615
50
35.9040338
51
43.5439562
0
ARC
8
DEFAULT_255_2_778
10
13.3971843
20
9.829034
40
0.7677757
50
30.7831429
51
36.0171265
0
ARC
8
DEFAULT_255_2_778
10
12.9202176
20
9.542384
40
1.3242491
50
27.4043206
51
30.8764759
0
ARC
8
DEFAULT_255_2_778
10
12.5052611
20
9.3230037
40
1.7936169
50
26.6061819
51
27.5247802
0
ARC
8
DEFAULT_255_2_778
10
11.8468273
20
8.9999328
40
2.5270226
50
23.3458129
51
26.4696059
0
ARC
8
DEFAULT_255_2_778
10
10.168746
20
8.2796435
40
4.3531568
50
19.9926154
51
23.2975009
0
ARC
8
DEFAULT_255_2_778
10
9.0975438
20
7.8769288
40
5.4975063
50
19.9423092
51
20.1197949
0
ARC
8
DEFAULT_255_2_778
10
8.4635416
20
7.6505865
40
6.1706919
50
17.4612942
51
19.9100758
0
ARC
8
DEFAULT_255_2_778
10
9.1881497
20
7.8745902
40
5.4122604
50
15.9027498
51
17.500944
0
ARC
8
DEFAULT_255_2_778
10
11.1620639
20
8.4349527
40
3.3603497
50
14.1830436
51
15.9359415
0
ARC
8
DEFAULT_255_2_778
10
13.0665745
20
8.9131002
40
1.3967402
50
11.4382416
51
14.3090433
0
ARC
8
DEFAULT_255_2_778
10
13.9337089
20
9.0904969
40
0.5116516
50
9.0205996
51
11.2242809
0
ARC
8
DEFAULT_255_2_778
10
14.5661467
20
8.8913852
40
0.2961786
50
117.5336333
51
127.119118
0
ARC
8
DEFAULT_255_2_778
10
13.4787109
20
10.4533562
40
1.6073237
50
303.499147
51
304.426563
0
ARC
8
DEFAULT_255_2_778
10
11.5698641
20
13.0958323
40
4.8662351
50
304.2842773
51
305.0691735
0
ARC
8
DEFAULT_255_2_778
10
12.9237455
20
11.1121248
40
2.4645509
50
302.1759825
51
304.2557439
0
ARC
8
DEFAULT_255_2_778
10
13.1784458
20
10.7080819
40
1.9869291
50
299.1741997
51
302.1638446
0
ARC
8
DEFAULT_255_2_778
10
13.3355737
20
10.4215819
40
1.6601812
50
291.8615066
51
299.2592436
0
ARC
8
DEFAULT_255_2_778
10
13.4466276
20
10.1409733
40
1.3584003
50
280.1818069
51
291.921443
0
ARC
8
DEFAULT_255_2_778
10
13.4785904
20
9.9771795
40
1.1915386
50
270.0540124
51
280.0613406
0
ARC
8
DEFAULT_255_2_778
10
13.4796447
20
9.9381664
40
1.1525249
50
264.8920451
51
270.0034275
0
ARC
8
DEFAULT_255_2_778
10
13.5473389
20
10.5755743
40
1.7934603
50
254.2048665
51
264.5509971
0
ARC
8
DEFAULT_255_2_778
10
13.8335132
20
11.6132122
40
2.8698228
50
247.4241968
51
254.3461152
0
ARC
8
DEFAULT_255_2_778
10
14.4024371
20
12.9959112
40
4.3649854
50
242.4968209
51
247.4963514
0
ARC
8
DEFAULT_255_2_778
10
15.3364118
20
14.7975767
40
6.3943445
50
238.6038334
51
242.5289303
0
ARC
8
DEFAULT_255_2_778
10
16.4530736
20
16.6492496
40
8.5566414
50
236.613836
51
238.6806185
0
ARC
8
DEFAULT_255_2_778
10
13.8944999
20
12.8191305
40
4.2496152
50
242.6744566
51
243.0532767
0
ARC
8
DEFAULT_255_2_778
10
14.7445604
20
14.4893337
40
6.1236966
50
243.0448959
51
243.406401
0
ARC
8
DEFAULT_255_2_778
10
15.352539
20
15.7038871
40
7.4819228
50
243.406776
51
243.930926
0
ARC
8
DEFAULT_255_2_778
10
15.7217745
20
16.4578691
40
8.3214605
50
243.9286496
51
244.574971
0
ARC
8
DEFAULT_255_2_778
10
15.796327
20
16.613633
40
8.4941459
50
244.5718823
51
245.4204908
0
ARC
8
DEFAULT_255_2_778
10
15.5699616
20
16.1157523
40
7.9472229
50
245.4115298
51
246.7088078
0
ARC
8
DEFAULT_255_2_778
10
15.280959
20
15.4482477
40
7.2198425
50
246.7208447
51
247.2290275
0
ARC
8
DEFAULT_255_2_778
10
14.8998566
20
14.5305683
40
6.2261837
50
247.1941745
51
249.1380072
0
ARC
8
DEFAULT_255_2_778
10
14.4429866
20
13.3368607
40
4.9480351
50
249.159047
51
250.6520581
0
ARC
8
DEFAULT_255_2_778
10
13.943266
20
11.8827058
40
3.410461
50
250.47954
51
255.0929293
0
ARC
8
DEFAULT_255_2_778
10
13.5670236
20
10.4749355
40
1.9532816
50
255.1348143
51
260.1868306
0
ARC
8
DEFAULT_255_2_778
10
13.4266943
20
9.6559165
40
1.1223296
50
260.1197388
51
267.0340094
0
ARC
8
DEFAULT_255_2_778
10
13.4036734
20
9.2944341
40
0.7601523
50
267.357051
51
269.9601321
0
ARC
8
DEFAULT_255_2_778
10
13.403229
20
9.2027396
40
0.6684576
50
269.9927577
51
271.157506
0
ARC
8
DEFAULT_255_2_778
10
13.3889786
20
9.8317704
40
1.2976487
50
271.2255244
51
275.9869644
0
ARC
8
DEFAULT_255_2_778
10
13.3048411
20
10.4390981
40
1.9105477
50
276.5967449
51
289.6001965
0
ARC
8
DEFAULT_255_2_778
10
13.1421124
20
10.9539159
40
2.4501999
50
289.1465735
51
293.3043971
0
ARC
8
DEFAULT_255_2_778
10
13.1895018
20
10.8464805
40
2.3327818
50
293.2793435
51
295.9477122
0
ARC
8
DEFAULT_255_2_778
10
13.3753409
20
10.4665659
40
1.909851
50
295.9215092
51
298.5304103
0
ARC
8
DEFAULT_255_2_778
10
13.6559219
20
9.9508686
40
1.3227656
50
298.5218231
51
300.9310892
0
ARC
8
DEFAULT_255_2_778
10
13.2171391
20
9.7610817
40
0.6886897
50
358.0559215
51
359.9994053
0
ARC
8
DEFAULT_255_2_778
10
13.224256
20
9.7599024
40
0.6815739
50
0.0985345
51
87.8999104
0
ARC
8
DEFAULT_255_2_778
10
13.2235869
20
9.762384
40
0.6791189
50
87.835828
51
89.9990501
0
ARC
8
DEFAULT_255_2_778
10
13.2229843
20
9.7685567
40
0.6729465
50
89.9477329
51
133.1869494
0
ARC
8
DEFAULT_255_2_778
10
13.2095237
20
9.7700749
40
0.6626856
50
132.4282064
51
178.6127309
0
ARC
8
DEFAULT_255_2_778
10
13.2419688
20
9.7647778
40
0.6952639
50
178.241062
51
179.9980967
0
ARC
8
DEFAULT_255_2_778
10
13.2294252
20
9.7653131
40
0.6827205
50
180.0429877
51
267.7509014
0
ARC
8
DEFAULT_255_2_778
10
13.2310511
20
9.757185
40
0.6746653
50
267.5858357
51
270.0000987
0
ARC
8
DEFAULT_255_2_778
10
13.2310157
20
9.7570877
40
0.674568
50
270.0031047
51
312.9724198
0
ARC
8
DEFAULT_255_2_778
10
13.2308079
20
9.7573622
40
0.6749104
50
312.9694429
51
358.3321392
0
ARC
8
DEFAULT_255_2_778
10
13.2437093
20
9.7679344
40
0.4841977
50
0.0270084
51
87.9378509
0
ARC
8
DEFAULT_255_2_778
10
13.2346606
20
9.768169
40
0.4932463
50
358.0887527
51
359.9992656
0
ARC
8
DEFAULT_255_2_778
10
13.251516
20
9.7651093
40
0.4763047
50
312.8156242
51
358.3889779
0
ARC
8
DEFAULT_255_2_778
10
13.2452088
20
9.7699583
40
0.4841502
50
270.0176811
51
312.9731447
0
ARC
8
DEFAULT_255_2_778
10
13.2453563
20
9.7697058
40
0.4838976
50
267.9483324
51
270.0002219
0
ARC
8
DEFAULT_255_2_778
10
13.2469385
20
9.7711013
40
0.4853512
50
179.9926342
51
267.767566
0
ARC
8
DEFAULT_255_2_778
10
13.2559715
20
9.7711498
40
0.4943842
50
178.1953878
51
179.9983801
0
ARC
8
DEFAULT_255_2_778
10
13.2370092
20
9.7726991
40
0.4753836
50
132.583808
51
178.310062
0
ARC
8
DEFAULT_255_2_778
10
13.2418214
20
9.7759315
40
0.4762944
50
90.010224
51
133.2731645
0
ARC
8
DEFAULT_255_2_778
10
13.2417411
20
9.7761391
40
0.4760867
50
87.6295277
51
90.0005598
0
ARC
8
DEFAULT_255_2_778
10
13.4148955
20
9.8521773
40
0.1406496
50
5.7704088
51
72.5577887
0
ARC
8
DEFAULT_255_2_778
10
13.3429636
20
9.7131992
40
0.2960293
50
67.3312122
51
90.4705533
0
ARC
8
DEFAULT_255_2_778
10
13.3326979
20
9.7453837
40
0.2639511
50
88.2991182
51
127.5159152
0
ARC
8
DEFAULT_255_2_778
10
13.2428782
20
9.8620379
40
0.1167245
50
127.4161413
51
177.8983242
0
ARC
8
DEFAULT_255_2_778
10
13.2661316
20
9.8801842
40
0.1405847
50
185.6602203
51
252.7428278
0
ARC
8
DEFAULT_255_2_778
10
13.337909
20
10.0205869
40
0.2971799
50
247.5505742
51
270.5057893
0
ARC
8
DEFAULT_255_2_778
10
13.3482584
20
9.9871694
40
0.263864
50
268.3221358
51
307.4014956
0
ARC
8
DEFAULT_255_2_778
10
13.4378118
20
9.870905
40
0.1171105
50
307.1458304
51
357.7555032
0
LINE
8
DEFAULT_255_2_778
10
14.3332324
20
8.8201185
11
14.3830324
21
8.8294185
0
LINE
8
DEFAULT_255_2_778
10
14.3438324
20
8.6106185
11
14.3311324
21
8.5783185
0
LINE
8
DEFAULT_255_2_778
10
11.2717324
20
6.3629185
11
11.2712324
21
6.3439185
0
LINE
8
DEFAULT_255_2_778
10
11.2712324
20
6.3439185
11
11.2537324
21
6.3394185
0
LINE
8
DEFAULT_255_2_778
10
11.2537324
20
6.3394185
11
10.3735324
21
6.7469185
0
LINE
8
DEFAULT_255_2_778
10
10.3735324
20
6.7469185
11
10.3462324
21
6.7662185
0
LINE
8
DEFAULT_255_2_778
10
10.3462324
20
6.7662185
11
10.3242324
21
6.7873185
0
LINE
8
DEFAULT_255_2_778
10
7.7729324
20
6.5312185
11
7.7702324
21
6.5111185
0
LINE
8
DEFAULT_255_2_778
10
7.7702324
20
6.5111185
11
7.7533324
21
6.5090185
0
LINE
8
DEFAULT_255_2_778
10
7.7533324
20
6.5090185
11
7.7435324
21
6.5159185
0
LINE
8
DEFAULT_255_2_778
10
7.7435324
20
6.5159185
11
7.0389324
21
6.8604185
0
LINE
8
DEFAULT_255_2_778
10
7.0389324
20
6.8604185
11
7.0124324
21
6.9755185
0
LINE
8
DEFAULT_255_2_778
10
4.7444324
20
7.2477185
11
4.7444324
21
7.2451185
0
LINE
8
DEFAULT_255_2_778
10
5.0977324
20
7.0125185
11
5.1321324
21
7.0236185
0
LINE
8
DEFAULT_255_2_778
10
5.1321324
20
7.0236185
11
5.1585324
21
7.0315185
0
LINE
8
DEFAULT_255_2_778
10
5.1585324
20
7.0315185
11
5.1760324
21
7.0350185
0
LINE
8
DEFAULT_255_2_778
10
5.3646324
20
6.5743185
11
5.3673324
21
6.5754185
0
LINE
8
DEFAULT_255_2_778
10
5.3673324
20
6.5754185
11
5.3593324
21
6.5709185
0
LINE
8
DEFAULT_255_2_778
10
5.3593324
20
6.5709185
11
5.3477324
21
6.5635185
0
LINE
8
DEFAULT_255_2_778
10
4.9249324
20
10.1372185
11
4.9786324
21
10.1708185
0
LINE
8
DEFAULT_255_2_778
10
11.4529324
20
10.7291185
11
11.4598324
21
11.0950185
0
LINE
8
DEFAULT_255_2_778
10
11.4598324
20
11.0950185
11
11.4646324
21
11.1064185
0
LINE
8
DEFAULT_255_2_778
10
11.4646324
20
11.1064185
11
11.4773324
21
11.1098185
0
LINE
8
DEFAULT_255_2_778
10
14.4390324
20
9.1707185
11
14.4292324
21
9.1540185
0
LINE
8
DEFAULT_255_2_778
10
11.7445324
20
9.5046185
11
11.9350324
21
9.0543185
0
LINE
8
DEFAULT_255_2_778
10
11.9350324
20
9.0543185
11
11.9437324
21
9.0437185
0
LINE
8
DEFAULT_255_2_778
10
14.3358324
20
8.8162185
11
14.3332324
21
8.8201185
0
LINE
8
DEFAULT_255_2_778
10
13.9054324
20
9.7377185
11
13.9054324
21
9.7377185
0
LINE
8
DEFAULT_255_2_778
10
13.2614324
20
10.2518185
11
13.2611324
21
10.2518185
0
LINE
8
DEFAULT_255_2_778
10
13.5548324
20
9.8663185
11
13.5548324
21
9.8663185
0
ENDSEC
0
EOF