0
SECTION
2
HEADER
9
$MEASUREMENT
70
1
0
ENDSEC
0
SECTION
2
TABLES
0
TABLE
2
LTYPE
0
LTYPE
72
65
70
64
2
CONTINUOUS
3
______
73
0
40
0
0
ENDTAB
0
TABLE
2
LAYER
0
LAYER
2
DEFAULT_255_2_778
70
0
62
255
6
CONTINUOUS
0
ENDTAB
0
ENDSEC
0
SECTION
2
ENTITIES
0
ARC
8
DEFAULT_255_2_778
10
8.2825822
20
10.3071521
40
4.0043342
50
199.4617831
51
239.9657079
0
ARC
8
DEFAULT_255_2_778
10
4.4493479
20
7.3110036
40
1.6629934
50
88.0119152
51
88.6388948
0
ARC
8
DEFAULT_255_2_778
10
4.4494678
20
7.3160565
40
1.6579391
50
88.6388882
51
89.9995669
0
ARC
8
DEFAULT_255_2_778
10
4.4490899
20
7.3314373
40
1.6425583
50
89.9863821
51
100.0291441
0
ARC
8
DEFAULT_255_2_778
10
7.9855142
20
10.0876572
40
3.9884943
50
196.5894297
51
240.0841111
0
LINE
8
DEFAULT_255_2_778
10
7.9569399
20
5.4952959
11
8.6691399
21
5.0859959
0
LINE
8
DEFAULT_255_2_778
10
8.6691399
20
5.0859959
11
8.6691399
21
5.4608959
0
LINE
8
DEFAULT_255_2_778
10
8.6691399
20
5.4608959
11
8.1945399
21
5.7362959
0
LINE
8
DEFAULT_255_2_778
10
8.1945399
20
5.7362959
11
6.2783399
21
6.8404959
0
LINE
8
DEFAULT_255_2_778
10
5.9963399
20
6.6305959
11
7.9569399
21
5.4952959
0
ARC
8
DEFAULT_255_2_778
10
7.0659144
20
5.8704119
40
1.603272
50
359.8597989
51
359.9999861
0
ARC
8
DEFAULT_255_2_778
10
7.0897913
20
5.8704658
40
1.5793952
50
359.9980289
51
60.0673022
0
ARC
8
DEFAULT_255_2_778
10
4.4486745
20
7.3874041
40
1.5792836
50
60.0642696
51
87.8623763
0
ARC
8
DEFAULT_255_2_778
10
8.2839019
20
10.3004853
40
4.0053145
50
199.4680612
51
239.9626124
0
LINE
8
DEFAULT_255_2_778
10
8.1945816
20
5.7326887
11
8.6691816
21
5.4571887
0
LINE
8
DEFAULT_255_2_778
10
8.6691816
20
5.4571887
11
8.6691816
21
5.8664887
0
LINE
8
DEFAULT_255_2_778
10
7.8778816
20
7.2391887
11
5.2367816
21
8.7559887
0
LINE
8
DEFAULT_255_2_778
10
6.2789816
20
6.8330887
11
8.1945816
21
5.7326887
0
ARC
8
DEFAULT_255_2_778
10
6.6519884
20
9.0691706
40
4.0045357
50
198.4284403
51
239.976665
0
ARC
8
DEFAULT_255_2_778
10
1.8060128
20
5.8545787
40
1.5884054
50
120.116766
51
179.9430771
0
ARC
8
DEFAULT_255_2_778
10
2.2338716
20
-0.4045651
40
4.0055407
50
18.4328176
51
59.9691692
0
ARC
8
DEFAULT_255_2_778
10
7.0785682
20
2.810276
40
1.5906406
50
300.0299455
51
359.9524787
0
LINE
8
DEFAULT_255_2_778
10
8.6692083
20
2.8089568
11
8.6692083
21
3.2836568
0
LINE
8
DEFAULT_255_2_778
10
8.6692083
20
3.2836568
11
4.6483083
21
5.6019568
0
LINE
8
DEFAULT_255_2_778
10
2.8528083
20
7.8032568
11
2.7184083
21
8.2157568
0
LINE
8
DEFAULT_255_2_778
10
2.7184083
20
8.2157568
11
1.0090083
21
7.2285568
0
LINE
8
DEFAULT_255_2_778
10
0.2176083
20
5.8561568
11
0.2176083
21
5.3815568
0
LINE
8
DEFAULT_255_2_778
10
0.2176083
20
5.3815568
11
4.2385083
21
3.0632568
0
LINE
8
DEFAULT_255_2_778
10
6.0339083
20
0.8619568
11
6.1683083
21
0.4494568
0
LINE
8
DEFAULT_255_2_778
10
6.1683083
20
0.4494568
11
7.8746083
21
1.4331568
0
LINE
8
DEFAULT_255_2_778
10
8.6692083
20
2.8089568
11
8.6692083
21
2.8089568
0
ARC
8
DEFAULT_255_2_778
10
7.9956704
20
10.0956498
40
4.0008212
50
196.6598328
51
240.013708
0
ARC
8
DEFAULT_255_2_778
10
4.4283982
20
7.4155657
40
1.5559312
50
99.8289666
51
120.0061155
0
ARC
8
DEFAULT_255_2_778
10
6.6402689
20
9.0805922
40
4.0015094
50
198.5065849
51
240.0838667
0
LINE
8
DEFAULT_255_2_778
10
4.6480889
20
5.6088585
11
8.6688889
21
3.2905585
0
LINE
8
DEFAULT_255_2_778
10
8.6688889
20
3.2905585
11
8.6688889
21
5.0894585
0
LINE
8
DEFAULT_255_2_778
10
8.6688889
20
5.0894585
11
7.9566889
21
5.4987585
0
LINE
8
DEFAULT_255_2_778
10
7.9566889
20
5.4987585
11
5.9960889
21
6.6303585
0
LINE
8
DEFAULT_255_2_778
10
3.6502889
20
8.7629585
11
2.7112889
21
8.2228585
0
LINE
8
DEFAULT_255_2_778
10
2.7112889
20
8.2228585
11
2.8456889
21
7.8104585
0
LINE
8
DEFAULT_255_2_778
10
4.6445889
20
5.6122585
11
4.6480889
21
5.6088585
0
ARC
8
DEFAULT_255_2_778
10
2.0138899
20
-0.6174178
40
4.0057115
50
18.4348217
51
59.9702866
0
ARC
8
DEFAULT_255_2_778
10
2.2303086
20
-0.3976897
40
4.0060012
50
18.434525
51
59.9680342
0
LINE
8
DEFAULT_255_2_778
10
5.8140444
20
0.649291
11
5.9243444
21
0.315591
0
LINE
8
DEFAULT_255_2_778
10
5.9243444
20
0.315591
11
6.1651444
21
0.456591
0
LINE
8
DEFAULT_255_2_778
10
6.1651444
20
0.456591
11
6.0307444
21
0.869091
0
LINE
8
DEFAULT_255_2_778
10
4.2352444
20
3.070491
11
0.2178444
21
5.388991
0
LINE
8
DEFAULT_255_2_778
10
0.2178444
20
5.388991
11
0.2178444
21
5.048691
0
LINE
8
DEFAULT_255_2_778
10
0.2178444
20
5.048691
11
1.9135444
21
4.068191
0
LINE
8
DEFAULT_255_2_778
10
1.9135444
20
4.068191
11
4.0185444
21
2.850591
0
ARC
8
DEFAULT_255_2_778
10
4.4403587
20
1.2958936
40
1.5915709
50
240.1074328
51
267.2176995
0
ARC
8
DEFAULT_255_2_778
10
4.439996
20
1.2940228
40
1.5896847
50
267.2274811
51
270.0000194
0
LINE
8
DEFAULT_255_2_778
10
4.4399966
20
-0.2956619
11
4.4411149
21
-0.2956615
0
ARC
8
DEFAULT_255_2_778
10
4.4397243
20
1.2963362
40
1.5919983
50
270.0500456
51
298.6959476
0
ARC
8
DEFAULT_255_2_778
10
4.4318119
20
1.3127788
40
1.610221
50
298.6619831
51
299.8413914
0
ARC
8
DEFAULT_255_2_778
10
2.0180516
20
-0.6170454
40
4.0047815
50
18.4286971
51
59.9732879
0
ARC
8
DEFAULT_255_2_778
10
1.8161356
20
2.8088414
40
1.6019813
50
179.8597399
51
179.9999915
0
ARC
8
DEFAULT_255_2_778
10
1.793643
20
2.8088978
40
1.5794888
50
180.0020357
51
240.069527
0
LINE
8
DEFAULT_255_2_778
10
1.0055591
20
1.4397631
11
3.6471591
21
-0.0839369
0
LINE
8
DEFAULT_255_2_778
10
5.2330591
20
-0.0839369
11
5.9278591
21
0.3153631
0
LINE
8
DEFAULT_255_2_778
10
5.9278591
20
0.3153631
11
5.8174591
21
0.6489631
0
LINE
8
DEFAULT_255_2_778
10
4.0220591
20
2.8502631
11
0.2141591
21
5.0484631
0
LINE
8
DEFAULT_255_2_778
10
0.2141591
20
5.0484631
11
0.2141591
21
2.8127631
0
LINE
8
DEFAULT_255_2_778
10
1.0055591
20
1.4400631
11
1.0055591
21
1.4397631
0
ARC
8
DEFAULT_255_2_778
10
4.4403587
20
1.2958936
40
1.5915709
50
240.1074328
51
267.2176995
0
ARC
8
DEFAULT_255_2_778
10
4.439996
20
1.2940228
40
1.5896847
50
267.2274811
51
270.0000194
0
LINE
8
DEFAULT_255_2_778
10
4.4399966
20
-0.2956619
11
4.4411149
21
-0.2956615
0
ARC
8
DEFAULT_255_2_778
10
4.4397243
20
1.2963362
40
1.5919983
50
270.0500456
51
298.6959476
0
ARC
8
DEFAULT_255_2_778
10
4.4318119
20
1.3127788
40
1.610221
50
298.6619831
51
299.8413914
0
ARC
8
DEFAULT_255_2_778
10
2.0180516
20
-0.6170454
40
4.0047815
50
18.4286971
51
59.9732879
0
ARC
8
DEFAULT_255_2_778
10
1.8161356
20
2.8088414
40
1.6019813
50
179.8597399
51
179.9999915
0
ARC
8
DEFAULT_255_2_778
10
1.793643
20
2.8088978
40
1.5794888
50
180.0020357
51
240.069527
0
LINE
8
DEFAULT_255_2_778
10
1.0055591
20
1.4397631
11
3.6471591
21
-0.0839369
0
LINE
8
DEFAULT_255_2_778
10
5.2330591
20
-0.0839369
11
5.9278591
21
0.3153631
0
LINE
8
DEFAULT_255_2_778
10
5.9278591
20
0.3153631
11
5.8174591
21
0.6489631
0
LINE
8
DEFAULT_255_2_778
10
4.0220591
20
2.8502631
11
0.2141591
21
5.0484631
0
LINE
8
DEFAULT_255_2_778
10
0.2141591
20
5.0484631
11
0.2141591
21
2.8127631
0
LINE
8
DEFAULT_255_2_778
10
1.0055591
20
1.4400631
11
1.0055591
21
1.4397631
0
ARC
8
DEFAULT_255_2_778
10
10.3146714
20
4.305763
40
0.4414475
50
18.406293
51
40.6240957
0
ARC
8
DEFAULT_255_2_778
10
10.3911177
20
4.3482166
40
0.3562165
50
43.4483129
51
93.7959252
0
ARC
8
DEFAULT_255_2_778
10
10.3583685
20
4.3092562
40
0.3945019
50
88.6685607
51
120.4425819
0
ARC
8
DEFAULT_255_2_778
10
10.303409
20
4.4081646
40
0.2813959
50
120.9988043
51
180.7153226
0
ARC
8
DEFAULT_255_2_778
10
10.310134
20
4.4272107
40
0.2889808
50
184.477321
51
254.1831656
0
ARC
8
DEFAULT_255_2_778
10
10.5181565
20
4.8285475
40
0.7374275
50
247.113728
51
253.1040948
0
ARC
8
DEFAULT_255_2_778
10
10.3109666
20
2.9106249
40
1.1474062
50
62.3042512
51
73.3026451
0
ARC
8
DEFAULT_255_2_778
10
10.4880075
20
3.2440042
40
0.7699405
50
46.1692544
51
62.4389583
0
ARC
8
DEFAULT_255_2_778
10
10.6115538
20
3.374317
40
0.5903757
50
20.5006501
51
46.0604935
0
ARC
8
DEFAULT_255_2_778
10
10.588392
20
3.3673366
40
0.6145173
50
10.707026
51
20.3539477
0
ARC
8
DEFAULT_255_2_778
10
10.5032636
20
3.3522131
40
0.700974
50
359.847842
51
10.6289263
0
ARC
8
DEFAULT_255_2_778
10
10.557857
20
3.3419582
40
0.6464326
50
328.6442944
51
0.7439535
0
ARC
8
DEFAULT_255_2_778
10
10.4857267
20
3.4140321
40
0.7459188
50
286.2636736
51
326.799343
0
ARC
8
DEFAULT_255_2_778
10
10.3675945
20
3.7332359
40
1.0856984
50
269.7066119
51
287.5308252
0
ARC
8
DEFAULT_255_2_778
10
10.3461233
20
3.6931564
40
1.045726
50
237.2816312
51
270.8718492
0
ARC
8
DEFAULT_255_2_778
10
10.2038572
20
3.4577774
40
0.7708333
50
194.8399662
51
236.7218493
0
ARC
8
DEFAULT_255_2_778
10
10.2776486
20
3.4942462
40
0.436574
50
198.0394521
51
248.189982
0
ARC
8
DEFAULT_255_2_778
10
10.3633617
20
3.651849
40
0.6151002
50
246.2312837
51
270.1745083
0
ARC
8
DEFAULT_255_2_778
10
10.3743254
20
3.5333459
40
0.4966776
50
268.9513074
51
297.1008011
0
ARC
8
DEFAULT_255_2_778
10
10.4707375
20
3.3596634
40
0.2982182
50
295.8126019
51
359.325265
0
ARC
8
DEFAULT_255_2_778
10
10.4918041
20
3.3451851
40
0.2773479
50
2.2660918
51
71.0025902
0
ARC
8
DEFAULT_255_2_778
10
10.150071
20
2.7127669
40
0.9935064
50
64.2248514
51
71.054271
0
ARC
8
DEFAULT_255_2_778
10
10.5047477
20
4.9528369
40
1.242123
50
240.9147567
51
253.8301976
0
ARC
8
DEFAULT_255_2_778
10
10.2065475
20
4.43378
40
0.6436156
50
213.0268853
51
241.6516488
0
ARC
8
DEFAULT_255_2_778
10
10.1633486
20
4.3823063
40
0.579674
50
178.6511672
51
211.0880917
0
ARC
8
DEFAULT_255_2_778
10
10.2508315
20
4.4068257
40
0.667085
50
110.2426737
51
180.9340258
0
ARC
8
DEFAULT_255_2_778
10
10.3468766
20
4.1794776
40
0.9136942
50
89.5831878
51
110.9607719
0
ARC
8
DEFAULT_255_2_778
10
10.3564339
20
4.0343368
40
1.0588148
50
89.9999375
51
90.1574946
0
ARC
8
DEFAULT_255_2_778
10
10.3975612
20
4.3138998
40
0.7803362
50
40.4432186
51
93.0210612
0
ARC
8
DEFAULT_255_2_778
10
10.3392635
20
4.3071249
40
0.8297415
50
19.0216708
51
38.1872833
0
ARC
8
DEFAULT_255_2_778
10
10.1338554
20
4.2249037
40
1.0507866
50
17.1841221
51
19.6096841
0
ARC
8
DEFAULT_255_2_778
10
16.1622164
20
3.2807568
40
1.8091948
50
87.3481189
51
90.0184086
0
ARC
8
DEFAULT_255_2_778
10
16.2511369
20
4.0174408
40
1.0705861
50
47.9572642
51
90.2790212
0
ARC
8
DEFAULT_255_2_778
10
16.4112766
20
4.2551447
40
0.7878427
50
40.5807577
51
45.0281062
0
ARC
8
DEFAULT_255_2_778
10
16.2958653
20
3.6277669
40
0.9693097
50
273.4298405
51
317.4230424
0
ARC
8
DEFAULT_255_2_778
10
16.1727215
20
4.2737421
40
1.6236838
50
273.6423943
51
276.4051002
0
ARC
8
DEFAULT_255_2_778
10
16.1626093
20
4.4398127
40
1.7900615
50
269.9688172
51
273.6277185
0
ARC
8
DEFAULT_255_2_778
10
16.1536416
20
3.8451945
40
1.1954697
50
248.9236405
51
270.3831094
0
ARC
8
DEFAULT_255_2_778
10
16.1569419
20
3.7945542
40
1.1496012
50
190.0027551
51
247.862474
0
ARC
8
DEFAULT_255_2_778
10
16.400023
20
3.8701547
40
1.4024892
50
179.9225086
51
191.3195283
0
ARC
8
DEFAULT_255_2_778
10
16.3327679
20
3.8812909
40
1.3352648
50
155.3371419
51
180.3964609
0
ARC
8
DEFAULT_255_2_778
10
16.1227754
20
3.9832594
40
1.1018904
50
102.5525765
51
155.5992917
0
ARC
8
DEFAULT_255_2_778
10
16.1579788
20
3.8307963
40
1.2583606
50
89.8335212
51
102.6084136
0
ARC
8
DEFAULT_255_2_778
10
16.2056613
20
3.8924393
40
0.7967628
50
89.3546758
51
112.6877683
0
ARC
8
DEFAULT_255_2_778
10
16.2121392
20
3.9414218
40
0.7544791
50
114.5767275
51
173.6852709
0
ARC
8
DEFAULT_255_2_778
10
16.47797
20
3.8711071
40
1.0272356
50
171.4173955
51
180.0644564
0
ARC
8
DEFAULT_255_2_778
10
16.3666895
20
3.8568892
40
0.9160476
50
179.1829682
51
209.6841871
0
ARC
8
DEFAULT_255_2_778
10
16.1745461
20
3.7527367
40
0.6975568
50
210.0676673
51
257.9647195
0
ARC
8
DEFAULT_255_2_778
10
16.2113478
20
3.9051206
40
0.8542753
50
257.6817762
51
270.2204786
0
ARC
8
DEFAULT_255_2_778
10
16.2239186
20
3.8907113
40
0.839911
50
269.3667013
51
295.0965761
0
ARC
8
DEFAULT_255_2_778
10
16.2436623
20
3.8164004
40
0.7643631
50
296.1189774
51
349.1422023
0
ARC
8
DEFAULT_255_2_778
10
16.0272037
20
3.8795881
40
0.9890783
50
347.9092865
51
359.4417591
0
ARC
8
DEFAULT_255_2_778
10
16.1117779
20
3.8685136
40
0.9044584
50
0.0910893
51
26.8545013
0
ARC
8
DEFAULT_255_2_778
10
16.249158
20
3.9334305
40
0.7525804
50
27.1698567
51
82.324893
0
ARC
8
DEFAULT_255_2_778
10
16.2159254
20
3.7793173
40
0.9098352
50
81.5470091
51
90.0812581
0
ARC
8
DEFAULT_255_2_778
10
19.1191596
20
4.4272805
40
0.6733798
50
116.9344732
51
152.7645525
0
ARC
8
DEFAULT_255_2_778
10
19.1005718
20
4.4581292
40
0.6374631
50
90.009474
51
116.7009633
0
ARC
8
DEFAULT_255_2_778
10
19.1002831
20
4.4514915
40
0.6441009
50
79.838343
51
89.9836968
0
ARC
8
DEFAULT_255_2_778
10
19.0948977
20
4.4244761
40
0.6716428
50
66.7210804
51
79.7927344
0
ARC
8
DEFAULT_255_2_778
10
19.066359
20
4.3557355
40
0.7460667
50
66.6019015
51
66.7941404
0
ARC
8
DEFAULT_255_2_778
10
19.1483962
20
3.9647094
40
0.6917536
50
71.9586044
51
88.3591656
0
ARC
8
DEFAULT_255_2_778
10
19.1165323
20
3.517978
40
1.1393737
50
87.4006932
51
90.0400884
0
ARC
8
DEFAULT_255_2_778
10
19.1157442
20
4.1849045
40
0.4724471
50
90.0011012
51
97.8754439
0
ARC
8
DEFAULT_255_2_778
10
19.1144393
20
4.1930422
40
0.4642073
50
97.8535258
51
109.432795
0
ARC
8
DEFAULT_255_2_778
10
19.1145774
20
4.19393
40
0.4634163
50
109.4854205
51
123.4739536
0
ARC
8
DEFAULT_255_2_778
10
19.1244111
20
4.1781088
40
0.4820375
50
123.4117109
51
125.5398647
0
ARC
8
DEFAULT_255_2_778
10
19.1583416
20
4.1350519
40
0.5368022
50
125.8154525
51
141.7960249
0
ARC
8
DEFAULT_255_2_778
10
19.3012418
20
4.0223969
40
0.7187681
50
141.7842763
51
154.0427125
0
ARC
8
DEFAULT_255_2_778
10
19.5739746
20
3.888308
40
1.0226793
50
153.9762273
51
163.2479671
0
ARC
8
DEFAULT_255_2_778
10
19.9918623
20
3.7604418
40
1.4596884
50
163.1697843
51
170.0303844
0
ARC
8
DEFAULT_255_2_778
10
20.5751357
20
3.656589
40
2.0521343
50
169.993952
51
175.5063743
0
ARC
8
DEFAULT_255_2_778
10
21.3549592
20
3.5935716
40
2.8344986
50
175.4714875
51
179.8430901
0
ARC
8
DEFAULT_255_2_778
10
21.8398346
20
3.5858316
40
3.3193995
50
179.7324111
51
180.0013815
0
ARC
8
DEFAULT_255_2_778
10
20.0113847
20
4.0304965
40
1.250686
50
359.5673067
51
10.075885
0
ARC
8
DEFAULT_255_2_778
10
20.5198039
20
4.1243267
40
0.7337006
50
9.8077276
51
26.3050959
0
ARC
8
DEFAULT_255_2_778
10
20.7775626
20
4.2549987
40
0.4447357
50
25.9296043
51
56.6390754
0
ARC
8
DEFAULT_255_2_778
10
20.7928342
20
4.2588939
40
0.4332142
50
58.0428899
51
90.9257192
0
ARC
8
DEFAULT_255_2_778
10
20.7870345
20
4.0969328
40
0.5951199
50
90.1154742
51
100.0305606
0
ARC
8
DEFAULT_255_2_778
10
20.7902491
20
4.0737128
40
0.6185455
50
99.9491506
51
112.2027897
0
ARC
8
DEFAULT_255_2_778
10
20.7866518
20
4.0832119
40
0.6083915
50
112.2271867
51
114.1238205
0
ARC
8
DEFAULT_255_2_778
10
20.7843204
20
4.0883585
40
0.6027416
50
114.1215076
51
135.5961335
0
ARC
8
DEFAULT_255_2_778
10
20.8454395
20
4.0317467
40
0.6860224
50
135.7899621
51
153.0623266
0
ARC
8
DEFAULT_255_2_778
10
21.0455512
20
3.9294469
40
0.9107662
50
153.0280153
51
165.5736955
0
ARC
8
DEFAULT_255_2_778
10
21.3980928
20
3.8370402
40
1.2752146
50
165.4989871
51
174.7967511
0
ARC
8
DEFAULT_255_2_778
10
21.8419816
20
3.792164
40
1.7213498
50
174.6491157
51
180.1135846
0
ARC
8
DEFAULT_255_2_778
10
20.2005617
20
4.7287355
40
0.0812281
50
139.9785136
51
170.9934409
0
ARC
8
DEFAULT_255_2_778
10
20.3900378
20
4.592863
40
0.3142099
50
135.3490508
51
143.225278
0
ARC
8
DEFAULT_255_2_778
10
20.6586648
20
4.3316157
40
0.6889188
50
131.3439622
51
135.593201
0
ARC
8
DEFAULT_255_2_778
10
21.1010681
20
3.8308852
40
1.3570884
50
129.0588303
51
131.4016382
0
ARC
8
DEFAULT_255_2_778
10
14.3949581
20
12.1284627
40
9.3116401
50
308.9286125
51
309.1765614
0
ARC
8
DEFAULT_255_2_778
10
20.7920622
20
4.2648687
40
0.8254138
50
113.2500075
51
128.5883039
0
ARC
8
DEFAULT_255_2_778
10
20.8467092
20
3.9884947
40
1.1024891
50
89.4518182
51
110.1881836
0
ARC
8
DEFAULT_255_2_778
10
20.8572095
20
3.7811628
40
1.3097706
50
88.9947096
51
89.9979121
0
ARC
8
DEFAULT_255_2_778
10
20.8567866
20
3.7584964
40
1.3324411
50
87.7957406
51
88.9936308
0
ARC
8
DEFAULT_255_2_778
10
20.8693601
20
4.2761098
40
0.8147602
50
33.3521649
51
87.2792642
0
ARC
8
DEFAULT_255_2_778
10
22.723682
20
3.9017592
40
1.3457129
50
135.8436769
51
146.4364824
0
ARC
8
DEFAULT_255_2_778
10
22.3861943
20
4.2322198
40
0.8733825
50
118.9841133
51
135.9739739
0
ARC
8
DEFAULT_255_2_778
10
22.3768196
20
4.1903524
40
0.9059115
50
87.7278699
51
117.1820378
0
ARC
8
DEFAULT_255_2_778
10
22.4281702
20
4.0153355
40
1.0803263
50
72.0827165
51
90.8186402
0
ARC
8
DEFAULT_255_2_778
10
22.5327981
20
4.3500054
40
0.7297072
50
24.3090149
51
71.815318
0
ARC
8
DEFAULT_255_2_778
10
22.1676752
20
4.1707838
40
1.1363104
50
10.2886012
51
24.9658304
0
ARC
8
DEFAULT_255_2_778
10
21.5115527
20
4.0459775
40
1.8041828
50
0.8198058
51
10.4668148
0
ARC
8
DEFAULT_255_2_778
10
20.9786113
20
4.0242162
40
2.3374238
50
359.9935117
51
1.1662611
0
ARC
8
DEFAULT_255_2_778
10
21.6123847
20
4.0304965
40
1.250686
50
359.5673067
51
10.075885
0
ARC
8
DEFAULT_255_2_778
10
22.1208039
20
4.1243267
40
0.7337006
50
9.8077276
51
26.3050959
0
ARC
8
DEFAULT_255_2_778
10
22.3785626
20
4.2549987
40
0.4447357
50
25.9296043
51
56.6390754
0
ARC
8
DEFAULT_255_2_778
10
22.3938342
20
4.2588939
40
0.4332142
50
58.0428899
51
90.9257192
0
ARC
8
DEFAULT_255_2_778
10
22.3881166
20
4.1029106
40
0.5891424
50
90.1246307
51
99.0610198
0
ARC
8
DEFAULT_255_2_778
10
22.3922109
20
4.0715279
40
0.6207789
50
98.9780358
51
110.6269827
0
ARC
8
DEFAULT_255_2_778
10
22.3875718
20
4.0842908
40
0.6071999
50
110.6415504
51
116.149123
0
ARC
8
DEFAULT_255_2_778
10
22.3849784
20
4.0900994
40
0.600843
50
116.1712459
51
136.101186
0
ARC
8
DEFAULT_255_2_778
10
22.448352
20
4.0319412
40
0.686837
50
136.2709977
51
152.6590777
0
ARC
8
DEFAULT_255_2_778
10
22.6448507
20
3.9299149
40
0.9082438
50
152.6350953
51
164.8240035
0
ARC
8
DEFAULT_255_2_778
10
22.986818
20
3.8353758
40
1.2630354
50
164.7459614
51
173.7060504
0
ARC
8
DEFAULT_255_2_778
10
23.3859928
20
3.7865896
40
1.6651592
50
173.5432694
51
178.2221011
0
ARC
8
DEFAULT_255_2_778
10
25.414937
20
4.3344737
40
1.6963799
50
62.9737166
51
90.0878797
0
ARC
8
DEFAULT_255_2_778
10
25.4166482
20
4.3348227
40
1.695292
50
8.0472031
51
63.0198742
0
ARC
8
DEFAULT_255_2_778
10
25.4089916
20
4.3379288
40
1.7024435
50
359.9839367
51
7.9076247
0
ARC
8
DEFAULT_255_2_778
10
25.4332689
20
4.3353116
40
1.6781676
50
332.2089375
51
0.0730596
0
ARC
8
DEFAULT_255_2_778
10
25.4106236
20
4.3477269
40
1.7039894
50
278.913013
51
332.1946506
0
ARC
8
DEFAULT_255_2_778
10
25.4128463
20
4.3537217
40
1.7095701
50
269.9828658
51
278.8082903
0
ARC
8
DEFAULT_255_2_778
10
25.4097354
20
4.3408017
40
1.6966521
50
242.9775171
51
270.0877925
0
ARC
8
DEFAULT_255_2_778
10
25.407808
20
4.3401371
40
1.695185
50
188.0495838
51
243.0253432
0
ARC
8
DEFAULT_255_2_778
10
25.4153658
20
4.336976
40
1.7022307
50
179.9839957
51
187.9086117
0
ARC
8
DEFAULT_255_2_778
10
25.3944099
20
4.3398597
40
1.6812765
50
152.4490363
51
180.0820676
0
ARC
8
DEFAULT_255_2_778
10
25.4115413
20
4.3300246
40
1.7010145
50
99.643694
51
152.4222278
0
ARC
8
DEFAULT_255_2_778
10
25.4116693
20
4.3151276
40
1.715724
50
89.9777664
51
99.5645702
0
ARC
8
DEFAULT_255_2_778
10
25.4082806
20
4.2871747
40
1.2160299
50
270.1910385
51
339.7877547
0
ARC
8
DEFAULT_255_2_778
10
25.302935
20
4.3360464
40
1.331807
50
339.380541
51
0.1852136
0
ARC
8
DEFAULT_255_2_778
10
25.3127124
20
4.3458014
40
1.3220339
50
359.7638054
51
24.0709317
0
ARC
8
DEFAULT_255_2_778
10
25.408974
20
4.3957819
40
1.2137744
50
23.770129
51
89.8413405
0
ARC
8
DEFAULT_255_2_778
10
25.4168573
20
4.3928371
40
1.2167228
50
90.2129517
51
160.1294199
0
ARC
8
DEFAULT_255_2_778
10
25.5219141
20
4.344513
40
1.3319856
50
159.7105097
51
180.1790079
0
ARC
8
DEFAULT_255_2_778
10
25.512095
20
4.3348942
40
1.3221711
50
179.7635092
51
204.0679262
0
ARC
8
DEFAULT_255_2_778
10
25.415628
20
4.284842
40
1.213695
50
203.7676974
51
269.8445496
0
ARC
8
DEFAULT_255_2_778
10
28.3648883
20
3.7052626
40
0.5727315
50
192.3616315
51
230.8144558
0
ARC
8
DEFAULT_255_2_778
10
28.5167531
20
3.8750266
40
0.8003376
50
230.0664387
51
255.8523769
0
ARC
8
DEFAULT_255_2_778
10
28.5606533
20
4.0268154
40
0.9582684
50
255.5254194
51
270.1723033
0
ARC
8
DEFAULT_255_2_778
10
28.5731005
20
4.1207581
40
1.05225
50
269.4791503
51
284.9943466
0
ARC
8
DEFAULT_255_2_778
10
28.6770047
20
3.749164
40
0.6664391
50
284.6310057
51
308.2220143
0
ARC
8
DEFAULT_255_2_778
10
28.8208944
20
3.5702258
40
0.4368419
50
307.9161997
51
0.1345375
0
ARC
8
DEFAULT_255_2_778
10
28.7790807
20
3.5547992
40
0.4789371
50
1.9685985
51
63.0346307
0
ARC
8
DEFAULT_255_2_778
10
28.3866586
20
2.9715046
40
1.1798456
50
58.890505
51
70.7452429
0
ARC
8
DEFAULT_255_2_778
10
28.8443574
20
5.9844919
40
1.8188099
50
245.1441787
51
252.0867906
0
ARC
8
DEFAULT_255_2_778
10
28.6294758
20
5.5235051
40
1.3102031
50
236.1204308
51
245.1969729
0
ARC
8
DEFAULT_255_2_778
10
28.4345774
20
5.2349177
40
0.9619691
50
223.9344242
51
236.1760602
0
ARC
8
DEFAULT_255_2_778
10
28.2955789
20
5.1002877
40
0.7684607
50
207.5695119
51
223.8964215
0
ARC
8
DEFAULT_255_2_778
10
28.2670254
20
5.0831812
40
0.7352347
50
202.235185
51
207.4176442
0
ARC
8
DEFAULT_255_2_778
10
28.3156201
20
5.1005935
40
0.7868079
50
188.0747653
51
202.0697931
0
ARC
8
DEFAULT_255_2_778
10
28.5036598
20
5.1279717
40
0.9768293
50
179.8252157
51
188.1154539
0
ARC
8
DEFAULT_255_2_778
10
28.3673409
20
5.1386363
40
0.8405409
50
153.0002605
51
180.523844
0
ARC
8
DEFAULT_255_2_778
10
28.4422857
20
5.0694088
40
0.939153
50
107.7311227
51
151.3126336
0
ARC
8
DEFAULT_255_2_778
10
28.5762808
20
4.7446179
40
1.2896432
50
89.779892
51
109.0069501
0
ARC
8
DEFAULT_255_2_778
10
28.5905932
20
4.6645008
40
1.3697826
50
74.8717381
51
90.3914364
0
ARC
8
DEFAULT_255_2_778
10
28.6820435
20
4.9918883
40
1.0298781
50
50.5030109
51
75.0296912
0
ARC
8
DEFAULT_255_2_778
10
28.7301017
20
5.0662028
40
0.9420211
50
11.6142269
51
49.883691
0
ARC
8
DEFAULT_255_2_778
10
28.575167
20
4.9833665
40
0.6721256
50
12.4310658
51
36.1692413
0
ARC
8
DEFAULT_255_2_778
10
28.6603348
20
5.0229928
40
0.5802732
50
37.9739272
51
83.3763696
0
ARC
8
DEFAULT_255_2_778
10
28.5842115
20
4.6542514
40
0.9559064
50
81.3930813
51
90.2083709
0
ARC
8
DEFAULT_255_2_778
10
28.5686414
20
4.9080567
40
0.702199
50
89.0131699
51
119.2255997
0
ARC
8
DEFAULT_255_2_778
10
28.435614
20
5.1390074
40
0.4357095
50
118.7874507
51
180.6780158
0
ARC
8
DEFAULT_255_2_778
10
28.4109764
20
5.1255708
40
0.4111247
50
178.8458887
51
199.5420055
0
ARC
8
DEFAULT_255_2_778
10
28.3649242
20
5.1162501
40
0.3646678
50
200.5822776
51
219.4534929
0
ARC
8
DEFAULT_255_2_778
10
28.4697229
20
5.2025925
40
0.5004535
50
219.4619656
51
232.2137613
0
ARC
8
DEFAULT_255_2_778
10
28.6279939
20
5.4046111
40
0.7570857
50
232.1152533
51
241.1316727
0
ARC
8
DEFAULT_255_2_778
10
28.8200989
20
5.7494467
40
1.1518184
50
241.0447981
51
247.5640033
0
ARC
8
DEFAULT_255_2_778
10
28.9627961
20
6.0815687
40
1.5132702
50
247.369347
51
249.2612167
0
ARC
8
DEFAULT_255_2_778
10
28.4770554
20
3.0284078
40
1.5162985
50
60.4947879
51
72.871264
0
ARC
8
DEFAULT_255_2_778
10
28.6613914
20
3.3506728
40
1.145043
50
44.3614595
51
60.5805169
0
ARC
8
DEFAULT_255_2_778
10
28.856364
20
3.5384302
40
0.8743745
50
21.4624365
51
44.4981209
0
ARC
8
DEFAULT_255_2_778
10
28.9759704
20
3.5906089
40
0.7439857
50
8.0880006
51
21.0929639
0
ARC
8
DEFAULT_255_2_778
10
29.0166792
20
3.5971923
40
0.702756
50
0.0211377
51
8.0235583
0
ARC
8
DEFAULT_255_2_778
10
28.7892795
20
3.5867074
40
0.9302176
50
335.0336115
51
0.6617888
0
ARC
8
DEFAULT_255_2_778
10
28.8296078
20
3.5877216
40
0.894266
50
294.410988
51
333.8840205
0
ARC
8
DEFAULT_255_2_778
10
28.6455088
20
3.9559541
40
1.305756
50
277.7449111
51
295.089317
0
ARC
8
DEFAULT_255_2_778
10
28.5791269
20
4.3646269
40
1.7196801
50
269.8670033
51
278.1014945
0
ARC
8
DEFAULT_255_2_778
10
28.5670157
20
4.2033522
40
1.5584218
50
255.5327291
51
270.2985126
0
ARC
8
DEFAULT_255_2_778
10
28.4873161
20
3.9004516
40
1.2452158
50
235.5924815
51
255.6017326
0
ARC
8
DEFAULT_255_2_778
10
28.3668226
20
3.7293147
40
1.0359367
50
202.0048951
51
235.7421837
0
ARC
8
DEFAULT_255_2_778
10
28.3135226
20
3.7014495
40
0.9760964
50
194.076166
51
201.6606485
0
LINE
8
DEFAULT_255_2_778
10
10.3038351
20
4.1229515
11
10.6406351
21
4.0096515
0
LINE
8
DEFAULT_255_2_778
10
9.4587351
20
3.2603515
11
9.8625351
21
3.3590515
0
LINE
8
DEFAULT_255_2_778
10
10.4726351
20
3.6524515
11
10.1588351
21
3.7598515
0
LINE
8
DEFAULT_255_2_778
10
11.1377351
20
4.5353515
11
10.7335351
21
4.4451515
0
LINE
8
DEFAULT_255_2_778
10
12.8856351
20
4.9682515
11
13.2692351
21
4.9682515
0
LINE
8
DEFAULT_255_2_778
10
13.2692351
20
4.9682515
11
13.8037351
21
3.3013515
0
LINE
8
DEFAULT_255_2_778
10
13.8037351
20
3.3013515
11
14.4135351
21
5.0351515
0
LINE
8
DEFAULT_255_2_778
10
14.4135351
20
5.0351515
11
14.8898351
21
5.0351515
0
LINE
8
DEFAULT_255_2_778
10
14.8898351
20
5.0351515
11
14.0418351
21
2.6941515
0
LINE
8
DEFAULT_255_2_778
10
14.0418351
20
2.6941515
11
13.6119351
21
2.6941515
0
LINE
8
DEFAULT_255_2_778
10
13.6119351
20
2.6941515
11
13.0832351
21
4.3234515
0
LINE
8
DEFAULT_255_2_778
10
13.0832351
20
4.3234515
11
12.5546351
21
2.6941515
0
LINE
8
DEFAULT_255_2_778
10
12.5546351
20
2.6941515
11
12.1215351
21
2.6941515
0
LINE
8
DEFAULT_255_2_778
10
12.1215351
20
2.6941515
11
11.2735351
21
5.0351515
0
LINE
8
DEFAULT_255_2_778
10
11.2735351
20
5.0351515
11
11.7497351
21
5.0351515
0
LINE
8
DEFAULT_255_2_778
10
11.7497351
20
5.0351515
11
12.3596351
21
3.3013515
0
LINE
8
DEFAULT_255_2_778
10
12.3596351
20
3.3013515
11
12.8856351
21
4.9682515
0
LINE
8
DEFAULT_255_2_778
10
17.0096351
20
4.7676515
11
17.0096351
21
5.0402515
0
LINE
8
DEFAULT_255_2_778
10
17.0096351
20
5.0402515
11
17.4626351
21
5.0402515
0
LINE
8
DEFAULT_255_2_778
10
17.4626351
20
5.0402515
11
17.4626351
21
2.6989515
0
LINE
8
DEFAULT_255_2_778
10
17.4626351
20
2.6989515
11
17.0096351
21
2.6989515
0
LINE
8
DEFAULT_255_2_778
10
17.0096351
20
2.6989515
11
17.0096351
21
2.9719515
0
LINE
8
DEFAULT_255_2_778
10
16.1616351
20
5.0891515
11
16.1616351
21
5.0899515
0
LINE
8
DEFAULT_255_2_778
10
16.2146351
20
4.6891515
11
16.2146351
21
4.6891515
0
LINE
8
DEFAULT_255_2_778
10
19.3626351
20
5.0404515
11
19.3626351
21
4.6224515
0
LINE
8
DEFAULT_255_2_778
10
18.5204351
20
3.5857515
11
18.5204351
21
2.6999515
0
LINE
8
DEFAULT_255_2_778
10
18.5204351
20
2.6999515
11
18.0674351
21
2.6999515
0
LINE
8
DEFAULT_255_2_778
10
18.0674351
20
2.6999515
11
18.0674351
21
5.0404515
0
LINE
8
DEFAULT_255_2_778
10
18.0674351
20
5.0404515
11
18.5204351
21
5.0404515
0
LINE
8
DEFAULT_255_2_778
10
18.5204351
20
5.0404515
11
18.5204351
21
4.7354515
0
LINE
8
DEFAULT_255_2_778
10
20.1206351
20
3.7887515
11
20.1206351
21
2.7026515
0
LINE
8
DEFAULT_255_2_778
10
20.1206351
20
2.7026515
11
19.6674351
21
2.7026515
0
LINE
8
DEFAULT_255_2_778
10
19.6674351
20
2.7026515
11
19.6674351
21
5.0404515
0
LINE
8
DEFAULT_255_2_778
10
19.6674351
20
5.0404515
11
20.1203351
21
5.0404515
0
LINE
8
DEFAULT_255_2_778
10
20.1203351
20
5.0404515
11
20.1203351
21
4.7414515
0
LINE
8
DEFAULT_255_2_778
10
21.5499351
20
4.7240515
11
21.6023351
21
4.6457515
0
LINE
8
DEFAULT_255_2_778
10
23.3160351
20
4.0239515
11
23.3160351
21
2.7023515
0
LINE
8
DEFAULT_255_2_778
10
23.3160351
20
2.7023515
11
22.8630351
21
2.7023515
0
LINE
8
DEFAULT_255_2_778
10
22.8630351
20
2.7023515
11
22.8630351
21
4.0210515
0
LINE
8
DEFAULT_255_2_778
10
21.7216351
20
3.8382515
11
21.7216351
21
2.6997515
0
LINE
8
DEFAULT_255_2_778
10
21.7216351
20
2.6997515
11
21.2686351
21
2.6997515
0
LINE
8
DEFAULT_255_2_778
10
21.2686351
20
2.6997515
11
21.2686351
21
4.0212515
0
LINE
8
DEFAULT_255_2_778
10
21.2686351
20
4.0212515
11
21.2620351
21
4.0210515
0
LINE
8
DEFAULT_255_2_778
10
25.4123351
20
6.0308515
11
25.4123351
21
6.0308515
0
LINE
8
DEFAULT_255_2_778
10
25.4123351
20
3.0711515
11
25.4123351
21
3.0711515
0
LINE
8
DEFAULT_255_2_778
10
28.7757351
20
4.0853515
11
28.2849351
21
4.2538515
0
LINE
8
DEFAULT_255_2_778
10
29.6528351
20
5.2558515
11
29.2315351
21
5.1280515
0
LINE
8
DEFAULT_255_2_778
10
28.4269351
20
4.6663515
11
28.9236351
21
4.4774515
0
LINE
8
DEFAULT_255_2_778
10
27.3667351
20
3.4640515
11
27.8054351
21
3.5826515
0
ENDSEC
0
EOF