0
SECTION
2
HEADER
9
$MEASUREMENT
70
1
0
ENDSEC
0
SECTION
2
TABLES
0
TABLE
2
LTYPE
0
LTYPE
72
65
70
64
2
CONTINUOUS
3
______
73
0
40
0
0
ENDTAB
0
TABLE
2
LAYER
0
LAYER
2
DEFAULT_255_2_778
70
0
62
255
6
CONTINUOUS
0
ENDTAB
0
ENDSEC
0
SECTION
2
ENTITIES
0
ARC
8
DEFAULT_255_2_778
10
7.583566
20
7.236921
40
7.3692554
50
259.1731085
51
270.0276048
0
ARC
8
DEFAULT_255_2_778
10
7.5679452
20
7.1437521
40
7.274811
50
244.4418204
51
259.1561093
0
ARC
8
DEFAULT_255_2_778
10
7.605205
20
7.213701
40
7.3539909
50
201.0081182
51
244.4150505
0
ARC
8
DEFAULT_255_2_778
10
7.5396676
20
7.1795004
40
7.2805538
50
187.5851299
51
200.9417601
0
ARC
8
DEFAULT_255_2_778
10
7.6540901
20
7.1946429
40
7.395974
50
179.9850985
51
187.5844043
0
ARC
8
DEFAULT_255_2_778
10
7.6208547
20
7.2000204
40
7.362739
50
169.1682905
51
180.0268785
0
ARC
8
DEFAULT_255_2_778
10
7.5337603
20
7.2144281
40
7.2744893
50
154.2844624
51
169.1508348
0
ARC
8
DEFAULT_255_2_778
10
7.6068065
20
7.1758539
40
7.3570391
50
110.7212263
51
154.2606408
0
ARC
8
DEFAULT_255_2_778
10
7.5707323
20
7.2454295
40
7.279206
50
97.2349152
51
110.6494151
0
ARC
8
DEFAULT_255_2_778
10
7.5853584
20
7.1310367
40
7.39453
50
89.9863779
51
97.2357151
0
ARC
8
DEFAULT_255_2_778
10
7.5905687
20
7.1631408
40
7.3624264
50
79.1680589
51
90.0268665
0
ARC
8
DEFAULT_255_2_778
10
7.60495
20
7.2501009
40
7.2743135
50
64.2840992
51
79.1505943
0
ARC
8
DEFAULT_255_2_778
10
7.5662815
20
7.1768833
40
7.3570587
50
20.7211103
51
64.260199
0
ARC
8
DEFAULT_255_2_778
10
7.6358531
20
7.2129489
40
7.2792325
50
7.2349015
51
20.6493503
0
ARC
8
DEFAULT_255_2_778
10
7.5214367
20
7.1983229
40
7.3945799
50
359.9863902
51
7.2356784
0
ARC
8
DEFAULT_255_2_778
10
7.607141
20
7.1932901
40
7.3088761
50
348.7278993
51
0.0256839
0
ARC
8
DEFAULT_255_2_778
10
7.656282
20
7.1866027
40
7.2593765
50
333.4093842
51
348.7038493
0
ARC
8
DEFAULT_255_2_778
10
7.5389235
20
7.2488926
40
7.392204
50
288.5554809
51
333.3848129
0
ARC
8
DEFAULT_255_2_778
10
7.5949954
20
7.1236266
40
7.2556187
50
275.2407115
51
288.4504966
0
ARC
8
DEFAULT_255_2_778
10
7.5878609
20
7.1978227
40
7.3301563
50
269.9941811
51
275.2432724
0
ARC
8
DEFAULT_255_2_778
10
7.5781856
20
7.1834917
40
5.0467826
50
89.8986086
51
106.7874533
0
ARC
8
DEFAULT_255_2_778
10
7.5062479
20
7.4255417
40
4.7942711
50
106.7998527
51
135.9676917
0
ARC
8
DEFAULT_255_2_778
10
7.5739418
20
7.2197937
40
4.9869677
50
134.8087007
51
179.9995429
0
ARC
8
DEFAULT_255_2_778
10
7.5763269
20
7.2198357
40
4.9893528
50
180.0000255
51
180.2362107
0
ARC
8
DEFAULT_255_2_778
10
7.6458004
20
7.1905874
40
5.0587914
50
179.9017019
51
197.8109868
0
ARC
8
DEFAULT_255_2_778
10
7.5690121
20
7.1766285
40
4.9814241
50
197.928283
51
222.6068385
0
ARC
8
DEFAULT_255_2_778
10
7.7228381
20
7.3043141
40
5.1810911
50
222.4945268
51
225.0025492
0
ARC
8
DEFAULT_255_2_778
10
7.6478989
20
7.2195244
40
5.0681502
50
224.9238626
51
242.3979231
0
ARC
8
DEFAULT_255_2_778
10
7.5834276
20
7.1046064
40
4.9364414
50
242.4430603
51
270.0428158
0
ARC
8
DEFAULT_255_2_778
10
7.6073153
20
7.1680695
40
4.9999439
50
269.768535
51
269.9999748
0
ARC
8
DEFAULT_255_2_778
10
7.6073024
20
7.1559166
40
4.987791
50
270.0001233
51
315.1873415
0
ARC
8
DEFAULT_255_2_778
10
7.592397
20
7.206268
40
5.0339156
50
314.9003456
51
333.9038003
0
ARC
8
DEFAULT_255_2_778
10
7.6260005
20
7.1779236
40
4.9912811
50
334.0263223
51
356.9015887
0
ARC
8
DEFAULT_255_2_778
10
7.416047
20
7.1988834
40
5.2020695
50
356.7960638
51
0.0042191
0
ARC
8
DEFAULT_255_2_778
10
7.5596444
20
7.2079593
40
5.0584795
50
359.901539
51
17.8115411
0
ARC
8
DEFAULT_255_2_778
10
7.6362326
20
7.2218172
40
4.9813338
50
17.92925
51
42.6076081
0
ARC
8
DEFAULT_255_2_778
10
7.4817009
20
7.093529
40
5.181928
50
42.4949074
51
45.0025174
0
ARC
8
DEFAULT_255_2_778
10
7.423762
20
6.9381819
40
5.3331918
50
45.7424393
51
60.5560366
0
ARC
8
DEFAULT_255_2_778
10
7.5843476
20
7.2310765
40
4.9991908
50
60.5086458
51
89.9682663
0
LINE
8
DEFAULT_255_2_778
10
7.5871164
20
-0.1323336
11
7.5871164
21
-0.1323336
0
LINE
8
DEFAULT_255_2_778
10
7.5871164
20
12.2302664
11
7.5871164
21
12.2302664
0
LINE
8
DEFAULT_255_2_778
10
15.5632164
20
15.6632664
11
16.1461164
21
15.6632664
0
LINE
8
DEFAULT_255_2_778
10
16.1461164
20
15.6632664
11
16.1461164
21
15.0803664
0
LINE
8
DEFAULT_255_2_778
10
16.1461164
20
15.0803664
11
15.5632164
21
15.0803664
0
LINE
8
DEFAULT_255_2_778
10
15.5632164
20
15.0803664
11
15.5632164
21
15.6632664
0
LINE
8
DEFAULT_255_2_778
10
15.5632164
20
16.8009664
11
16.1461164
21
16.8009664
0
LINE
8
DEFAULT_255_2_778
10
16.1461164
20
16.8009664
11
16.1461164
21
16.2180664
0
LINE
8
DEFAULT_255_2_778
10
16.1461164
20
16.2180664
11
15.5632164
21
16.2180664
0
LINE
8
DEFAULT_255_2_778
10
15.5632164
20
16.2180664
11
15.5632164
21
16.8009664
0
LINE
8
DEFAULT_255_2_778
10
13.9371164
20
15.1136664
11
14.4583164
21
15.1136664
0
LINE
8
DEFAULT_255_2_778
10
14.4583164
20
15.1136664
11
14.4583164
21
14.5615664
0
LINE
8
DEFAULT_255_2_778
10
14.4583164
20
14.5615664
11
13.9371164
21
14.5615664
0
LINE
8
DEFAULT_255_2_778
10
13.9371164
20
14.5615664
11
13.9371164
21
15.1136664
0
LINE
8
DEFAULT_255_2_778
10
12.894603
20
14.0095967
11
13.446703
21
14.0095967
0
LINE
8
DEFAULT_255_2_778
10
13.446703
20
14.0095967
11
13.446703
21
13.4883967
0
LINE
8
DEFAULT_255_2_778
10
13.446703
20
13.4883967
11
12.894603
21
13.4883967
0
LINE
8
DEFAULT_255_2_778
10
12.894603
20
13.4883967
11
12.894603
21
14.0095967
0
LINE
8
DEFAULT_255_2_778
10
14.489503
20
14.5308967
11
15.103303
21
14.5308967
0
LINE
8
DEFAULT_255_2_778
10
15.103303
20
14.5308967
11
15.103303
21
13.9786967
0
LINE
8
DEFAULT_255_2_778
10
15.103303
20
13.9786967
11
14.489503
21
13.9786967
0
LINE
8
DEFAULT_255_2_778
10
14.489503
20
13.9786967
11
14.489503
21
14.5308967
0
LINE
8
DEFAULT_255_2_778
10
12.372803
20
14.5308967
11
12.894003
21
14.5308967
0
LINE
8
DEFAULT_255_2_778
10
12.894003
20
14.5308967
11
12.894003
21
14.0095967
0
LINE
8
DEFAULT_255_2_778
10
12.894003
20
14.0095967
11
12.372803
21
14.0095967
0
LINE
8
DEFAULT_255_2_778
10
12.372803
20
14.0095967
11
12.372803
21
14.5308967
0
LINE
8
DEFAULT_255_2_778
10
13.937003
20
14.0095967
11
14.458203
21
14.0095967
0
LINE
8
DEFAULT_255_2_778
10
14.458203
20
14.0095967
11
14.458203
21
13.4883967
0
LINE
8
DEFAULT_255_2_778
10
14.458203
20
13.4883967
11
13.937003
21
13.4883967
0
LINE
8
DEFAULT_255_2_778
10
13.937003
20
13.4883967
11
13.937003
21
14.0095967
0
LINE
8
DEFAULT_255_2_778
10
14.980303
20
16.2487967
11
15.529803
21
16.2487967
0
LINE
8
DEFAULT_255_2_778
10
15.529803
20
16.2487967
11
15.529803
21
15.6965967
0
LINE
8
DEFAULT_255_2_778
10
15.529803
20
15.6965967
11
14.977603
21
15.6965967
0
LINE
8
DEFAULT_255_2_778
10
14.977603
20
15.6965967
11
14.980303
21
16.2487967
0
LINE
8
DEFAULT_255_2_778
10
13.937003
20
15.6632967
11
14.980003
21
15.6632967
0
LINE
8
DEFAULT_255_2_778
10
14.980003
20
15.6632967
11
14.980003
21
15.0803967
0
LINE
8
DEFAULT_255_2_778
10
14.980003
20
15.0803967
11
13.937003
21
15.0803967
0
LINE
8
DEFAULT_255_2_778
10
13.937003
20
15.0803967
11
13.937003
21
15.6632967
0
ARC
8
DEFAULT_255_2_778
10
14.2758445
20
7.6175427
40
5.5630034
50
146.390745
51
147.7369294
0
ARC
8
DEFAULT_255_2_778
10
17.5440082
20
5.5502829
40
9.4301018
50
147.7155587
51
148.66111
0
ARC
8
DEFAULT_255_2_778
10
21.4726555
20
3.1532709
40
14.0322671
50
148.6447081
51
149.2690503
0
ARC
8
DEFAULT_255_2_778
10
26.3655462
20
0.2459072
40
19.7237645
50
149.2725413
51
149.9158074
0
ARC
8
DEFAULT_255_2_778
10
32.6237119
20
-3.3814313
40
26.9571745
50
149.912289
51
150.4699366
0
ARC
8
DEFAULT_255_2_778
10
39.2463352
20
-7.1343156
40
34.5692228
50
150.4679238
51
150.993599
0
ARC
8
DEFAULT_255_2_778
10
45.6515934
20
-10.6848096
40
41.8927014
50
150.9947163
51
151.6653477
0
ARC
8
DEFAULT_255_2_778
10
47.8985209
20
-11.9026339
40
44.4484303
50
151.6582848
51
151.750665
0
ARC
8
DEFAULT_255_2_778
10
48.0972356
20
-12.0095247
40
44.6740698
50
151.7505289
51
152.1565863
0
ARC
8
DEFAULT_255_2_778
10
44.9905692
20
-10.3757989
40
41.1640283
50
152.1476718
51
152.9068351
0
ARC
8
DEFAULT_255_2_778
10
37.373117
20
-6.4795095
40
32.60794
50
152.905879
51
153.5905659
0
ARC
8
DEFAULT_255_2_778
10
30.1709843
20
-2.9017437
40
24.5661043
50
153.592901
51
154.2303363
0
ARC
8
DEFAULT_255_2_778
10
24.760841
20
-0.2886355
40
18.5579446
50
154.2338834
51
154.8234036
0
ARC
8
DEFAULT_255_2_778
10
20.1851729
20
1.8595228
40
13.5031137
50
154.8130152
51
155.6511606
0
ARC
8
DEFAULT_255_2_778
10
15.9401369
20
3.7777331
40
8.8448038
50
155.6343126
51
156.8210839
0
ARC
8
DEFAULT_255_2_778
10
13.1440889
20
4.9776158
40
5.8021745
50
156.8457088
51
157.8085728
0
ARC
8
DEFAULT_255_2_778
10
-4.0480227
20
-1.2016452
40
14.4836234
50
35.3062201
51
37.5061907
0
ARC
8
DEFAULT_255_2_778
10
-1.9987035
20
0.3731613
40
11.8991076
50
37.4987161
51
40.0743505
0
ARC
8
DEFAULT_255_2_778
10
-0.3153584
20
1.7905319
40
9.6985194
50
40.0691529
51
42.9793575
0
ARC
8
DEFAULT_255_2_778
10
1.0429417
20
3.0585963
40
7.8403045
50
42.966827
51
46.4622945
0
ARC
8
DEFAULT_255_2_778
10
2.1010974
20
4.1733246
40
6.303323
50
46.4551977
51
50.4460293
0
ARC
8
DEFAULT_255_2_778
10
2.8865375
20
5.1262842
40
5.0683954
50
50.4318391
51
55.2064097
0
ARC
8
DEFAULT_255_2_778
10
3.4398485
20
5.9238803
40
4.097668
50
55.196071
51
60.810189
0
ARC
8
DEFAULT_255_2_778
10
3.7885755
20
6.5488561
40
3.3819828
50
60.8040608
51
67.4441108
0
ARC
8
DEFAULT_255_2_778
10
3.9364639
20
6.8956434
40
3.0049971
50
67.5118658
51
71.5455395
0
ARC
8
DEFAULT_255_2_778
10
4.7487275
20
9.2946896
40
0.4723276
50
72.8889237
51
83.8761813
0
ARC
8
DEFAULT_255_2_778
10
4.7485896
20
9.293889
40
0.4731383
50
83.8699143
51
89.9976662
0
ARC
8
DEFAULT_255_2_778
10
4.7357396
20
9.3596047
40
0.4076259
50
88.1908076
51
151.6189021
0
ARC
8
DEFAULT_255_2_778
10
4.7191225
20
9.386723
40
0.3804507
50
154.0232054
51
180.5839847
0
ARC
8
DEFAULT_255_2_778
10
4.8447328
20
9.3858279
40
0.5060499
50
180.3376922
51
194.4101488
0
ARC
8
DEFAULT_255_2_778
10
5.023888
20
9.4308938
40
0.6907845
50
194.3324445
51
204.7318175
0
ARC
8
DEFAULT_255_2_778
10
5.256928
20
9.5370785
40
0.9468744
50
204.6681473
51
212.639155
0
ARC
8
DEFAULT_255_2_778
10
5.5326424
20
9.7121689
40
1.2734841
50
212.5822509
51
218.6649431
0
ARC
8
DEFAULT_255_2_778
10
5.8478521
20
9.9634486
40
1.6765948
50
218.6400112
51
223.691749
0
ARC
8
DEFAULT_255_2_778
10
6.0852018
20
10.1854082
40
2.0015422
50
223.5925765
51
225.1213351
0
ARC
8
DEFAULT_255_2_778
10
-4.7124437
20
0.244588
40
12.6774614
50
39.5007395
51
42.2415626
0
ARC
8
DEFAULT_255_2_778
10
-3.8945582
20
0.9185211
40
11.6176866
50
36.363354
51
39.501871
0
ARC
8
DEFAULT_255_2_778
10
-3.3065339
20
1.3527483
40
10.8867113
50
33.0834617
51
36.3579354
0
ARC
8
DEFAULT_255_2_778
10
-3.0933125
20
1.493977
40
10.6309672
50
29.6803751
51
33.0729893
0
ARC
8
DEFAULT_255_2_778
10
-3.5531737
20
1.2362313
40
11.1581214
50
26.4775248
51
29.6609877
0
ARC
8
DEFAULT_255_2_778
10
-5.5187896
20
0.2634429
40
13.3512784
50
23.9465336
51
26.4534438
0
ARC
8
DEFAULT_255_2_778
10
-13.5225696
20
-3.2724589
40
22.1013024
50
22.3615012
51
23.9023111
0
ARC
8
DEFAULT_255_2_778
10
237.4487519
20
99.8172217
40
249.2178608
50
202.3283325
51
202.4551568
0
ARC
8
DEFAULT_255_2_778
10
7.8114034
20
4.9357172
40
0.7513506
50
204.3515015
51
244.6963818
0
ARC
8
DEFAULT_255_2_778
10
7.9825916
20
5.2422544
40
1.1019017
50
243.4616101
51
266.1759957
0
ARC
8
DEFAULT_255_2_778
10
7.9868873
20
5.2546085
40
1.1145201
50
265.9980094
51
269.9901491
0
ARC
8
DEFAULT_255_2_778
10
7.9958164
20
5.0950928
40
0.9550479
50
269.4528133
51
291.5894956
0
ARC
8
DEFAULT_255_2_778
10
8.131488
20
4.7789128
40
0.6112076
50
290.6695071
51
336.3584392
0
ARC
8
DEFAULT_255_2_778
10
25.9941293
20
-1.8025501
40
18.4264475
50
158.2530284
51
159.8869769
0
ARC
8
DEFAULT_255_2_778
10
26.6507041
20
-2.0631145
40
19.1328347
50
156.4460986
51
158.2567617
0
ARC
8
DEFAULT_255_2_778
10
26.6388599
20
-2.0570525
40
19.1195547
50
155.3407326
51
156.4485674
0
ARC
8
DEFAULT_255_2_778
10
24.4511346
20
-0.9962344
40
16.6888221
50
148.0157985
51
155.5168952
0
ARC
8
DEFAULT_255_2_778
10
20.7570723
20
1.2526549
40
12.364434
50
145.0389826
51
147.7878276
0
LINE
8
DEFAULT_255_2_778
10
13.4464981
20
15.1137102
11
13.9676981
21
15.1137102
0
LINE
8
DEFAULT_255_2_778
10
13.9676981
20
15.1137102
11
13.9676981
21
14.0093102
0
LINE
8
DEFAULT_255_2_778
10
13.9676981
20
14.0093102
11
13.4464981
21
14.0093102
0
LINE
8
DEFAULT_255_2_778
10
13.4464981
20
14.0093102
11
13.4464981
21
15.1137102
0
LINE
8
DEFAULT_255_2_778
10
13.4464981
20
13.4878102
11
13.4464981
21
12.9357102
0
LINE
8
DEFAULT_255_2_778
10
13.4464981
20
12.9357102
11
12.8945981
21
12.9357102
0
LINE
8
DEFAULT_255_2_778
10
12.8945981
20
12.9357102
11
12.8945981
21
13.4878102
0
LINE
8
DEFAULT_255_2_778
10
12.8945981
20
13.4878102
11
12.0049981
21
13.4878102
0
LINE
8
DEFAULT_255_2_778
10
12.0049981
20
13.4878102
11
12.0049981
21
13.0891102
0
LINE
8
DEFAULT_255_2_778
10
12.0049981
20
13.0891102
11
11.5141981
21
13.0891102
0
LINE
8
DEFAULT_255_2_778
10
11.5141981
20
13.0891102
11
11.5141981
21
12.5983102
0
LINE
8
DEFAULT_255_2_778
10
11.5141981
20
12.5983102
11
12.0354981
21
12.5983102
0
LINE
8
DEFAULT_255_2_778
10
12.0354981
20
12.5983102
11
12.0354981
21
12.0771102
0
LINE
8
DEFAULT_255_2_778
10
12.0354981
20
12.0771102
11
11.5141981
21
12.0771102
0
LINE
8
DEFAULT_255_2_778
10
11.5141981
20
12.0771102
11
11.5141981
21
12.5983102
0
LINE
8
DEFAULT_255_2_778
10
11.5141981
20
12.5983102
11
10.9619981
21
12.5983102
0
LINE
8
DEFAULT_255_2_778
10
10.9619981
20
12.5983102
11
10.9619981
21
11.7702102
0
LINE
8
DEFAULT_255_2_778
10
10.9619981
20
11.7702102
11
10.4100981
21
11.7702102
0
LINE
8
DEFAULT_255_2_778
10
10.4100981
20
11.7702102
11
10.4100981
21
11.2489102
0
LINE
8
DEFAULT_255_2_778
10
10.4100981
20
11.2489102
11
10.0396981
21
11.2489102
0
LINE
8
DEFAULT_255_2_778
10
10.0396981
20
11.2489102
11
10.0396981
21
10.6968102
0
LINE
8
DEFAULT_255_2_778
10
10.0396981
20
10.6968102
11
9.6427981
21
10.6968102
0
LINE
8
DEFAULT_255_2_778
10
10.6238981
20
8.3377102
11
10.6238981
21
8.9206102
0
LINE
8
DEFAULT_255_2_778
10
10.6238981
20
8.9206102
11
11.0532981
21
8.9206102
0
LINE
8
DEFAULT_255_2_778
10
11.0532981
20
8.9206102
11
11.0532981
21
9.4720102
0
LINE
8
DEFAULT_255_2_778
10
11.0532981
20
9.4720102
11
11.5136981
21
9.4720102
0
LINE
8
DEFAULT_255_2_778
10
11.5136981
20
9.4720102
11
11.5136981
21
10.0858102
0
LINE
8
DEFAULT_255_2_778
10
11.5136981
20
10.0858102
11
12.0348981
21
10.0858102
0
LINE
8
DEFAULT_255_2_778
10
12.0348981
20
10.0858102
11
12.0348981
21
10.6997102
0
LINE
8
DEFAULT_255_2_778
10
12.0348981
20
10.6997102
11
11.4826981
21
10.6997102
0
LINE
8
DEFAULT_255_2_778
10
11.4826981
20
10.6997102
11
11.4826981
21
11.2518102
0
LINE
8
DEFAULT_255_2_778
10
11.4826981
20
11.2518102
11
12.0348981
21
11.2518102
0
LINE
8
DEFAULT_255_2_778
10
12.0348981
20
11.2518102
11
12.0348981
21
10.6997102
0
LINE
8
DEFAULT_255_2_778
10
12.0348981
20
10.6997102
11
12.5561981
21
10.6997102
0
LINE
8
DEFAULT_255_2_778
10
12.5561981
20
10.6997102
11
12.5561981
21
11.2518102
0
LINE
8
DEFAULT_255_2_778
10
12.5561981
20
11.2518102
11
13.0164981
21
11.2518102
0
LINE
8
DEFAULT_255_2_778
10
13.0164981
20
11.2518102
11
13.0164981
21
11.8929102
0
LINE
8
DEFAULT_255_2_778
10
13.0164981
20
11.8929102
11
13.5072981
21
11.8929102
0
LINE
8
DEFAULT_255_2_778
10
13.5072981
20
11.8929102
11
13.5072981
21
12.3223102
0
LINE
8
DEFAULT_255_2_778
10
13.5072981
20
12.3223102
11
13.9366981
21
12.3223102
0
LINE
8
DEFAULT_255_2_778
10
13.9366981
20
12.3223102
11
13.9366981
21
13.4601102
0
LINE
8
DEFAULT_255_2_778
10
13.9366981
20
13.4601102
11
13.4458981
21
13.4601102
0
LINE
8
DEFAULT_255_2_778
10
13.4458981
20
13.4601102
11
13.4464981
21
13.4878102
0
ENDSEC
0
EOF