0
SECTION
2
HEADER
9
$MEASUREMENT
70
1
0
ENDSEC
0
SECTION
2
TABLES
0
TABLE
2
LTYPE
0
LTYPE
72
65
70
64
2
CONTINUOUS
3
______
73
0
40
0
0
ENDTAB
0
TABLE
2
LAYER
0
LAYER
2
DEFAULT_255_2_778
70
0
62
255
6
CONTINUOUS
0
ENDTAB
0
ENDSEC
0
SECTION
2
ENTITIES
0
ARC
8
DEFAULT_255_2_778
10
8.7185311
20
2.1936029
40
2.7540675
50
89.7272719
51
89.9999158
0
ARC
8
DEFAULT_255_2_778
10
8.7138889
20
2.2990966
40
2.6485779
50
89.8994882
51
108.259344
0
ARC
8
DEFAULT_255_2_778
10
8.6949899
20
2.3641269
40
2.5809016
50
108.3132414
51
165.1234132
0
ARC
8
DEFAULT_255_2_778
10
8.760756
20
2.347365
40
2.6487669
50
165.1382216
51
179.2109967
0
ARC
8
DEFAULT_255_2_778
10
8.6274945
20
2.3592694
40
2.5153741
50
179.4403353
51
179.9997358
0
ARC
8
DEFAULT_255_2_778
10
8.6373888
20
2.3615213
40
2.5252694
50
180.0508284
51
205.9289762
0
ARC
8
DEFAULT_255_2_778
10
8.7582431
20
2.4177881
40
2.658562
50
205.880668
51
258.2927846
0
ARC
8
DEFAULT_255_2_778
10
8.7224463
20
2.3147342
40
2.5504275
50
258.6104765
51
269.4157638
0
ARC
8
DEFAULT_255_2_778
10
8.7089172
20
2.3247885
40
2.5603797
50
269.7207966
51
269.9999325
0
ARC
8
DEFAULT_255_2_778
10
8.7079079
20
2.3296412
40
2.5652325
50
270.0224742
51
294.3619759
0
ARC
8
DEFAULT_255_2_778
10
8.6886044
20
2.3936244
40
2.6314959
50
294.1701904
51
352.0658433
0
ARC
8
DEFAULT_255_2_778
10
8.807069
20
2.3540221
40
2.508803
50
352.5881754
51
359.712632
0
ARC
8
DEFAULT_255_2_778
10
8.7276788
20
2.366321
40
2.5882812
50
359.4491931
51
0.0006275
0
ARC
8
DEFAULT_255_2_778
10
8.7698036
20
2.3683974
40
2.5461573
50
359.9539119
51
21.6466746
0
ARC
8
DEFAULT_255_2_778
10
8.7152204
20
2.3402604
40
2.6072772
50
21.7789212
51
76.986966
0
ARC
8
DEFAULT_255_2_778
10
8.7209637
20
2.3446386
40
2.6017224
50
77.0884891
51
89.7648747
0
ARC
8
DEFAULT_255_2_778
10
2.8869578
20
7.7069601
40
2.8781795
50
89.1721877
51
89.9997152
0
ARC
8
DEFAULT_255_2_778
10
2.8813108
20
7.8380908
40
2.7470546
50
89.8819219
51
106.9639936
0
ARC
8
DEFAULT_255_2_778
10
2.8315931
20
7.9963582
40
2.5811679
50
106.9334341
51
134.6201755
0
ARC
8
DEFAULT_255_2_778
10
2.775647
20
8.0570691
40
2.49866
50
134.6848929
51
166.593042
0
ARC
8
DEFAULT_255_2_778
10
2.8689327
20
8.0354548
40
2.594415
50
166.6063936
51
179.249458
0
ARC
8
DEFAULT_255_2_778
10
2.980518
20
8.0296051
40
2.7060707
50
179.1565597
51
179.9998557
0
ARC
8
DEFAULT_255_2_778
10
2.9130034
20
8.0265052
40
2.638558
50
179.9325389
51
200.2420619
0
ARC
8
DEFAULT_255_2_778
10
2.8837634
20
8.0126748
40
2.6063402
50
200.1791992
51
258.8465544
0
ARC
8
DEFAULT_255_2_778
10
2.8729994
20
8.0078549
40
2.599547
50
259.0587703
51
268.6408665
0
ARC
8
DEFAULT_255_2_778
10
2.8718101
20
7.9409427
40
2.5326255
50
268.6318595
51
269.9995897
0
ARC
8
DEFAULT_255_2_778
10
2.8690979
20
7.9565447
40
2.5482289
50
270.0605756
51
295.757588
0
ARC
8
DEFAULT_255_2_778
10
2.8342538
20
8.0514053
40
2.6488245
50
295.5447196
51
351.8718548
0
ARC
8
DEFAULT_255_2_778
10
2.9747012
20
8.0071034
40
2.5036393
50
352.4210883
51
0.0031088
0
ARC
8
DEFAULT_255_2_778
10
2.8811308
20
7.9855786
40
2.5972999
50
0.4778337
51
21.4411351
0
ARC
8
DEFAULT_255_2_778
10
2.8748488
20
7.9808288
40
2.6048844
50
21.4878689
51
78.6976559
0
ARC
8
DEFAULT_255_2_778
10
2.8785037
20
7.9713218
40
2.6134965
50
78.8170779
51
88.9029764
0
ARC
8
DEFAULT_255_2_778
10
2.8554993
20
2.3203011
40
2.6204538
50
90.1980717
51
109.2920773
0
ARC
8
DEFAULT_255_2_778
10
2.8294331
20
2.3780701
40
2.5573228
50
109.1684802
51
168.1777243
0
ARC
8
DEFAULT_255_2_778
10
2.7928214
20
2.3999175
40
2.5170501
50
168.4937484
51
180.0275947
0
ARC
8
DEFAULT_255_2_778
10
2.8401581
20
2.3987279
40
2.5643866
50
180.0005046
51
181.40302
0
ARC
8
DEFAULT_255_2_778
10
2.9459408
20
2.382998
40
2.6698151
50
181.0099623
51
199.9167095
0
ARC
8
DEFAULT_255_2_778
10
2.8803452
20
2.3550193
40
2.5986148
50
199.8293995
51
257.8995531
0
ARC
8
DEFAULT_255_2_778
10
2.8685192
20
2.3481783
40
2.5894666
50
258.1236765
51
270.0334414
0
ARC
8
DEFAULT_255_2_778
10
2.8700157
20
2.4006322
40
2.6419201
50
270.0003219
51
270.5622422
0
ARC
8
DEFAULT_255_2_778
10
2.868018
20
2.3149919
40
2.5563052
50
270.6258532
51
296.1263297
0
ARC
8
DEFAULT_255_2_778
10
2.8514012
20
2.3904918
40
2.6314721
50
295.7272743
51
356.2797251
0
ARC
8
DEFAULT_255_2_778
10
3.0392646
20
2.3422804
40
2.4411406
50
357.1228353
51
0.0001253
0
ARC
8
DEFAULT_255_2_778
10
3.040104
20
2.342304
40
2.440301
50
359.9995723
51
0.8437523
0
ARC
8
DEFAULT_255_2_778
10
2.8356076
20
2.3323846
40
2.6449303
50
0.9933748
51
19.9449451
0
ARC
8
DEFAULT_255_2_778
10
2.8862695
20
2.3462327
40
2.5925867
50
20.0391808
51
76.2523763
0
ARC
8
DEFAULT_255_2_778
10
2.861383
20
2.2530637
40
2.6890017
50
76.2090716
51
90.0632755
0
ARC
8
DEFAULT_255_2_778
10
2.8584644
20
2.1483774
40
2.7936864
50
90.0010481
51
90.2404487
0
ARC
8
DEFAULT_255_2_778
10
14.5893172
20
7.986073
40
2.576322
50
270.4742202
51
290.8770461
0
ARC
8
DEFAULT_255_2_778
10
14.5795021
20
7.9926096
40
2.5859362
50
291.0286268
51
346.2851392
0
ARC
8
DEFAULT_255_2_778
10
14.5171879
20
8.0086078
40
2.6502668
50
346.2685359
51
0.0521856
0
ARC
8
DEFAULT_255_2_778
10
14.4534265
20
8.0110513
40
2.7140272
50
359.9993751
51
0.5233048
0
ARC
8
DEFAULT_255_2_778
10
14.5510058
20
8.0162801
40
2.6164078
50
0.4283222
51
18.5685023
0
ARC
8
DEFAULT_255_2_778
10
14.621919
20
8.0324504
40
2.544047
50
18.7318498
51
73.3244929
0
ARC
8
DEFAULT_255_2_778
10
14.5666786
20
7.873552
40
2.7121242
50
73.169825
51
90.1122979
0
ARC
8
DEFAULT_255_2_778
10
14.5614098
20
7.7331052
40
2.8525658
50
90.0009431
51
90.2705434
0
ARC
8
DEFAULT_255_2_778
10
14.5546554
20
7.9525579
40
2.6330898
50
90.1461182
51
107.7117339
0
ARC
8
DEFAULT_255_2_778
10
14.525897
20
8.0567684
40
2.5250736
50
107.809497
51
161.9823203
0
ARC
8
DEFAULT_255_2_778
10
14.6784566
20
8.0017039
40
2.6871888
50
161.8719607
51
179.5222583
0
ARC
8
DEFAULT_255_2_778
10
14.8096257
20
7.9946281
40
2.8184189
50
179.400653
51
180.0000451
0
ARC
8
DEFAULT_255_2_778
10
14.8215789
20
7.9946306
40
2.8303722
50
180.0000941
51
180.2791827
0
ARC
8
DEFAULT_255_2_778
10
14.5839046
20
8.0061009
40
2.5927872
50
180.5582463
51
201.0952385
0
ARC
8
DEFAULT_255_2_778
10
14.5917138
20
8.0123259
40
2.6023152
50
201.1612257
51
259.8700841
0
ARC
8
DEFAULT_255_2_778
10
14.5877353
20
8.0216929
40
2.6108425
50
259.9921874
51
270.0228187
0
ARC
8
DEFAULT_255_2_778
10
14.5887404
20
8.0682709
40
2.6574202
50
270.0007484
51
270.4678726
0
ARC
8
DEFAULT_255_2_778
10
8.7167914
20
13.8472724
40
2.8212572
50
269.4628097
51
269.9996384
0
ARC
8
DEFAULT_255_2_778
10
8.7224786
20
13.7143786
40
2.6883695
50
269.8784121
51
286.9851587
0
ARC
8
DEFAULT_255_2_778
10
8.7660135
20
13.5733433
40
2.5407684
50
286.9753242
51
317.7488116
0
ARC
8
DEFAULT_255_2_778
10
8.7775537
20
13.5574135
40
2.5215186
50
317.8404267
51
346.6451679
0
ARC
8
DEFAULT_255_2_778
10
8.6604234
20
13.5862264
40
2.6421371
50
346.6239404
51
359.7769171
0
ARC
8
DEFAULT_255_2_778
10
8.4915804
20
13.5898863
40
2.8109946
50
359.7157178
51
0.0007257
0
ARC
8
DEFAULT_255_2_778
10
8.5925037
20
13.5951586
40
2.7100764
50
359.8892869
51
17.7341984
0
ARC
8
DEFAULT_255_2_778
10
8.7304436
20
13.6454618
40
2.5633759
50
17.6024125
51
72.6210449
0
ARC
8
DEFAULT_255_2_778
10
8.7186787
20
13.5840999
40
2.6254603
50
72.7759967
51
89.2566444
0
ARC
8
DEFAULT_255_2_778
10
8.7143647
20
13.6402246
40
2.5694012
50
89.1442177
51
89.9996514
0
ARC
8
DEFAULT_255_2_778
10
8.7141372
20
13.6605994
40
2.5490263
50
89.9945355
51
113.6530456
0
ARC
8
DEFAULT_255_2_778
10
8.7406133
20
13.5970589
40
2.6178513
50
113.6258965
51
167.8344658
0
ARC
8
DEFAULT_255_2_778
10
8.6834446
20
13.6216318
40
2.556816
50
168.1027837
51
179.4642514
0
ARC
8
DEFAULT_255_2_778
10
8.9047741
20
13.6325429
40
2.7780641
50
179.7319588
51
179.999921
0
ARC
8
DEFAULT_255_2_778
10
8.7968421
20
13.6280149
40
2.670136
50
179.9027552
51
198.6537845
0
ARC
8
DEFAULT_255_2_778
10
8.6978097
20
13.5894344
40
2.5639708
50
198.5447701
51
255.0829925
0
ARC
8
DEFAULT_255_2_778
10
8.7005197
20
13.629967
40
2.6038467
50
255.2549608
51
269.7826124
0
ARC
8
DEFAULT_255_2_778
10
14.5878561
20
13.6560855
40
2.6362514
50
269.8866433
51
288.036454
0
ARC
8
DEFAULT_255_2_778
10
14.6113977
20
13.5735687
40
2.5505024
50
288.1075386
51
343.7095211
0
ARC
8
DEFAULT_255_2_778
10
14.5047028
20
13.606463
40
2.6621412
50
343.6741153
51
0.0941856
0
ARC
8
DEFAULT_255_2_778
10
14.5628775
20
13.6142475
40
2.6039651
50
359.9250058
51
19.6854747
0
ARC
8
DEFAULT_255_2_778
10
14.5718436
20
13.6146492
40
2.5953891
50
19.7438008
51
79.6537178
0
ARC
8
DEFAULT_255_2_778
10
14.5768113
20
13.6076414
40
2.6013981
50
79.7890714
51
90.0235849
0
ARC
8
DEFAULT_255_2_778
10
14.5727711
20
13.6422952
40
2.5667457
50
89.9337176
51
110.8048265
0
ARC
8
DEFAULT_255_2_778
10
14.5899868
20
13.6149272
40
2.5984518
50
110.9453388
51
167.6583396
0
ARC
8
DEFAULT_255_2_778
10
14.6136417
20
13.6123993
40
2.6221018
50
167.7148592
51
180.0340897
0
ARC
8
DEFAULT_255_2_778
10
14.6614176
20
13.6184645
40
2.6698881
50
180.1636397
51
198.4490223
0
ARC
8
DEFAULT_255_2_778
10
14.5574992
20
13.5821713
40
2.5598257
50
198.4145116
51
254.1333856
0
ARC
8
DEFAULT_255_2_778
10
14.578438
20
13.6665952
40
2.6467594
50
254.1970371
51
270.0909727
0
ARC
8
DEFAULT_255_2_778
10
2.8498588
20
13.6230586
40
2.585002
50
90.2331371
51
110.9449161
0
ARC
8
DEFAULT_255_2_778
10
2.8563727
20
13.6142996
40
2.5955125
50
111.0100908
51
169.0370721
0
ARC
8
DEFAULT_255_2_778
10
2.8669395
20
13.6177748
40
2.6052312
50
169.1563014
51
179.7148784
0
ARC
8
DEFAULT_255_2_778
10
3.0595163
20
13.6176967
40
2.7978063
50
179.7329042
51
179.9999092
0
ARC
8
DEFAULT_255_2_778
10
2.9255031
20
13.6116295
40
2.6637999
50
179.8694042
51
196.8471905
0
ARC
8
DEFAULT_255_2_778
10
2.7875205
20
13.5712336
40
2.520032
50
196.8773839
51
250.0979573
0
ARC
8
DEFAULT_255_2_778
10
2.8474145
20
13.7255363
40
2.6855105
50
250.0170914
51
267.6442314
0
ARC
8
DEFAULT_255_2_778
10
2.8597549
20
13.8761766
40
2.8365374
50
267.5202482
51
270.003747
0
ARC
8
DEFAULT_255_2_778
10
2.8646038
20
13.7412094
40
2.7015742
50
269.9010973
51
288.15434
0
ARC
8
DEFAULT_255_2_778
10
2.9090408
20
13.6268796
40
2.5790987
50
288.0076675
51
344.6723076
0
ARC
8
DEFAULT_255_2_778
10
2.8920898
20
13.6207704
40
2.5938524
50
344.9014318
51
0.0677866
0
ARC
8
DEFAULT_255_2_778
10
2.9645019
20
13.6256814
40
2.5214392
50
359.9581385
51
22.352182
0
ARC
8
DEFAULT_255_2_778
10
2.8643791
20
13.5714068
40
2.6347076
50
22.615754
51
73.0480743
0
ARC
8
DEFAULT_255_2_778
10
2.8537346
20
13.5449151
40
2.6631529
50
72.9951953
51
90.044696
0
ARC
8
DEFAULT_255_2_778
10
2.8516603
20
13.4976665
40
2.7104007
50
90.0000679
51
90.2604341
0
ARC
8
DEFAULT_255_2_778
10
2.8610104
20
13.6915868
40
1.9147565
50
249.1925771
51
270.1744549
0
ARC
8
DEFAULT_255_2_778
10
2.8230721
20
13.5915932
40
1.8078077
50
189.2829619
51
249.1907837
0
ARC
8
DEFAULT_255_2_778
10
2.9338481
20
13.6152576
40
1.9209582
50
179.9577235
51
189.4465667
0
ARC
8
DEFAULT_255_2_778
10
2.9929226
20
13.6166398
40
1.9800322
50
179.5920052
51
179.99898
0
ARC
8
DEFAULT_255_2_778
10
2.8673036
20
13.6212236
40
1.8543876
50
154.2757646
51
179.7059912
0
ARC
8
DEFAULT_255_2_778
10
2.8601575
20
13.6240749
40
1.8467123
50
101.1901597
51
154.2592296
0
ARC
8
DEFAULT_255_2_778
10
2.8641731
20
13.5927227
40
1.8782489
50
90.3365509
51
101.1247196
0
ARC
8
DEFAULT_255_2_778
10
2.8658085
20
13.5421189
40
1.9288619
50
90.0001333
51
90.3763013
0
ARC
8
DEFAULT_255_2_778
10
2.8678331
20
13.5846518
40
1.8863302
50
63.9628829
51
90.0616312
0
ARC
8
DEFAULT_255_2_778
10
2.8901082
20
13.6117779
40
1.8521972
50
6.894099
51
64.2136739
0
ARC
8
DEFAULT_255_2_778
10
2.9085426
20
13.6245062
40
1.8323978
50
359.9885261
51
6.5681751
0
ARC
8
DEFAULT_255_2_778
10
2.8892754
20
13.6191891
40
1.8516717
50
337.1263005
51
0.1531708
0
ARC
8
DEFAULT_255_2_778
10
2.9034593
20
13.6221906
40
1.8397885
50
284.0072695
51
336.8684777
0
ARC
8
DEFAULT_255_2_778
10
2.8689923
20
13.7328074
40
1.95547
50
269.9222989
51
284.2026391
0
ARC
8
DEFAULT_255_2_778
10
14.5640597
20
2.3491338
40
2.5850268
50
90.233155
51
110.94459
0
ARC
8
DEFAULT_255_2_778
10
14.5699844
20
2.3413292
40
2.5944349
50
111.0051751
51
169.3232977
0
ARC
8
DEFAULT_255_2_778
10
14.5804026
20
2.3450441
40
2.6039904
50
169.4460916
51
179.7338696
0
ARC
8
DEFAULT_255_2_778
10
14.7827843
20
2.3439061
40
2.806375
50
179.7298281
51
179.9999057
0
ARC
8
DEFAULT_255_2_778
10
14.6399348
20
2.3378332
40
2.6635326
50
179.8692649
51
196.8484594
0
ARC
8
DEFAULT_255_2_778
10
14.5020324
20
2.2975034
40
2.5198608
50
196.8796383
51
250.101716
0
ARC
8
DEFAULT_255_2_778
10
14.5621149
20
2.4521888
40
2.685763
50
250.0196241
51
267.6445523
0
ARC
8
DEFAULT_255_2_778
10
14.5744643
20
2.6032064
40
2.8371672
50
267.5207115
51
270.0035563
0
ARC
8
DEFAULT_255_2_778
10
14.5793038
20
2.4676094
40
2.7015742
50
269.9010973
51
288.15434
0
ARC
8
DEFAULT_255_2_778
10
14.6237408
20
2.3532796
40
2.5790987
50
288.0076675
51
344.6723076
0
ARC
8
DEFAULT_255_2_778
10
14.6067898
20
2.3471704
40
2.5938524
50
344.9014318
51
0.0677866
0
ARC
8
DEFAULT_255_2_778
10
14.6530235
20
2.339838
40
2.5476381
50
0.2339213
51
22.4064234
0
ARC
8
DEFAULT_255_2_778
10
14.5747345
20
2.2974701
40
2.6361825
50
22.609151
51
74.0381297
0
ARC
8
DEFAULT_255_2_778
10
14.5688395
20
2.2766183
40
2.6578514
50
74.0395616
51
90.0456142
0
ARC
8
DEFAULT_255_2_778
10
14.566727
20
2.2157616
40
2.7187073
50
90.0000724
51
90.2673649
0
ARC
8
DEFAULT_255_2_778
10
14.5752034
20
2.4179474
40
1.9150171
50
249.1940062
51
270.1746383
0
ARC
8
DEFAULT_255_2_778
10
14.5371526
20
2.3176981
40
1.8077893
50
189.2832139
51
249.1927529
0
ARC
8
DEFAULT_255_2_778
10
14.6479477
20
2.34136
40
1.920958
50
179.9577942
51
189.4466394
0
ARC
8
DEFAULT_255_2_778
10
14.7070226
20
2.3427398
40
1.9800322
50
179.5920052
51
179.99898
0
ARC
8
DEFAULT_255_2_778
10
14.5814036
20
2.3473236
40
1.8543876
50
154.2757646
51
179.7059912
0
ARC
8
DEFAULT_255_2_778
10
14.5742575
20
2.3501749
40
1.8467123
50
101.1901597
51
154.2592296
0
ARC
8
DEFAULT_255_2_778
10
14.5782731
20
2.3188227
40
1.8782489
50
90.3365509
51
101.1247196
0
ARC
8
DEFAULT_255_2_778
10
14.5799085
20
2.2682189
40
1.9288619
50
90.0001333
51
90.3763013
0
ARC
8
DEFAULT_255_2_778
10
14.5819331
20
2.3107518
40
1.8863302
50
63.9628829
51
90.0616312
0
ARC
8
DEFAULT_255_2_778
10
14.6042082
20
2.3378779
40
1.8521972
50
6.894099
51
64.2136739
0
ARC
8
DEFAULT_255_2_778
10
14.6226426
20
2.3506062
40
1.8323978
50
359.9885261
51
6.5681751
0
ARC
8
DEFAULT_255_2_778
10
14.6228262
20
2.3464967
40
1.8322181
50
335.5156867
51
0.1170321
0
ARC
8
DEFAULT_255_2_778
10
14.6032632
20
2.363496
40
1.8570818
50
283.8196552
51
335.2885233
0
ARC
8
DEFAULT_255_2_778
10
14.5823854
20
2.4330822
40
1.9296441
50
269.9422493
51
283.9280799
0
LINE
8
DEFAULT_255_2_778
10
8.7316404
20
4.9463392
11
8.7316404
21
4.9476392
0
LINE
8
DEFAULT_255_2_778
10
2.9285404
20
10.5843392
11
2.9285404
21
10.5848392
0
LINE
8
DEFAULT_255_2_778
10
2.8467404
20
4.9420392
11
2.8464404
21
4.9407392
0
LINE
8
DEFAULT_255_2_778
10
14.6104404
20
5.4109392
11
14.6106404
21
5.4098392
0
LINE
8
DEFAULT_255_2_778
10
8.6906404
20
11.0261392
11
8.6903404
21
11.0261392
0
LINE
8
DEFAULT_255_2_778
10
14.5826404
20
11.0198392
11
14.5826404
21
11.0198392
0
LINE
8
DEFAULT_255_2_778
10
2.8393404
20
16.2080392
11
2.8393404
21
16.2080392
0
LINE
8
DEFAULT_255_2_778
10
2.8663404
20
11.7773392
11
2.8668404
21
11.7768392
0
LINE
8
DEFAULT_255_2_778
10
14.5540404
20
4.9344392
11
14.5535404
21
4.9341392
0
LINE
8
DEFAULT_255_2_778
10
14.5804404
20
0.5034392
11
14.5810404
21
0.5029392
0
ARC
8
DEFAULT_255_2_778
10
8.7206501
20
7.9672182
40
2.6127337
50
17.9632902
51
56.6180015
0
ARC
8
DEFAULT_255_2_778
10
8.8641606
20
8.22
40
2.3227732
50
56.1431326
51
61.9889028
0
ARC
8
DEFAULT_255_2_778
10
3.7955285
20
-0.950727
40
12.8007571
50
61.2373137
51
61.3251474
0
ARC
8
DEFAULT_255_2_778
10
9.6383838
20
9.7937337
40
0.5711582
50
58.3809651
51
71.4143711
0
ARC
8
DEFAULT_255_2_778
10
8.6222212
20
7.6126646
40
2.9790267
50
71.1194253
51
81.0977289
0
ARC
8
DEFAULT_255_2_778
10
8.7905015
20
8.7438923
40
1.8354058
50
80.8228977
51
81.6627554
0
ARC
8
DEFAULT_255_2_778
10
8.7108367
20
8.0327235
40
2.5507257
50
82.208517
51
90.6090253
0
ARC
8
DEFAULT_255_2_778
10
8.6837814
20
7.9015239
40
2.6817812
50
90.0012222
51
90.2015991
0
ARC
8
DEFAULT_255_2_778
10
8.6771204
20
8.0506566
40
2.5326334
50
90.0627784
51
104.6630571
0
ARC
8
DEFAULT_255_2_778
10
8.8192946
20
7.5965641
40
3.0080106
50
105.0934908
51
114.7528831
0
ARC
8
DEFAULT_255_2_778
10
8.6764495
20
8.0050255
40
2.5775988
50
115.6710461
51
146.0079167
0
ARC
8
DEFAULT_255_2_778
10
8.7211356
20
7.9827395
40
2.6283523
50
148.9016803
51
170.6773152
0
ARC
8
DEFAULT_255_2_778
10
8.8003328
20
7.9656703
40
2.7092714
50
170.5924214
51
179.2019577
0
ARC
8
DEFAULT_255_2_778
10
8.8894622
20
7.9903617
40
2.7981684
50
179.7329205
51
179.9999092
0
ARC
8
DEFAULT_255_2_778
10
8.7552745
20
7.9842858
40
2.6639875
50
179.8692262
51
196.8465936
0
ARC
8
DEFAULT_255_2_778
10
8.6169967
20
7.943797
40
2.5199102
50
196.8766798
51
250.0995561
0
ARC
8
DEFAULT_255_2_778
10
8.6769899
20
8.0983432
40
2.6856512
50
250.0183733
51
267.6445339
0
ARC
8
DEFAULT_255_2_778
10
8.6893434
20
8.2492692
40
2.8369642
50
267.5205283
51
270.0036533
0
ARC
8
DEFAULT_255_2_778
10
8.6941876
20
8.1138753
40
2.7015742
50
269.9010973
51
288.15434
0
ARC
8
DEFAULT_255_2_778
10
8.7386246
20
7.9995455
40
2.5790987
50
288.0076675
51
344.6723076
0
ARC
8
DEFAULT_255_2_778
10
8.7216736
20
7.9934363
40
2.5938524
50
344.9014318
51
0.0677866
0
ARC
8
DEFAULT_255_2_778
10
9.2617246
20
8.0944511
40
2.0561339
50
357.2696247
51
0.0000753
0
ARC
8
DEFAULT_255_2_778
10
9.2569644
20
8.0942022
40
2.0608941
50
0.0069949
51
19.0982784
0
ARC
8
DEFAULT_255_2_778
10
8.7052085
20
8.075326
40
1.8865299
50
249.2527761
51
270.1766307
0
ARC
8
DEFAULT_255_2_778
10
8.6613195
20
7.9644356
40
1.767284
50
189.2070944
51
249.3098492
0
ARC
8
DEFAULT_255_2_778
10
8.7668609
20
7.9857969
40
1.8748881
50
179.9576605
51
189.3354179
0
ARC
8
DEFAULT_255_2_778
10
8.8294161
20
7.9871475
40
1.9374428
50
179.5842732
51
179.998967
0
ARC
8
DEFAULT_255_2_778
10
8.7239623
20
7.993088
40
1.831956
50
156.401566
51
179.7461314
0
ARC
8
DEFAULT_255_2_778
10
8.6979293
20
8.0010645
40
1.8049096
50
99.3576421
51
156.3027735
0
ARC
8
DEFAULT_255_2_778
10
8.7091645
20
7.9438394
40
1.8632009
50
90.3518038
51
99.4124104
0
ARC
8
DEFAULT_255_2_778
10
8.7105879
20
7.9006543
40
1.9063942
50
89.9992682
51
90.3866145
0
ARC
8
DEFAULT_255_2_778
10
8.7137525
20
7.9577006
40
1.8493507
50
65.3881666
51
90.0972894
0
ARC
8
DEFAULT_255_2_778
10
8.7251411
20
7.976782
40
1.8272614
50
6.9132384
51
65.4636464
0
ARC
8
DEFAULT_255_2_778
10
8.7204183
20
7.9818299
40
1.8313506
50
0.3996892
51
6.7386722
0
ARC
8
DEFAULT_255_2_778
10
8.7655297
20
7.9907536
40
1.7861987
50
335.0623683
51
0.1235433
0
ARC
8
DEFAULT_255_2_778
10
8.7380278
20
8.0130128
40
1.820542
50
284.2067389
51
334.7920805
0
ARC
8
DEFAULT_255_2_778
10
8.7135436
20
8.0897963
40
1.9009923
50
269.939137
51
284.3541549
0
LINE
8
DEFAULT_255_2_778
10
9.8204242
20
10.3351051
11
9.5862242
21
10.4314051
0
LINE
8
DEFAULT_255_2_778
10
6.5393242
20
9.4461051
11
6.4705242
21
9.3403051
0
LINE
8
DEFAULT_255_2_778
10
11.2044242
20
8.7685051
11
11.2060242
21
8.7730051
0
LINE
8
DEFAULT_255_2_778
10
8.7115242
20
6.1888051
11
8.7110242
21
6.1888051
0
ENDSEC
0
EOF