0
SECTION
2
HEADER
9
$MEASUREMENT
70
1
0
ENDSEC
0
SECTION
2
TABLES
0
TABLE
2
LTYPE
0
LTYPE
72
65
70
64
2
CONTINUOUS
3
______
73
0
40
0
0
ENDTAB
0
TABLE
2
LAYER
0
LAYER
2
DEFAULT_255_2_778
70
0
62
255
6
CONTINUOUS
0
ENDTAB
0
ENDSEC
0
SECTION
2
ENTITIES
0
ARC
8
DEFAULT_255_2_778
10
9.2107097
20
7.0758925
40
4.0356379
50
88.3954215
51
89.1938494
0
ARC
8
DEFAULT_255_2_778
10
9.2116113
20
7.1409087
40
3.9706155
50
89.1936584
51
89.9988519
0
ARC
8
DEFAULT_255_2_778
10
9.2025785
20
7.5085902
40
3.6029454
50
89.8550907
51
99.9108753
0
ARC
8
DEFAULT_255_2_778
10
9.1144225
20
8.0091275
40
3.0947047
50
99.8981029
51
112.9832317
0
ARC
8
DEFAULT_255_2_778
10
9.0636514
20
8.1728176
40
2.9242347
50
113.319728
51
153.4236697
0
ARC
8
DEFAULT_255_2_778
10
9.7000569
20
7.8174802
40
3.652521
50
152.9048917
51
167.3514932
0
ARC
8
DEFAULT_255_2_778
10
10.3546159
20
7.6654082
40
4.324497
50
167.2845437
51
178.6043942
0
ARC
8
DEFAULT_255_2_778
10
10.738042
20
7.644668
40
4.7083283
50
178.4657226
51
180.0026774
0
ARC
8
DEFAULT_255_2_778
10
19.9397752
20
6.4340973
40
18.1312339
50
176.5283184
51
179.4711544
0
ARC
8
DEFAULT_255_2_778
10
16.8471703
20
6.6232223
40
15.032852
50
173.1401311
51
176.534053
0
ARC
8
DEFAULT_255_2_778
10
14.3177787
20
6.9285576
40
12.4850979
50
169.2702959
51
173.1448819
0
ARC
8
DEFAULT_255_2_778
10
12.2073192
20
7.3318857
40
10.3364473
50
164.3755412
51
169.2889179
0
ARC
8
DEFAULT_255_2_778
10
10.4840097
20
7.8158941
40
8.5464598
50
158.3853102
51
164.388833
0
ARC
8
DEFAULT_255_2_778
10
9.1688903
20
8.3401573
40
7.1306984
50
150.4967393
51
158.4090685
0
ARC
8
DEFAULT_255_2_778
10
8.2499007
20
8.8658318
40
6.0719978
50
137.7371276
51
150.5432723
0
ARC
8
DEFAULT_255_2_778
10
8.0846565
20
8.991027
40
5.8655371
50
121.3846283
51
137.5566174
0
ARC
8
DEFAULT_255_2_778
10
8.533074
20
8.2675735
40
6.7166723
50
113.1367855
51
121.4362304
0
ARC
8
DEFAULT_255_2_778
10
9.0071515
20
7.1640648
40
7.9177036
50
106.7710319
51
113.1537777
0
ARC
8
DEFAULT_255_2_778
10
9.4523432
20
5.696864
40
9.4509575
50
101.7262984
51
106.7886022
0
ARC
8
DEFAULT_255_2_778
10
9.8330234
20
3.8738618
40
11.3132813
50
97.5313012
51
101.7376135
0
ARC
8
DEFAULT_255_2_778
10
10.1285711
20
1.6529608
40
13.5537603
50
93.954235
51
97.5393735
0
ARC
8
DEFAULT_255_2_778
10
10.3139792
20
-0.9989158
40
16.2121099
50
90.897983
51
93.9616363
0
ARC
8
DEFAULT_255_2_778
10
10.3586211
20
-3.0353051
40
18.2489531
50
89.9953137
51
90.9379255
0
ARC
8
DEFAULT_255_2_778
10
5.3468925
20
7.0334955
40
4.5311243
50
268.3954151
51
269.1912807
0
ARC
8
DEFAULT_255_2_778
10
5.3453684
20
6.9255006
40
4.4231186
50
269.1912767
51
269.9985704
0
ARC
8
DEFAULT_255_2_778
10
5.3554383
20
6.4256694
40
3.9233006
50
269.8513274
51
278.2656482
0
ARC
8
DEFAULT_255_2_778
10
5.4619411
20
5.7051341
40
3.1949397
50
278.233185
51
289.1369753
0
ARC
8
DEFAULT_255_2_778
10
5.6288175
20
5.2289293
40
2.6903447
50
289.104152
51
305.2084308
0
ARC
8
DEFAULT_255_2_778
10
5.6215478
20
5.2006822
40
2.6715489
50
305.6851021
51
335.3800193
0
ARC
8
DEFAULT_255_2_778
10
4.9327913
20
5.5418884
40
3.4399156
50
334.9927111
51
347.1832628
0
ARC
8
DEFAULT_255_2_778
10
4.0923225
20
5.7376742
40
4.302878
50
347.123826
51
356.3731118
0
ARC
8
DEFAULT_255_2_778
10
3.3646956
20
5.7954948
40
5.0327189
50
356.2401844
51
0.0302056
0
ARC
8
DEFAULT_255_2_778
10
-5.451067
20
6.8859206
40
18.1238836
50
357.5003463
51
0.0326484
0
ARC
8
DEFAULT_255_2_778
10
-2.6940854
20
6.7624877
40
15.3641423
50
354.3588348
51
357.5118107
0
ARC
8
DEFAULT_255_2_778
10
-0.1906884
20
6.5125055
40
12.8482966
50
350.5219425
51
354.3708435
0
ARC
8
DEFAULT_255_2_778
10
1.9475676
20
6.1534767
40
10.6801094
50
345.9282734
51
350.5327859
0
ARC
8
DEFAULT_255_2_778
10
3.6976707
20
5.7124138
40
8.8752849
50
340.2781933
51
345.9432104
0
ARC
8
DEFAULT_255_2_778
10
5.0771711
20
5.2150515
40
7.4088668
50
333.0183305
51
340.2988473
0
ARC
8
DEFAULT_255_2_778
10
6.0776469
20
4.701916
40
6.2844794
50
322.6337946
51
333.0489668
0
ARC
8
DEFAULT_255_2_778
10
6.4746068
20
4.413768
40
5.7941197
50
300.1643579
51
322.5160646
0
ARC
8
DEFAULT_255_2_778
10
5.9765326
20
5.2425731
40
6.7609826
50
291.8282327
51
300.2844317
0
ARC
8
DEFAULT_255_2_778
10
5.5065312
20
6.4068699
40
8.0165616
50
285.5202261
51
291.8524513
0
ARC
8
DEFAULT_255_2_778
10
5.0787313
20
7.9385799
40
9.6068897
50
280.3824737
51
285.5342291
0
ARC
8
DEFAULT_255_2_778
10
4.7243518
20
9.8590697
40
11.5598004
50
276.1265966
51
280.3947152
0
ARC
8
DEFAULT_255_2_778
10
4.4834418
20
12.0589253
40
13.7728037
50
272.8783829
51
276.1463699
0
ARC
8
DEFAULT_255_2_778
10
4.3577861
20
14.5400997
40
16.2571578
50
269.9599433
51
272.8815622
0
ARC
8
DEFAULT_255_2_778
10
4.3465756
20
16.1154284
40
17.8324825
50
269.728232
51
269.9995014
0
ARC
8
DEFAULT_255_2_778
10
4.3479392
20
16.4032089
40
18.1202663
50
269.4598464
51
269.7282364
0
LINE
8
DEFAULT_255_2_778
10
12.7345137
20
15.213648
11
12.7345137
21
11.109948
0
LINE
8
DEFAULT_255_2_778
10
12.7345137
20
11.109948
11
9.3237137
21
11.109948
0
LINE
8
DEFAULT_255_2_778
10
6.0297137
20
7.644448
11
6.0297137
21
4.292148
0
LINE
8
DEFAULT_255_2_778
10
6.0297137
20
4.292148
11
1.8093137
21
4.292148
0
LINE
8
DEFAULT_255_2_778
10
1.8093137
20
4.292148
11
1.8093137
21
6.601448
0
LINE
8
DEFAULT_255_2_778
10
10.3601137
20
15.213648
11
12.7345137
21
15.213648
0
LINE
8
DEFAULT_255_2_778
10
1.8093137
20
-1.716252
11
1.8093137
21
2.504148
0
LINE
8
DEFAULT_255_2_778
10
1.8093137
20
2.504148
11
5.2200137
21
2.504148
0
LINE
8
DEFAULT_255_2_778
10
8.3974137
20
5.798148
11
8.3974137
21
9.150448
0
LINE
8
DEFAULT_255_2_778
10
8.3974137
20
9.150448
11
12.6728137
21
9.150448
0
LINE
8
DEFAULT_255_2_778
10
12.6728137
20
9.150448
11
12.6728137
21
6.896248
0
LINE
8
DEFAULT_255_2_778
10
4.1771137
20
-1.716252
11
1.8093137
21
-1.716252
0
ENDSEC
0
EOF