0
SECTION
2
HEADER
9
$MEASUREMENT
70
1
0
ENDSEC
0
SECTION
2
TABLES
0
TABLE
2
LTYPE
0
LTYPE
72
65
70
64
2
CONTINUOUS
3
______
73
0
40
0
0
ENDTAB
0
TABLE
2
LAYER
0
LAYER
2
DEFAULT_255_2_778
70
0
62
255
6
CONTINUOUS
0
ENDTAB
0
ENDSEC
0
SECTION
2
ENTITIES
0
ARC
8
DEFAULT_255_2_778
10
20.2249849
20
4.0846937
40
0.1541236
50
119.1493544
51
142.7433062
0
ARC
8
DEFAULT_255_2_778
10
24.7448493
20
-2.4481348
40
8.0974133
50
118.5771983
51
124.5731046
0
ARC
8
DEFAULT_255_2_778
10
24.3164837
20
-1.6845541
40
7.2219598
50
110.442305
51
118.4905145
0
ARC
8
DEFAULT_255_2_778
10
24.2842081
20
-1.5400641
40
7.0753254
50
103.3875398
51
110.6060633
0
ARC
8
DEFAULT_255_2_778
10
23.3997236
20
4.8744091
40
0.6012958
50
91.3005261
51
99.8739111
0
LINE
8
DEFAULT_255_2_778
10
23.3860763
20
5.47555
11
23.3881675
21
5.4756485
0
ARC
8
DEFAULT_255_2_778
10
23.3753642
20
6.0827891
40
0.6072755
50
271.2080676
51
279.9230424
0
ARC
8
DEFAULT_255_2_778
10
23.6027731
20
4.8612398
40
0.6353312
50
91.0786654
51
101.1408764
0
ARC
8
DEFAULT_255_2_778
10
23.5051153
20
7.4310174
40
1.9364563
50
272.5364426
51
273.5108933
0
ARC
8
DEFAULT_255_2_778
10
23.6029994
20
5.9409802
40
0.4432682
50
272.6767603
51
284.0636001
0
ARC
8
DEFAULT_255_2_778
10
24.2258812
20
5.4678551
40
0.0608457
50
64.7739419
51
90.5349878
0
ARC
8
DEFAULT_255_2_778
10
23.1031745
20
6.0402556
40
1.1567174
50
310.9872657
51
314.5545183
0
ARC
8
DEFAULT_255_2_778
10
27.4063848
20
1.1319855
40
5.370833
50
131.2967436
51
131.7405211
0
ARC
8
DEFAULT_255_2_778
10
24.3147757
20
4.5839133
40
0.7369038
50
131.0633669
51
140.1407094
0
ARC
8
DEFAULT_255_2_778
10
23.74759
20
4.8216271
40
0.234576
50
83.9792021
51
89.6279809
0
ARC
8
DEFAULT_255_2_778
10
23.7953572
20
5.2544322
40
0.2008629
50
263.3781646
51
268.7089697
0
ARC
8
DEFAULT_255_2_778
10
23.7909939
20
5.1199383
40
0.0663181
50
269.8597953
51
275.1411292
0
ARC
8
DEFAULT_255_2_778
10
23.7922722
20
5.1060022
40
0.0523235
50
275.1144454
51
287.8527033
0
ARC
8
DEFAULT_255_2_778
10
23.8646819
20
4.7678629
40
0.2937936
50
93.0527428
51
101.0616576
0
ARC
8
DEFAULT_255_2_778
10
23.8835367
20
4.3147111
40
0.7473255
50
89.4191227
51
92.6460433
0
ARC
8
DEFAULT_255_2_778
10
23.8697168
20
7.0982711
40
2.0363853
50
270.6020179
51
279.7995484
0
ARC
8
DEFAULT_255_2_778
10
24.4688663
20
8.8805134
40
3.7016919
50
286.0212921
51
291.9310484
0
ARC
8
DEFAULT_255_2_778
10
25.2287615
20
7.0616546
40
1.730832
50
291.0843037
51
307.5328799
0
ARC
8
DEFAULT_255_2_778
10
13.564112
20
22.0518414
40
20.7247412
50
307.858667
51
307.8772307
0
ARC
8
DEFAULT_255_2_778
10
25.8226039
20
6.3414247
40
0.7982742
50
305.7074427
51
319.6989719
0
ARC
8
DEFAULT_255_2_778
10
26.3684965
20
5.8858671
40
0.087472
50
315.9947866
51
324.1323551
0
ARC
8
DEFAULT_255_2_778
10
-20.7381893
20
41.0162731
40
58.8512718
50
323.2870581
51
323.2914187
0
ARC
8
DEFAULT_255_2_778
10
26.4695442
20
5.8237587
40
0.0310512
50
94.8606465
51
152.2711355
0
ARC
8
DEFAULT_255_2_778
10
26.4212749
20
5.8397984
40
0.0480088
50
5.1049458
51
18.0806697
0
ARC
8
DEFAULT_255_2_778
10
26.4153989
20
5.8392066
40
0.0539141
50
359.9505354
51
5.175671
0
ARC
8
DEFAULT_255_2_778
10
26.3503609
20
5.8459825
40
0.1191476
50
338.2327576
51
356.7174125
0
ARC
8
DEFAULT_255_2_778
10
23.8323139
20
6.602001
40
2.7477962
50
325.6205042
51
343.0692178
0
ARC
8
DEFAULT_255_2_778
10
23.9166896
20
6.5970236
40
2.6757034
50
311.5729142
51
324.6881961
0
ARC
8
DEFAULT_255_2_778
10
23.1327432
20
7.6056176
40
3.9513174
50
294.283233
51
310.3722536
0
ARC
8
DEFAULT_255_2_778
10
22.1913463
20
3.7754714
40
0.6054947
50
282.5408554
51
286.1250447
0
ARC
8
DEFAULT_255_2_778
10
22.3068036
20
3.2588439
40
0.0761251
50
271.0398123
51
282.1461915
0
ARC
8
DEFAULT_255_2_778
10
22.3078092
20
3.2202303
40
0.0375009
50
250.2873953
51
270.5742136
0
ARC
8
DEFAULT_255_2_778
10
22.3383279
20
3.28093
40
0.1052617
50
226.9494676
51
245.788865
0
ARC
8
DEFAULT_255_2_778
10
27.641885
20
9.6850929
40
8.4201844
50
230.1554347
51
230.3276725
0
ARC
8
DEFAULT_255_2_778
10
19.7876734
20
0.4151372
40
3.7305119
50
48.7573068
51
60.3720219
0
ARC
8
DEFAULT_255_2_778
10
19.5983858
20
0.1553435
40
4.0500769
50
59.8612344
51
71.1891427
0
ARC
8
DEFAULT_255_2_778
10
19.8604846
20
0.9546997
40
3.2089176
50
71.0168607
51
79.8602591
0
ARC
8
DEFAULT_255_2_778
10
20.1220245
20
4.1675934
40
0.0067112
50
284.5726672
51
350.4304725
0
ARC
8
DEFAULT_255_2_778
10
20.0635534
20
4.1318787
40
0.0737134
50
27.9936493
51
49.10355
0
LINE
8
DEFAULT_255_2_778
10
22.6460131
20
5.3429982
11
22.9831131
21
5.4138982
0
LINE
8
DEFAULT_255_2_778
10
22.9831131
20
5.4138982
11
23.2966131
21
5.4667982
0
LINE
8
DEFAULT_255_2_778
10
23.7107131
20
5.5109982
11
23.7226131
21
5.5109982
0
LINE
8
DEFAULT_255_2_778
10
23.7226131
20
5.5109982
11
24.2253131
21
5.5286982
0
LINE
8
DEFAULT_255_2_778
10
24.2518131
20
5.5228982
11
24.0861131
21
5.3694982
0
LINE
8
DEFAULT_255_2_778
10
24.0861131
20
5.3694982
11
23.9147131
21
5.2159982
0
LINE
8
DEFAULT_255_2_778
10
24.2163131
20
5.0915982
11
24.3997131
21
5.1093982
0
LINE
8
DEFAULT_255_2_778
10
24.3997131
20
5.1093982
11
24.6775131
21
5.1505982
0
LINE
8
DEFAULT_255_2_778
10
24.6775131
20
5.1505982
11
24.9614131
21
5.1982982
0
LINE
8
DEFAULT_255_2_778
10
24.9614131
20
5.1982982
11
25.4905131
21
5.3225982
0
LINE
8
DEFAULT_255_2_778
10
24.7577131
20
4.0038982
11
24.1544131
21
3.7435982
0
LINE
8
DEFAULT_255_2_778
10
24.1544131
20
3.7435982
11
23.3739131
21
3.4657982
0
LINE
8
DEFAULT_255_2_778
10
23.3739131
20
3.4657982
11
22.8415131
21
3.3239982
0
LINE
8
DEFAULT_255_2_778
10
22.8415131
20
3.3239982
11
22.3653131
21
3.1937982
0
LINE
8
DEFAULT_255_2_778
10
22.3653131
20
3.1937982
11
22.3595131
21
3.1937982
0
LINE
8
DEFAULT_255_2_778
10
20.4254131
20
4.1134982
11
20.1237131
21
4.1610982
0
LINE
8
DEFAULT_255_2_778
10
20.1118131
20
4.1875982
11
20.1023131
21
4.1779982
0
ARC
8
DEFAULT_255_2_778
10
12.742923
20
2.0191248
40
0.051041
50
165.3614537
51
179.1980549
0
ARC
8
DEFAULT_255_2_778
10
12.7681636
20
2.0131325
40
0.0769788
50
146.7502908
51
165.7939054
0
ARC
8
DEFAULT_255_2_778
10
12.7444329
20
2.0442933
40
0.0421201
50
105.2034514
51
164.7964429
0
ARC
8
DEFAULT_255_2_778
10
13.1434684
20
2.0625292
40
0.0237556
50
2.4981114
51
109.3763741
0
ARC
8
DEFAULT_255_2_778
10
13.1074962
20
2.0649824
40
0.059722
50
345.0138776
51
358.639624
0
ARC
8
DEFAULT_255_2_778
10
12.5590838
20
-0.0657254
40
0.048673
50
307.3395853
51
335.8217237
0
ARC
8
DEFAULT_255_2_778
10
12.5201949
20
-0.0142895
40
0.1131554
50
300.1254312
51
307.1982902
0
ARC
8
DEFAULT_255_2_778
10
12.0474191
20
-0.0840134
40
0.0304317
50
201.220644
51
292.3415941
0
ARC
8
DEFAULT_255_2_778
10
12.3029901
20
0.0080676
40
0.3020768
50
195.3383285
51
199.9555591
0
ARC
8
DEFAULT_255_2_778
10
2.8824671
20
-2.7453678
40
9.512632
50
16.3229157
51
16.3290441
0
ARC
8
DEFAULT_255_2_778
10
11.4705297
20
1.827895
40
0.00875
50
14.8615824
51
113.1692243
0
ARC
8
DEFAULT_255_2_778
10
11.4656215
20
1.8231885
40
0.0128347
50
83.4434558
51
110.4508746
0
ARC
8
DEFAULT_255_2_778
10
11.4781769
20
1.8092109
40
0.0310891
50
123.2367613
51
137.6876047
0
ARC
8
DEFAULT_255_2_778
10
11.2792538
20
-0.1147673
40
0.3652746
50
162.2916072
51
167.2676287
0
ARC
8
DEFAULT_255_2_778
10
10.7889331
20
-0.0140366
40
0.1355454
50
318.2686299
51
351.4186637
0
ARC
8
DEFAULT_255_2_778
10
10.8979428
20
-0.7226225
40
0.6184116
50
90.7278576
51
95.5985465
0
ARC
8
DEFAULT_255_2_778
10
10.7782512
20
0.4771585
40
0.5873267
50
271.0961562
51
275.8007562
0
ARC
8
DEFAULT_255_2_778
10
10.3600308
20
0.0138931
40
0.1244284
50
256.2201628
51
275.0053515
0
ARC
8
DEFAULT_255_2_778
10
10.3418097
20
-0.0857278
40
0.0241019
50
185.1864631
51
241.7258974
0
ARC
8
DEFAULT_255_2_778
10
11.3141425
20
0.1639751
40
1.0276817
50
192.8420193
51
194.1875661
0
ARC
8
DEFAULT_255_2_778
10
9.5756032
20
-0.2417689
40
0.7576087
50
13.5363673
51
13.6904624
0
ARC
8
DEFAULT_255_2_778
10
9.7111609
20
2.0395379
40
0.0443374
50
1.2941246
51
20.8785955
0
ARC
8
DEFAULT_255_2_778
10
9.7940131
20
2.0711406
40
0.0443374
50
181.2941246
51
200.8785955
0
ARC
8
DEFAULT_255_2_778
10
9.765115
20
2.0689372
40
0.0154747
50
139.4905525
51
175.5450443
0
ARC
8
DEFAULT_255_2_778
10
9.8110092
20
2.0335794
40
0.073394
50
132.3286002
51
141.777835
0
ARC
8
DEFAULT_255_2_778
10
9.7845975
20
2.0488374
40
0.0452839
50
81.6328714
51
120.5399546
0
ARC
8
DEFAULT_255_2_778
10
10.1877995
20
2.0605744
40
0.0352136
50
13.2786286
51
110.1190255
0
ARC
8
DEFAULT_255_2_778
10
9.6994771
20
1.9059074
40
0.5473519
50
14.8339042
51
17.2985066
0
ARC
8
DEFAULT_255_2_778
10
10.6023329
20
0.1608807
40
0.0187972
50
265.5882976
51
346.0471698
0
ARC
8
DEFAULT_255_2_778
10
10.9350036
20
0.0283975
40
0.339465
50
155.0227838
51
157.8570346
0
ARC
8
DEFAULT_255_2_778
10
11.1901718
20
2.0562541
40
0.0374039
50
91.8151649
51
167.9868132
0
ARC
8
DEFAULT_255_2_778
10
11.7351717
20
2.063049
40
0.0335526
50
13.686845
51
114.2575631
0
ARC
8
DEFAULT_255_2_778
10
11.3593802
20
1.9512364
40
0.4255866
50
13.0053168
51
16.3425964
0
ARC
8
DEFAULT_255_2_778
10
2.9924881
20
-0.0933204
40
9.038631
50
13.6913031
51
13.697644
0
ARC
8
DEFAULT_255_2_778
10
12.4122519
20
0.1426289
40
0.1153688
50
165.6413612
51
177.035133
0
ARC
8
DEFAULT_255_2_778
10
12.3146879
20
0.1474868
40
0.0176851
50
176.4035838
51
262.8511677
0
ARC
8
DEFAULT_255_2_778
10
18.8047629
20
0.0907753
40
0.0547896
50
99.9594571
51
140.423728
0
ARC
8
DEFAULT_255_2_778
10
19.2584079
20
-0.2957594
40
0.650773
50
139.6390028
51
140.7093028
0
ARC
8
DEFAULT_255_2_778
10
18.7205585
20
0.1441184
40
0.044047
50
307.8524078
51
320.9116196
0
ARC
8
DEFAULT_255_2_778
10
18.1280556
20
0.7232715
40
0.8721995
50
278.4941619
51
315.2600842
0
ARC
8
DEFAULT_255_2_778
10
18.0820551
20
0.815878
40
0.9711062
50
271.5322904
51
280.371725
0
ARC
8
DEFAULT_255_2_778
10
18.0820557
20
0.8165504
40
0.9717783
50
270.0006492
51
271.5311948
0
ARC
8
DEFAULT_255_2_778
10
18.0820835
20
0.8158932
40
0.9711212
50
250.2601284
51
269.99901
0
ARC
8
DEFAULT_255_2_778
10
18.0182829
20
0.6421874
40
0.7860756
50
210.3718961
51
250.3608731
0
ARC
8
DEFAULT_255_2_778
10
18.3285435
20
0.8021633
40
1.1347986
50
189.6755443
51
209.4201213
0
ARC
8
DEFAULT_255_2_778
10
18.971075
20
0.9466465
40
1.7928043
50
179.4019689
51
190.7762265
0
ARC
8
DEFAULT_255_2_778
10
20.7090463
20
0.9553922
40
3.530692
50
176.9404434
51
179.8382631
0
ARC
8
DEFAULT_255_2_778
10
18.4641453
20
1.0599909
40
1.2835
50
153.6917146
51
176.2543195
0
ARC
8
DEFAULT_255_2_778
10
18.1062439
20
1.2184853
40
0.8925779
50
109.3508203
51
152.6296597
0
ARC
8
DEFAULT_255_2_778
10
18.1870379
20
0.9598777
40
1.1633858
50
89.8119879
51
108.884903
0
ARC
8
DEFAULT_255_2_778
10
18.1906982
20
0.8628125
40
1.2604448
50
87.0380985
51
89.9928518
0
ARC
8
DEFAULT_255_2_778
10
18.1894081
20
0.8355115
40
1.2877761
50
85.8060464
51
87.0435421
0
ARC
8
DEFAULT_255_2_778
10
18.220551
20
1.3570299
40
0.7654094
50
54.2273192
51
85.2759994
0
ARC
8
DEFAULT_255_2_778
10
18.6954875
20
1.9614456
40
0.0449903
50
326.6912833
51
2.0075138
0
ARC
8
DEFAULT_255_2_778
10
18.5871573
20
1.9607942
40
0.1533091
50
0.8324771
51
5.8476803
0
ARC
8
DEFAULT_255_2_778
10
18.8916731
20
1.9920155
40
0.152803
50
180.8535506
51
185.8602137
0
ARC
8
DEFAULT_255_2_778
10
19.3727997
20
2.7309743
40
0.6340593
50
175.9812835
51
181.2322065
0
ARC
8
DEFAULT_255_2_778
10
18.7698114
20
2.778757
40
0.0297011
50
72.2487951
51
186.4690332
0
ARC
8
DEFAULT_255_2_778
10
18.7724971
20
2.0548654
40
0.7522055
50
87.8539815
51
89.514814
0
ARC
8
DEFAULT_255_2_778
10
18.89733
20
5.9326812
40
3.1276321
50
268.2288795
51
268.259732
0
ARC
8
DEFAULT_255_2_778
10
18.8369949
20
3.8617522
40
1.0558293
50
268.1194965
51
269.5780799
0
ARC
8
DEFAULT_255_2_778
10
18.8336237
20
3.5878634
40
0.7819242
50
269.6773146
51
269.9973119
0
ARC
8
DEFAULT_255_2_778
10
19.1383676
20
2.7852501
40
0.0225542
50
336.7287109
51
113.464432
0
ARC
8
DEFAULT_255_2_778
10
20.9944927
20
-0.0137119
40
1.8354062
50
180.0421081
51
180.7972859
0
ARC
8
DEFAULT_255_2_778
10
23.6704059
20
0.0190964
40
4.5115191
50
180.7410284
51
180.7798772
0
ARC
8
DEFAULT_255_2_778
10
17.3044432
20
-0.0723911
40
1.8551055
50
0.3108616
51
0.9291098
0
ARC
8
DEFAULT_255_2_778
10
18.5932921
20
-0.0635896
40
0.5662307
50
0.0105019
51
0.1278472
0
ARC
8
DEFAULT_255_2_778
10
19.091794
20
-0.0707574
40
0.0681178
50
338.1032143
51
6.1280266
0
ARC
8
DEFAULT_255_2_778
10
19.1333932
20
-0.0759157
40
0.0296079
50
257.127443
51
316.860058
0
ARC
8
DEFAULT_255_2_778
10
19.1324776
20
0.5967673
40
0.7015699
50
267.8848543
51
269.5360676
0
ARC
8
DEFAULT_255_2_778
10
18.9732048
20
-4.4228104
40
4.3205452
50
88.2309426
51
88.2763714
0
ARC
8
DEFAULT_255_2_778
10
19.0658095
20
-1.2842248
40
1.1805956
50
88.1870286
51
89.334736
0
ARC
8
DEFAULT_255_2_778
10
19.0703425
20
-0.9768403
40
0.8731796
50
89.3979701
51
89.9970809
0
ARC
8
DEFAULT_255_2_778
10
18.8543492
20
-0.0773986
40
0.0278065
50
160.8148173
51
289.1851827
0
ARC
8
DEFAULT_255_2_778
10
18.6478681
20
1.5215396
40
0.1000082
50
355.6414557
51
54.1869695
0
ARC
8
DEFAULT_255_2_778
10
18.1690547
20
0.9209087
40
0.8680336
50
51.7552203
51
88.3646674
0
ARC
8
DEFAULT_255_2_778
10
18.1946643
20
1.0235543
40
0.7650352
50
90.0627309
51
98.6740508
0
ARC
8
DEFAULT_255_2_778
10
18.1298691
20
1.2909602
40
0.4914888
50
95.9071186
51
157.2960283
0
ARC
8
DEFAULT_255_2_778
10
18.3158835
20
1.1900949
40
0.7023418
50
155.5619453
51
157.8906346
0
ARC
8
DEFAULT_255_2_778
10
18.4703839
20
1.130452
40
0.8679342
50
158.0816148
51
158.4819072
0
ARC
8
DEFAULT_255_2_778
10
18.6789019
20
1.0682026
40
1.0849107
50
159.4628051
51
178.6618127
0
ARC
8
DEFAULT_255_2_778
10
20.5414041
20
0.9507008
40
2.9505766
50
177.2252081
51
179.893968
0
ARC
8
DEFAULT_255_2_778
10
19.8016252
20
0.9555431
40
2.2107925
50
179.9839821
51
181.3258437
0
ARC
8
DEFAULT_255_2_778
10
19.2041141
20
0.9351038
40
1.6129821
50
181.0910978
51
187.8343405
0
ARC
8
DEFAULT_255_2_778
10
18.7106294
20
0.8836875
40
1.1172143
50
188.6718566
51
203.8841985
0
ARC
8
DEFAULT_255_2_778
10
18.0823554
20
0.6212678
40
0.4367298
50
205.7781709
51
247.3097104
0
ARC
8
DEFAULT_255_2_778
10
18.1461968
20
0.7956592
40
0.6223072
50
248.080462
51
269.9971658
0
ARC
8
DEFAULT_255_2_778
10
18.1461502
20
0.7969044
40
0.6235524
50
270.0014568
51
270.7385303
0
ARC
8
DEFAULT_255_2_778
10
18.1461788
20
0.7948459
40
0.6214938
50
270.7383405
51
287.0097327
0
ARC
8
DEFAULT_255_2_778
10
17.941284
20
1.4140197
40
1.2736067
50
287.6756545
51
306.9227165
0
ARC
8
DEFAULT_255_2_778
10
18.5863875
20
0.533028
40
0.1822653
50
311.1763117
51
320.4727994
0
ARC
8
DEFAULT_255_2_778
10
18.6575223
20
0.4745181
40
0.090159
50
320.3816736
51
2.6198736
0
LINE
8
DEFAULT_255_2_778
10
12.312987
20
0.1328392
11
12.348387
21
0.3339392
0
LINE
8
DEFAULT_255_2_778
10
12.348387
20
0.3339392
11
12.448987
21
0.8485392
0
LINE
8
DEFAULT_255_2_778
10
12.448987
20
0.8485392
11
12.543687
21
1.2983392
0
LINE
8
DEFAULT_255_2_778
10
12.543687
20
1.2983392
11
12.691887
21
2.0198392
0
LINE
8
DEFAULT_255_2_778
10
12.733387
20
2.0849392
11
13.135587
21
2.0849392
0
LINE
8
DEFAULT_255_2_778
10
13.165187
20
2.0495392
11
13.123887
21
1.8838392
0
LINE
8
DEFAULT_255_2_778
10
13.123887
20
1.8838392
11
12.857987
21
0.8665392
0
LINE
8
DEFAULT_255_2_778
10
12.857987
20
0.8665392
11
12.662787
21
0.1331392
0
LINE
8
DEFAULT_255_2_778
10
12.662787
20
0.1331392
11
12.603487
21
-0.0856608
0
LINE
8
DEFAULT_255_2_778
10
12.576987
20
-0.1121608
11
12.058987
21
-0.1121608
0
LINE
8
DEFAULT_255_2_778
10
12.011387
20
-0.0708608
11
11.697787
21
1.0231392
0
LINE
8
DEFAULT_255_2_778
10
11.697787
20
1.0231392
11
11.496787
21
1.7507392
0
LINE
8
DEFAULT_255_2_778
10
11.496787
20
1.7507392
11
11.478987
21
1.8301392
0
LINE
8
DEFAULT_255_2_778
10
11.455187
20
1.8301392
11
11.437487
21
1.7825392
0
LINE
8
DEFAULT_255_2_778
10
11.437487
20
1.7825392
11
11.354687
21
1.4690392
0
LINE
8
DEFAULT_255_2_778
10
11.354687
20
1.4690392
11
10.931287
21
-0.0036608
0
LINE
8
DEFAULT_255_2_778
10
10.789487
20
-0.1100608
11
10.370887
21
-0.1100608
0
LINE
8
DEFAULT_255_2_778
10
10.311687
20
-0.0624608
11
10.205287
21
0.3397392
0
LINE
8
DEFAULT_255_2_778
10
10.205287
20
0.3397392
11
10.004187
21
1.1144392
0
LINE
8
DEFAULT_255_2_778
10
10.004187
20
1.1144392
11
9.755487
21
2.0405392
0
LINE
8
DEFAULT_255_2_778
10
9.791187
20
2.0936392
11
10.175687
21
2.0936392
0
LINE
8
DEFAULT_255_2_778
10
10.228587
20
2.0460392
11
10.340987
21
1.5137392
0
LINE
8
DEFAULT_255_2_778
10
10.340987
20
1.5137392
11
10.512487
21
0.6564392
0
LINE
8
DEFAULT_255_2_778
10
10.512487
20
0.6564392
11
10.565387
21
0.3490392
0
LINE
8
DEFAULT_255_2_778
10
10.565387
20
0.3490392
11
10.600887
21
0.1421392
0
LINE
8
DEFAULT_255_2_778
10
10.627287
20
0.1717392
11
10.727887
21
0.6331392
0
LINE
8
DEFAULT_255_2_778
10
10.727887
20
0.6331392
11
10.798787
21
0.8871392
0
LINE
8
DEFAULT_255_2_778
10
10.798787
20
0.8871392
11
11.118087
21
1.9516392
0
LINE
8
DEFAULT_255_2_778
10
11.118087
20
1.9516392
11
11.153587
21
2.0640392
0
LINE
8
DEFAULT_255_2_778
10
11.188987
20
2.0936392
11
11.721387
21
2.0936392
0
LINE
8
DEFAULT_255_2_778
10
11.774287
20
2.0460392
11
11.874787
21
1.7089392
0
LINE
8
DEFAULT_255_2_778
10
11.874787
20
1.7089392
11
11.993087
21
1.3187392
0
LINE
8
DEFAULT_255_2_778
10
11.993087
20
1.3187392
11
12.229587
21
0.4966392
0
LINE
8
DEFAULT_255_2_778
10
12.229587
20
0.4966392
11
12.300487
21
0.1712392
0
LINE
8
DEFAULT_255_2_778
10
12.312487
20
0.1299392
11
12.312987
21
0.1328392
0
LINE
8
DEFAULT_255_2_778
10
18.667987
20
1.9780392
11
18.727287
21
1.9367392
0
LINE
8
DEFAULT_255_2_778
10
18.727287
20
1.9367392
11
18.733087
21
1.9367392
0
LINE
8
DEFAULT_255_2_778
10
18.738887
20
1.9897392
11
18.738887
21
2.7173392
0
LINE
8
DEFAULT_255_2_778
10
18.833587
20
2.8059392
11
19.129387
21
2.8059392
0
LINE
8
DEFAULT_255_2_778
10
19.159087
20
2.7763392
11
19.159087
21
-0.0150608
0
LINE
8
DEFAULT_255_2_778
10
19.070387
20
-0.1036608
11
18.863487
21
-0.1036608
0
LINE
8
DEFAULT_255_2_778
10
18.828087
20
-0.0682608
11
18.792587
21
0.1447392
0
LINE
8
DEFAULT_255_2_778
10
18.792587
20
0.1447392
11
18.795287
21
0.1447392
0
LINE
8
DEFAULT_255_2_778
10
18.747587
20
0.9935392
11
18.747587
21
1.5139392
0
LINE
8
DEFAULT_255_2_778
10
18.747587
20
0.4786392
11
18.747587
21
0.9935392
0
LINE
8
DEFAULT_255_2_778
10
18.747587
20
0.9935392
11
18.747587
21
0.9935392
0
ARC
8
DEFAULT_255_2_778
10
26.4946279
20
3.5869199
40
0.1304278
50
303.5445968
51
316.8769361
0
ARC
8
DEFAULT_255_2_778
10
26.5426836
20
3.5162171
40
0.0449559
50
269.4160633
51
302.29172
0
ARC
8
DEFAULT_255_2_778
10
27.0772118
20
0.4562167
40
3.0621428
50
100.0617694
51
109.1257467
0
ARC
8
DEFAULT_255_2_778
10
32.3973702
20
-15.7547459
40
20.123416
50
108.3145324
51
108.8088972
0
ARC
8
DEFAULT_255_2_778
10
23.3696512
20
1.8029228
40
0.2345602
50
114.6760096
51
120.9579581
0
ARC
8
DEFAULT_255_2_778
10
24.491773
20
-0.1064822
40
2.4492716
50
120.4913753
51
120.6978631
0
ARC
8
DEFAULT_255_2_778
10
23.1473273
20
2.1483852
40
0.1760471
50
287.6911373
51
302.2980119
0
ARC
8
DEFAULT_255_2_778
10
22.9064445
20
1.8568834
40
0.3193458
50
22.8056143
51
30.895947
0
ARC
8
DEFAULT_255_2_778
10
25.4455814
20
3.3301812
40
2.6162996
50
209.6847219
51
210.0295949
0
ARC
8
DEFAULT_255_2_778
10
23.4246567
20
2.1804662
40
0.2912308
50
204.4418677
51
210.0754495
0
ARC
8
DEFAULT_255_2_778
10
22.9197294
20
1.9494958
40
0.2640176
50
24.7343154
51
33.877354
0
ARC
8
DEFAULT_255_2_778
10
24.3987867
20
2.9131883
40
1.5013203
50
212.2769216
51
212.9475462
0
ARC
8
DEFAULT_255_2_778
10
23.325002
20
2.2360062
40
0.2318385
50
206.9417752
51
212.4923945
0
ARC
8
DEFAULT_255_2_778
10
19.3731277
20
0.0573113
40
4.2809509
50
28.9725543
51
37.8919893
0
ARC
8
DEFAULT_255_2_778
10
22.7782403
20
3.1567629
40
0.3262964
50
221.505082
51
225.7430589
0
ARC
8
DEFAULT_255_2_778
10
22.6637182
20
3.0551874
40
0.1732185
50
216.2491458
51
221.446444
0
ARC
8
DEFAULT_255_2_778
10
22.5363409
20
2.9630055
40
0.0160176
50
182.9745058
51
219.747753
0
ARC
8
DEFAULT_255_2_778
10
22.536153
20
2.9612066
40
0.0158377
50
140.1462394
51
176.4969141
0
ARC
8
DEFAULT_255_2_778
10
22.6474739
20
2.8805263
40
0.1532877
50
141.6734822
51
143.6623326
0
ARC
8
DEFAULT_255_2_778
10
22.4768983
20
3.0149553
40
0.0638931
50
321.9631633
51
325.9317861
0
ARC
8
DEFAULT_255_2_778
10
22.6537674
20
2.724881
40
0.2828803
50
115.6051699
51
115.9854353
0
ARC
8
DEFAULT_255_2_778
10
22.6274685
20
2.7805978
40
0.22127
50
112.7193444
51
115.6990965
0
ARC
8
DEFAULT_255_2_778
10
22.5717043
20
2.921813
40
0.0695441
50
95.2627878
51
115.2762534
0
ARC
8
DEFAULT_255_2_778
10
24.8157284
20
2.5814383
40
0.8507734
50
92.7918284
51
98.5919817
0
ARC
8
DEFAULT_255_2_778
10
24.756948
20
4.0168357
40
0.5858904
50
271.6961276
51
284.2861887
0
ARC
8
DEFAULT_255_2_778
10
26.5828349
20
3.4420555
40
0.0632408
50
86.2913928
51
125.9300086
0
LINE
8
DEFAULT_255_2_778
10
25.9093255
20
3.2940637
11
25.3415255
21
3.0633637
0
LINE
8
DEFAULT_255_2_778
10
25.3415255
20
3.0633637
11
25.0161255
21
2.9151637
0
LINE
8
DEFAULT_255_2_778
10
25.0161255
20
2.9151637
11
24.1350255
21
2.4775637
0
LINE
8
DEFAULT_255_2_778
10
24.1350255
20
2.4775637
11
23.4551255
21
2.1166637
0
LINE
8
DEFAULT_255_2_778
10
23.4551255
20
2.1166637
11
23.2717255
21
2.0160637
0
LINE
8
DEFAULT_255_2_778
10
22.7515255
20
2.6865637
11
22.5505255
21
2.9230637
0
LINE
8
DEFAULT_255_2_778
10
22.5653255
20
2.9910637
11
23.2040255
21
3.1683637
0
LINE
8
DEFAULT_255_2_778
10
23.2040255
20
3.1683637
11
23.8310255
21
3.3043637
0
LINE
8
DEFAULT_255_2_778
10
23.8310255
20
3.3043637
11
24.1385255
21
3.3519637
0
LINE
8
DEFAULT_255_2_778
10
24.1385255
20
3.3519637
11
24.5052255
21
3.4048637
0
LINE
8
DEFAULT_255_2_778
10
24.5052255
20
3.4048637
11
24.6886255
21
3.4226637
0
LINE
8
DEFAULT_255_2_778
10
24.9015255
20
3.4490637
11
24.9134255
21
3.4490637
0
LINE
8
DEFAULT_255_2_778
10
24.9134255
20
3.4490637
11
25.1854255
21
3.4667637
0
LINE
8
DEFAULT_255_2_778
10
25.1854255
20
3.4667637
11
25.5225255
21
3.4932637
0
LINE
8
DEFAULT_255_2_778
10
25.5225255
20
3.4932637
11
26.5457255
21
3.4932637
0
LINE
8
DEFAULT_255_2_778
10
26.5869255
20
3.5051637
11
26.5898255
21
3.4977637
0
ARC
8
DEFAULT_255_2_778
10
7.1094671
20
0.0909231
40
0.0699134
50
110.6518708
51
148.4271829
0
LINE
8
DEFAULT_255_2_778
10
7.0499026
20
0.1275285
11
7.0493094
21
0.1267439
0
ARC
8
DEFAULT_255_2_778
10
6.3848346
20
0.7885356
40
0.937814
50
278.2997228
51
315.1159087
0
ARC
8
DEFAULT_255_2_778
10
6.3530913
20
0.7893148
40
0.9436863
50
270.0517357
51
280.2003458
0
ARC
8
DEFAULT_255_2_778
10
6.3538202
20
0.7543594
40
0.9087305
50
252.6354583
51
270.0077697
0
ARC
8
DEFAULT_255_2_778
10
6.2347732
20
0.4306387
40
0.5644901
50
228.9024266
51
254.3619322
0
ARC
8
DEFAULT_255_2_778
10
6.2480693
20
0.4282032
40
0.571513
50
193.4837363
51
227.7373314
0
ARC
8
DEFAULT_255_2_778
10
6.4663186
20
0.4880227
40
0.7977278
50
179.9905771
51
194.0067352
0
ARC
8
DEFAULT_255_2_778
10
6.4691873
20
0.488164
40
0.8005966
50
179.0137721
51
180.0007207
0
ARC
8
DEFAULT_255_2_778
10
6.4521013
20
0.5240353
40
0.7837033
50
151.4785567
51
181.615292
0
ARC
8
DEFAULT_255_2_778
10
6.2722739
20
0.5862877
40
0.5967897
50
118.4018354
51
148.4848628
0
ARC
8
DEFAULT_255_2_778
10
6.5271206
20
0.1425162
40
1.1084418
50
99.5663325
51
119.0785141
0
ARC
8
DEFAULT_255_2_778
10
6.5151525
20
0.3330862
40
0.9187478
50
92.2608134
51
100.8055204
0
ARC
8
DEFAULT_255_2_778
10
6.5927715
20
-1.5510251
40
2.8044564
50
89.5477128
51
92.3268727
0
ARC
8
DEFAULT_255_2_778
10
7.0546261
20
1.2750271
40
0.0230832
50
249.9423062
51
20.0578048
0
ARC
8
DEFAULT_255_2_778
10
6.6924225
20
1.4532768
40
0.3842399
50
2.4562307
51
21.5068282
0
ARC
8
DEFAULT_255_2_778
10
6.8280794
20
1.5281217
40
0.2314464
50
16.5743341
51
71.4501595
0
ARC
8
DEFAULT_255_2_778
10
6.7151353
20
1.3197742
40
0.4666871
50
66.4353159
51
83.061938
0
ARC
8
DEFAULT_255_2_778
10
6.6118613
20
0.3475293
40
1.4443648
50
83.6540334
51
90.0000753
0
ARC
8
DEFAULT_255_2_778
10
6.6118575
20
0.3475293
40
1.4443646
50
89.9999247
51
96.3459666
0
ARC
8
DEFAULT_255_2_778
10
6.703992
20
-0.436584
40
2.2338627
50
96.4716622
51
107.9752218
0
ARC
8
DEFAULT_255_2_778
10
5.8986971
20
1.6653463
40
0.0449783
50
178.0021167
51
213.3125874
0
ARC
8
DEFAULT_255_2_778
10
6.006183
20
1.6647024
40
0.1524529
50
174.136404
51
179.1686677
0
ARC
8
DEFAULT_255_2_778
10
5.7035931
20
1.6958257
40
0.1517334
50
354.1183921
51
359.1383591
0
ARC
8
DEFAULT_255_2_778
10
5.889235
20
1.9485986
40
0.036209
50
105.3998656
51
200.4562215
0
ARC
8
DEFAULT_255_2_778
10
5.957426
20
1.7654964
40
0.2314794
50
105.2321219
51
109.6410814
0
ARC
8
DEFAULT_255_2_778
10
6.5724568
20
0.1033915
40
2.002923
50
99.7399391
51
109.7204058
0
ARC
8
DEFAULT_255_2_778
10
6.6599923
20
0.1070313
40
2.0160179
50
89.8185834
51
102.2101282
0
ARC
8
DEFAULT_255_2_778
10
6.6651119
20
-0.2327273
40
2.3557667
50
86.5394407
51
89.9692646
0
ARC
8
DEFAULT_255_2_778
10
6.7446198
20
0.9698555
40
1.1505975
50
86.491869
51
86.8767271
0
ARC
8
DEFAULT_255_2_778
10
6.7667554
20
1.1676679
40
0.9518537
50
68.5583171
51
87.0932176
0
ARC
8
DEFAULT_255_2_778
10
6.8950033
20
1.5121316
40
0.5843855
50
13.2168606
51
67.9162863
0
ARC
8
DEFAULT_255_2_778
10
6.5479712
20
1.4085434
40
0.9461537
50
358.088848
51
14.5189211
0
ARC
8
DEFAULT_255_2_778
10
3.6212907
20
1.3679285
40
3.8723187
50
359.9987477
51
0.1340682
0
ARC
8
DEFAULT_255_2_778
10
7.471829
20
-0.0888757
40
0.0231755
50
250.0180409
51
19.9819639
0
ARC
8
DEFAULT_255_2_778
10
7.1598116
20
-0.0786285
40
0.033085
50
173.975398
51
284.5249072
0
ARC
8
DEFAULT_255_2_778
10
7.4604252
20
0.2255225
40
0.3829785
50
197.0655582
51
203.4618726
0
ARC
8
DEFAULT_255_2_778
10
6.4561577
20
-0.0840701
40
0.6679266
50
17.1721834
51
21.0505891
0
ARC
8
DEFAULT_255_2_778
10
7.0551685
20
0.9657623
40
0.0244269
50
347.4244016
51
96.2496303
0
ARC
8
DEFAULT_255_2_778
10
6.9670767
20
3.8531883
40
2.8644187
50
269.8982605
51
271.7091274
0
ARC
8
DEFAULT_255_2_778
10
6.9778376
20
9.696043
40
8.7072832
50
269.2803509
51
269.8957221
0
ARC
8
DEFAULT_255_2_778
10
6.7549341
20
-8.1880718
40
9.1782207
50
89.2911944
51
89.8479598
0
ARC
8
DEFAULT_255_2_778
10
6.7746342
20
-3.5246468
40
4.5147657
50
89.9409227
51
89.9999981
0
ARC
8
DEFAULT_255_2_778
10
6.7464897
20
-0.7486863
40
1.739033
50
89.0726799
51
98.251397
0
ARC
8
DEFAULT_255_2_778
10
6.5789018
20
0.2668728
40
0.7102198
50
96.629385
51
109.3816167
0
ARC
8
DEFAULT_255_2_778
10
6.4596775
20
0.5853695
40
0.370269
50
108.3336581
51
165.7449719
0
ARC
8
DEFAULT_255_2_778
10
7.1475622
20
0.464963
40
1.0679223
50
168.5727309
51
172.1927048
0
ARC
8
DEFAULT_255_2_778
10
6.7619404
20
0.5163247
40
0.6788995
50
172.0662855
51
179.7336132
0
ARC
8
DEFAULT_255_2_778
10
6.5639934
20
0.5169676
40
0.4809517
50
179.7005658
51
192.8084989
0
ARC
8
DEFAULT_255_2_778
10
6.3799405
20
0.4645751
40
0.2900461
50
190.7762582
51
259.2237507
0
ARC
8
DEFAULT_255_2_778
10
6.4514181
20
0.6579343
40
0.4945345
50
255.2740492
51
270.168112
0
ARC
8
DEFAULT_255_2_778
10
6.4527533
20
0.7206369
40
0.557235
50
270.0119077
51
272.2776041
0
ARC
8
DEFAULT_255_2_778
10
6.435237
20
0.9413403
40
0.7785092
50
272.9202225
51
283.8433424
0
ARC
8
DEFAULT_255_2_778
10
6.494274
20
0.7111436
40
0.540878
50
283.6056818
51
299.1227102
0
ARC
8
DEFAULT_255_2_778
10
6.2064327
20
1.3731506
40
1.2612656
50
295.9077557
51
311.4537268
0
ARC
8
DEFAULT_255_2_778
10
6.9868177
20
0.4919453
40
0.0841976
50
310.4191993
51
359.9924591
0
ARC
8
DEFAULT_255_2_778
10
6.9859958
20
0.491917
40
0.0850196
50
0.0116318
51
0.6920583
0
ARC
8
DEFAULT_255_2_778
10
3.1861975
20
1.0699649
40
1.050877
50
90.0004905
51
92.4972451
0
ARC
8
DEFAULT_255_2_778
10
3.1862741
20
1.0723662
40
1.0484756
50
71.4971709
51
90.0046786
0
ARC
8
DEFAULT_255_2_778
10
3.2957305
20
1.2985147
40
0.7999224
50
19.9828034
51
73.7919686
0
ARC
8
DEFAULT_255_2_778
10
3.0543303
20
1.1808108
40
1.0673835
50
20.0209289
51
21.492527
0
ARC
8
DEFAULT_255_2_778
10
2.806559
20
1.0882562
40
1.3318705
50
19.8416868
51
20.1127121
0
ARC
8
DEFAULT_255_2_778
10
2.6366031
20
1.0372776
40
1.5090716
50
6.3179307
51
19.4720844
0
ARC
8
DEFAULT_255_2_778
10
1.1023542
20
0.9285432
40
3.0465739
50
0.0045306
51
5.1751078
0
ARC
8
DEFAULT_255_2_778
10
1.1039129
20
0.9286569
40
3.0450154
50
359.0494917
51
0.0023942
0
ARC
8
DEFAULT_255_2_778
10
2.685721
20
0.9094601
40
1.4631235
50
338.5934216
51
358.7735665
0
ARC
8
DEFAULT_255_2_778
10
3.3121154
20
0.6662224
40
0.7911668
50
288.0388369
51
338.4365615
0
ARC
8
DEFAULT_255_2_778
10
3.2110942
20
0.8949182
40
1.0402101
50
269.9915399
51
289.4290748
0
ARC
8
DEFAULT_255_2_778
10
3.2109657
20
0.9012507
40
1.0465425
50
269.5260831
51
269.9986273
0
ARC
8
DEFAULT_255_2_778
10
3.1210808
20
1.4945121
40
1.6411352
50
266.9642353
51
267.661225
0
ARC
8
DEFAULT_255_2_778
10
3.0758241
20
1.0019505
40
1.1470272
50
247.3557597
51
267.9187272
0
ARC
8
DEFAULT_255_2_778
10
2.9469083
20
0.6758823
40
0.796488
50
212.2517717
51
246.883801
0
ARC
8
DEFAULT_255_2_778
10
3.3455566
20
0.8679082
40
1.2371267
50
189.4473881
51
209.9198655
0
ARC
8
DEFAULT_255_2_778
10
3.750579
20
0.9584547
40
1.651676
50
180.0014465
51
190.2396266
0
ARC
8
DEFAULT_255_2_778
10
3.7499573
20
0.958407
40
1.6510543
50
178.4522082
51
179.9997909
0
ARC
8
DEFAULT_255_2_778
10
3.7492938
20
0.9584278
40
1.6503905
50
176.8421141
51
178.4523092
0
ARC
8
DEFAULT_255_2_778
10
3.5618075
20
1.0460428
40
1.4604019
50
158.61962
51
179.8704865
0
ARC
8
DEFAULT_255_2_778
10
2.9705458
20
1.2850559
40
0.8227262
50
110.166653
51
159.1081798
0
ARC
8
DEFAULT_255_2_778
10
3.0932258
20
0.8402966
40
1.2830811
50
90.0050458
51
108.4618055
0
ARC
8
DEFAULT_255_2_778
10
3.0931224
20
0.8432314
40
1.2801463
50
87.8114246
51
90.000432
0
ARC
8
DEFAULT_255_2_778
10
1.3782161
20
0.9516815
40
2.3538059
50
0.9338511
51
5.8390402
0
ARC
8
DEFAULT_255_2_778
10
2.6570948
20
1.0964022
40
1.0669293
50
5.0944903
51
22.8343749
0
ARC
8
DEFAULT_255_2_778
10
3.1985105
20
1.336715
40
0.4748225
50
21.4618647
51
85.8686881
0
ARC
8
DEFAULT_255_2_778
10
3.1720987
20
1.1749764
40
0.6382128
50
84.5496753
51
86.7204501
0
ARC
8
DEFAULT_255_2_778
10
3.1198723
20
0.9246079
40
0.891961
50
84.2904633
51
90.0008307
0
ARC
8
DEFAULT_255_2_778
10
3.1198464
20
0.9246079
40
0.891961
50
89.9991693
51
95.7095367
0
ARC
8
DEFAULT_255_2_778
10
3.0553655
20
1.341911
40
0.4708581
50
92.9528816
51
134.7782816
0
ARC
8
DEFAULT_255_2_778
10
3.1555615
20
1.2426087
40
0.6119224
50
134.8885628
51
167.5584002
0
ARC
8
DEFAULT_255_2_778
10
3.6321622
20
1.0797768
40
1.1138371
50
164.6597036
51
174.5640479
0
ARC
8
DEFAULT_255_2_778
10
5.909329
20
0.8602763
40
3.4015579
50
174.5170439
51
177.5858369
0
ARC
8
DEFAULT_255_2_778
10
-35.3056239
20
2.9429896
40
37.8661138
50
357.0528995
51
357.0641339
0
ARC
8
DEFAULT_255_2_778
10
3.2325846
20
1.009971
40
0.7223076
50
181.0968788
51
187.4407634
0
ARC
8
DEFAULT_255_2_778
10
1.5075927
20
0.7942765
40
1.0161358
50
3.6651707
51
6.9045174
0
ARC
8
DEFAULT_255_2_778
10
2.1023676
20
0.8357044
40
0.4199423
50
0.0872498
51
3.2119524
0
ARC
8
DEFAULT_255_2_778
10
3.3788391
20
0.8697863
40
0.8571824
50
182.2359244
51
202.5877809
0
ARC
8
DEFAULT_255_2_778
10
3.1490562
20
0.7377004
40
0.5952461
50
199.3427513
51
232.0150472
0
ARC
8
DEFAULT_255_2_778
10
3.0856077
20
0.682327
40
0.5128
50
233.7950519
51
262.560343
0
ARC
8
DEFAULT_255_2_778
10
3.1251728
20
0.870766
40
0.7049316
50
261.3546862
51
269.9275296
0
ARC
8
DEFAULT_255_2_778
10
3.1228026
20
0.8471407
40
0.6813075
50
270.1243416
51
290.5635641
0
ARC
8
DEFAULT_255_2_778
10
3.1577634
20
0.6951629
40
0.527138
50
292.8084609
51
341.5852987
0
ARC
8
DEFAULT_255_2_778
10
2.3989685
20
0.9582436
40
1.3302211
50
341.1583571
51
1.3698436
0
ARC
8
DEFAULT_255_2_778
10
14.7667446
20
2.0558106
40
0.0233742
50
73.6885807
51
189.7705298
0
ARC
8
DEFAULT_255_2_778
10
15.0431005
20
2.0411693
40
0.0382455
50
2.5095296
51
104.2142932
0
ARC
8
DEFAULT_255_2_778
10
15.1613446
20
1.8065749
40
0.0159598
50
202.591118
51
269.5400352
0
ARC
8
DEFAULT_255_2_778
10
15.1612011
20
1.8081099
40
0.0174944
50
270.0503789
51
276.7482468
0
ARC
8
DEFAULT_255_2_778
10
15.1603803
20
1.8123657
40
0.0218194
50
277.5754422
51
305.688502
0
ARC
8
DEFAULT_255_2_778
10
15.134169
20
1.8726192
40
0.0871578
50
296.5372598
51
305.9146513
0
ARC
8
DEFAULT_255_2_778
10
15.1208206
20
1.8930453
40
0.1115369
50
305.3132234
51
321.9136692
0
ARC
8
DEFAULT_255_2_778
10
16.0947185
20
0.7506614
40
1.3920376
50
111.1255929
51
129.5354462
0
ARC
8
DEFAULT_255_2_778
10
15.992435
20
1.0680536
40
1.0592823
50
90.006304
51
112.1524315
0
ARC
8
DEFAULT_255_2_778
10
15.9923234
20
1.0700896
40
1.0572463
50
87.2792268
51
90.0002648
0
ARC
8
DEFAULT_255_2_778
10
15.9944181
20
1.1172495
40
1.01004
50
70.0943073
51
87.2709283
0
ARC
8
DEFAULT_255_2_778
10
16.1549572
20
1.5856123
40
0.515071
50
23.2754898
51
69.1468125
0
ARC
8
DEFAULT_255_2_778
10
15.9821353
20
1.4990487
40
0.7081227
50
8.2065432
51
24.18398
0
ARC
8
DEFAULT_255_2_778
10
15.6689834
20
1.4441811
40
1.0259449
50
3.4121789
51
8.7430042
0
ARC
8
DEFAULT_255_2_778
10
13.9428572
20
1.3023691
40
2.7577246
50
359.6224368
51
4.2188343
0
ARC
8
DEFAULT_255_2_778
10
5.7929169
20
1.3027143
40
10.9076208
50
359.3182622
51
359.9027294
0
ARC
8
DEFAULT_255_2_778
10
27.6017034
20
1.0431712
40
10.90271
50
179.3180651
51
179.902397
0
ARC
8
DEFAULT_255_2_778
10
16.6643126
20
-0.0738948
40
0.0346968
50
350.863225
51
0.0639096
0
ARC
8
DEFAULT_255_2_778
10
16.6749759
20
-0.0766285
40
0.0237561
50
264.040457
51
353.2897019
0
ARC
8
DEFAULT_255_2_778
10
16.2963715
20
-0.0739939
40
0.0278065
50
160.8148173
51
289.1851827
0
ARC
8
DEFAULT_255_2_778
10
16.0143158
20
1.4860263
40
0.2499034
50
0.5084372
51
23.4529683
0
ARC
8
DEFAULT_255_2_778
10
15.6424345
20
1.3350643
40
0.6512144
50
22.6156287
51
26.9343006
0
ARC
8
DEFAULT_255_2_778
10
16.0202266
20
1.5235469
40
0.2290469
50
27.7074424
51
68.3555879
0
ARC
8
DEFAULT_255_2_778
10
15.8818139
20
1.1218787
40
0.6537375
50
70.0648961
51
83.924093
0
ARC
8
DEFAULT_255_2_778
10
15.8908679
20
0.8775693
40
0.8963944
50
86.1529862
51
89.9951062
0
ARC
8
DEFAULT_255_2_778
10
15.9099026
20
0.7121855
40
1.0619474
50
91.0229124
51
115.4171247
0
ARC
8
DEFAULT_255_2_778
10
16.3714696
20
-0.2727504
40
2.1496633
50
115.2612304
51
123.0276435
0
ARC
8
DEFAULT_255_2_778
10
15.2476859
20
1.4469383
40
0.095477
50
120.0957126
51
179.9488422
0
ARC
8
DEFAULT_255_2_778
10
15.2499301
20
1.4470934
40
0.0977211
50
180.0409884
51
180.204924
0
ARC
8
DEFAULT_255_2_778
10
15.1259285
20
-0.0824493
40
0.0278424
50
250.8813062
51
19.280217
0
ARC
8
DEFAULT_255_2_778
10
14.7543261
20
-0.0870394
40
0.0231033
50
160.0488337
51
289.9511663
0
ARC
8
DEFAULT_255_2_778
10
20.570285
20
0.2501139
40
1.5388651
50
69.8017037
51
84.9662322
0
ARC
8
DEFAULT_255_2_778
10
20.5932898
20
0.8139291
40
0.9755675
50
83.4064659
51
90.1613011
0
ARC
8
DEFAULT_255_2_778
10
20.6035652
20
0.1729537
40
1.6165914
50
90.461531
51
97.1015267
0
ARC
8
DEFAULT_255_2_778
10
20.4638929
20
1.3484621
40
0.4328858
50
97.9916364
51
98.7568526
0
ARC
8
DEFAULT_255_2_778
10
20.4541253
20
1.3927715
40
0.3876168
50
98.3269982
51
115.8021328
0
ARC
8
DEFAULT_255_2_778
10
20.3590261
20
1.5395225
40
0.2152044
50
110.0035304
51
166.9150192
0
ARC
8
DEFAULT_255_2_778
10
20.5404538
20
1.4878291
40
0.4037312
50
165.5984014
51
176.2557608
0
ARC
8
DEFAULT_255_2_778
10
20.4388711
20
1.4966415
40
0.3017976
50
176.6658227
51
179.9662424
0
ARC
8
DEFAULT_255_2_778
10
20.3708646
20
1.4950655
40
0.2337975
50
179.570198
51
193.5863702
0
ARC
8
DEFAULT_255_2_778
10
20.3852809
20
1.4918961
40
0.2471506
50
192.0869282
51
252.0736456
0
ARC
8
DEFAULT_255_2_778
10
20.7803979
20
2.3722107
40
1.2109024
50
247.1001323
51
255.1176723
0
ARC
8
DEFAULT_255_2_778
10
19.6705125
20
-1.6194843
40
2.9323335
50
72.5137845
51
74.1905139
0
ARC
8
DEFAULT_255_2_778
10
17.978369
20
-8.7258477
40
10.2320462
50
74.7829706
51
75.4343977
0
ARC
8
DEFAULT_255_2_778
10
20.2578901
20
-0.4145765
40
1.6139624
50
66.9963767
51
75.4251289
0
ARC
8
DEFAULT_255_2_778
10
20.6404098
20
0.4608294
40
0.65876
50
31.4809604
51
67.8663801
0
ARC
8
DEFAULT_255_2_778
10
20.6556886
20
0.5168369
40
0.6177645
50
8.0871913
51
27.7884572
0
ARC
8
DEFAULT_255_2_778
10
20.5478267
20
0.4954357
40
0.7275891
50
0.0263163
51
8.5608094
0
ARC
8
DEFAULT_255_2_778
10
20.5024118
20
0.499663
40
0.7730136
50
342.0043089
51
359.7114455
0
ARC
8
DEFAULT_255_2_778
10
20.7412817
20
0.4064302
40
0.5172393
50
292.8107343
51
343.6521604
0
ARC
8
DEFAULT_255_2_778
10
20.4922851
20
0.9938195
40
1.1552237
50
279.7262069
51
292.899947
0
ARC
8
DEFAULT_255_2_778
10
25.7357355
20
-24.0952909
40
24.476749
50
101.90258
51
101.9371243
0
ARC
8
DEFAULT_255_2_778
10
22.3945367
20
-8.2882417
40
8.3204372
50
101.9409465
51
102.004303
0
ARC
8
DEFAULT_255_2_778
10
20.4577617
20
1.250416
40
1.4152809
50
271.4011848
51
278.379505
0
ARC
8
DEFAULT_255_2_778
10
20.4430655
20
1.6527546
40
1.8178651
50
269.978419
51
271.5541568
0
ARC
8
DEFAULT_255_2_778
10
20.4491415
20
2.4419092
40
2.6070283
50
267.0464166
51
269.8514164
0
ARC
8
DEFAULT_255_2_778
10
20.4467796
20
1.8120078
40
1.9780711
50
250.7402221
51
266.1745777
0
ARC
8
DEFAULT_255_2_778
10
19.7955527
20
-0.039948
40
0.0154582
50
229.2360909
51
265.3866164
0
ARC
8
DEFAULT_255_2_778
10
19.834138
20
0.0097569
40
0.0783656
50
222.768305
51
231.5981211
0
ARC
8
DEFAULT_255_2_778
10
20.0971951
20
0.6120309
40
0.7296837
50
243.4380676
51
243.9376599
0
ARC
8
DEFAULT_255_2_778
10
19.7799245
20
-0.0121731
40
0.0298571
50
183.0391238
51
252.4192937
0
ARC
8
DEFAULT_255_2_778
10
19.7677448
20
0.3029838
40
0.0179305
50
92.7094942
51
190.4100444
0
ARC
8
DEFAULT_255_2_778
10
19.7659273
20
0.2913796
40
0.0295306
50
61.9599054
51
88.1180175
0
ARC
8
DEFAULT_255_2_778
10
20.4782943
20
1.7965157
40
1.6125766
50
255.1022584
51
269.1117183
0
ARC
8
DEFAULT_255_2_778
10
20.4535583
20
1.3122843
40
1.1281515
50
269.986619
51
272.4258754
0
ARC
8
DEFAULT_255_2_778
10
20.3768667
20
1.5960862
40
1.4164195
50
275.0403479
51
278.6823582
0
ARC
8
DEFAULT_255_2_778
10
20.5236704
20
0.6408793
40
0.449999
50
278.5643533
51
290.9555072
0
ARC
8
DEFAULT_255_2_778
10
20.6160951
20
0.4570992
40
0.2461814
50
286.1592538
51
358.6604135
0
ARC
8
DEFAULT_255_2_778
10
20.6324828
20
0.5154131
40
0.2298015
50
358.5364947
51
64.3356745
0
ARC
8
DEFAULT_255_2_778
10
20.4608415
20
0.2402795
40
0.553273
50
60.6518013
51
75.1008417
0
ARC
8
DEFAULT_255_2_778
10
19.6176618
20
-2.6426483
40
3.5568345
50
73.9155227
51
74.9206912
0
ARC
8
DEFAULT_255_2_778
10
21.5439057
20
4.4364949
40
3.7797175
50
254.545445
51
254.6442471
0
ARC
8
DEFAULT_255_2_778
10
20.4448518
20
1.7116394
40
0.853225
50
233.706499
51
252.0719042
0
ARC
8
DEFAULT_255_2_778
10
20.2516831
20
1.4316636
40
0.5133231
50
192.5933326
51
232.5868315
0
ARC
8
DEFAULT_255_2_778
10
20.5174786
20
1.492429
40
0.785974
50
180.0917559
51
192.6919049
0
ARC
8
DEFAULT_255_2_778
10
20.4793617
20
1.4911978
40
0.7478561
50
179.180999
51
180.0021075
0
ARC
8
DEFAULT_255_2_778
10
20.4501189
20
1.4928045
40
0.7185942
50
164.8469482
51
179.2757685
0
ARC
8
DEFAULT_255_2_778
10
20.280309
20
1.5404712
40
0.542231
50
110.8056106
51
165.0182721
0
ARC
8
DEFAULT_255_2_778
10
20.4956187
20
1.0081597
40
1.1163753
50
98.5924503
51
111.431418
0
ARC
8
DEFAULT_255_2_778
10
20.560861
20
0.6359379
40
1.4941933
50
93.8586319
51
98.9336598
0
ARC
8
DEFAULT_255_2_778
10
20.6506583
20
0.8446819
40
1.2828924
50
66.4074901
51
87.9383821
0
ARC
8
DEFAULT_255_2_778
10
21.1554681
20
1.9771155
40
0.0440836
50
2.5071553
51
78.6956571
0
ARC
8
DEFAULT_255_2_778
10
1.7505098
20
2.1866796
40
0.5498667
50
249.7412315
51
253.8008082
0
ARC
8
DEFAULT_255_2_778
10
1.0617194
20
0.4110731
40
1.3547619
50
68.4149111
51
71.2468247
0
ARC
8
DEFAULT_255_2_778
10
1.4177379
20
1.4343706
40
0.2714539
50
72.9644328
51
73.1310368
0
ARC
8
DEFAULT_255_2_778
10
0.9252311
20
0.1393636
40
1.656412
50
69.8249783
51
84.7564629
0
ARC
8
DEFAULT_255_2_778
10
1.8689006
20
9.0085914
40
7.2630902
50
263.7072955
51
263.7374514
0
ARC
8
DEFAULT_255_2_778
10
0.8989773
20
0.3505789
40
1.4491468
50
83.1104973
51
86.006153
0
ARC
8
DEFAULT_255_2_778
10
0.967963
20
1.2719816
40
0.5251973
50
86.5126953
51
89.9061424
0
ARC
8
DEFAULT_255_2_778
10
0.9679606
20
1.4009608
40
0.3962183
50
89.8752471
51
96.4851632
0
ARC
8
DEFAULT_255_2_778
10
1.0124339
20
0.2516755
40
1.545546
50
93.3095315
51
97.9065108
0
ARC
8
DEFAULT_255_2_778
10
0.8898348
20
1.1581908
40
0.6307923
50
98.2029843
51
109.3519331
0
ARC
8
DEFAULT_255_2_778
10
0.754364
20
1.5316836
40
0.2335457
50
108.3576522
51
176.1009753
0
ARC
8
DEFAULT_255_2_778
10
0.7623909
20
1.5345775
40
0.2413815
50
176.9159038
51
180.0079844
0
ARC
8
DEFAULT_255_2_778
10
0.9241067
20
1.5152935
40
0.4035567
50
177.2658455
51
179.9994728
0
ARC
8
DEFAULT_255_2_778
10
0.9225354
20
1.5152572
40
0.4019854
50
179.9943055
51
194.2446035
0
ARC
8
DEFAULT_255_2_778
10
0.7651074
20
1.4922329
40
0.2442848
50
198.0988817
51
249.8882024
0
ARC
8
DEFAULT_255_2_778
10
1.1627684
20
2.3818805
40
1.2182932
50
246.7118468
51
256.4006289
0
ARC
8
DEFAULT_255_2_778
10
0.8877937
20
0.2188867
40
0.936425
50
54.0076475
51
73.84705
0
ARC
8
DEFAULT_255_2_778
10
1.1276304
20
0.5551394
40
0.52343
50
0.7995952
51
53.6182619
0
ARC
8
DEFAULT_255_2_778
10
0.4008711
20
0.4918093
40
1.2521321
50
0.059988
51
3.233855
0
ARC
8
DEFAULT_255_2_778
10
0.5988466
20
0.4926916
40
1.0541561
50
357.8078187
51
0.023297
0
ARC
8
DEFAULT_255_2_778
10
0.9380144
20
0.4695647
40
0.7144238
50
341.5227609
51
358.6207646
0
ARC
8
DEFAULT_255_2_778
10
1.1532195
20
0.3924443
40
0.4858961
50
298.4785762
51
342.1053236
0
ARC
8
DEFAULT_255_2_778
10
0.9515685
20
0.7335814
40
0.8820279
50
277.4222469
51
299.4261104
0
ARC
8
DEFAULT_255_2_778
10
0.854978
20
1.3189581
40
1.4751152
50
270.9263975
51
278.205386
0
ARC
8
DEFAULT_255_2_778
10
0.8362299
20
1.8778506
40
2.034261
50
269.9871332
51
271.1998713
0
ARC
8
DEFAULT_255_2_778
10
0.840956
20
2.5322569
40
2.6886723
50
267.093198
51
269.8895509
0
ARC
8
DEFAULT_255_2_778
10
0.882642
20
2.4104428
40
2.5695738
50
265.8355094
51
266.027086
0
ARC
8
DEFAULT_255_2_778
10
0.8117114
20
1.7257536
40
1.8816588
50
250.9035578
51
266.4756067
0
ARC
8
DEFAULT_255_2_778
10
0.7358292
20
1.311598
40
1.4668566
50
247.1350777
51
248.4111781
0
ARC
8
DEFAULT_255_2_778
10
0.2036201
20
0.0504457
40
0.0980068
50
239.232075
51
247.3436165
0
ARC
8
DEFAULT_255_2_778
10
0.1647536
20
-0.013934
40
0.0228109
50
169.8087436
51
240.3920244
0
ARC
8
DEFAULT_255_2_778
10
0.5904801
20
-0.0155126
40
0.4482127
50
177.3250876
51
179.2822548
0
ARC
8
DEFAULT_255_2_778
10
-0.4137409
20
0.0278886
40
0.5569509
50
357.6864049
51
359.9028164
0
ARC
8
DEFAULT_255_2_778
10
0.1629514
20
0.2989919
40
0.0208313
50
89.6046727
51
198.6107095
0
ARC
8
DEFAULT_255_2_778
10
0.1622485
20
0.2627255
40
0.0571034
50
79.3421858
51
89.1505013
0
LINE
8
DEFAULT_255_2_778
10
0.4625094
20
0.2394439
11
0.4634926
21
0.2392299
0
ARC
8
DEFAULT_255_2_778
10
0.8736628
20
1.8648347
40
1.6765531
50
255.8387971
51
268.0702933
0
ARC
8
DEFAULT_255_2_778
10
0.8180516
20
0.9834486
40
0.7942167
50
269.9391116
51
274.6479457
0
ARC
8
DEFAULT_255_2_778
10
0.8528888
20
0.9484456
40
0.7571774
50
272.2343931
51
287.7328528
0
ARC
8
DEFAULT_255_2_778
10
1.0063917
20
0.4635989
40
0.2486178
50
288.070424
51
0.0564679
0
ARC
8
DEFAULT_255_2_778
10
2.1398041
20
0.4586432
40
0.88481
50
177.6659268
51
179.6632243
0
ARC
8
DEFAULT_255_2_778
10
0.3696986
20
0.5307411
40
0.8867632
50
357.6692362
51
359.6687529
0
ARC
8
DEFAULT_255_2_778
10
0.9773198
20
0.5279373
40
0.2791369
50
359.5231925
51
7.2648577
0
ARC
8
DEFAULT_255_2_778
10
1.0744638
20
0.5393628
40
0.1813304
50
7.5652712
51
15.6058508
0
ARC
8
DEFAULT_255_2_778
10
1.0291183
20
0.5132137
40
0.2324018
50
18.8091397
51
59.0588769
0
ARC
8
DEFAULT_255_2_778
10
0.8422845
20
0.2328136
40
0.569189
50
57.4403191
51
80.9990964
0
LINE
8
DEFAULT_255_2_778
10
0.9313341
20
0.7949934
11
0.9298094
21
0.7953439
0
ARC
8
DEFAULT_255_2_778
10
0.8192287
20
1.6506459
40
0.7946304
50
231.1443814
51
254.7644413
0
ARC
8
DEFAULT_255_2_778
10
0.6296105
20
1.4181958
40
0.4946592
50
185.7142592
51
231.3565059
0
ARC
8
DEFAULT_255_2_778
10
1.6387777
20
1.4842986
40
1.5057934
50
180.0001776
51
184.3935758
0
ARC
8
DEFAULT_255_2_778
10
1.6387777
20
1.4842892
40
1.5057934
50
175.6064242
51
179.9998224
0
ARC
8
DEFAULT_255_2_778
10
0.6319208
20
1.5559027
40
0.4964422
50
125.4045051
51
174.9451454
0
ARC
8
DEFAULT_255_2_778
10
0.8425799
20
1.2296405
40
0.8845865
50
103.2315644
51
124.2829867
0
ARC
8
DEFAULT_255_2_778
10
0.9289497
20
0.8451965
40
1.2785997
50
89.0394963
51
103.0560205
0
ARC
8
DEFAULT_255_2_778
10
0.9286669
20
-1.5477601
40
3.6714408
50
86.6995384
51
89.6610993
0
ARC
8
DEFAULT_255_2_778
10
0.5438602
20
-9.3897384
40
11.5227627
50
86.9915633
51
87.0342351
0
ARC
8
DEFAULT_255_2_778
10
1.0038757
20
0.3920018
40
1.7312027
50
84.8567811
51
85.2043058
0
ARC
8
DEFAULT_255_2_778
10
1.0679835
20
0.8792922
40
1.2402913
50
66.4918987
51
85.7884125
0
ARC
8
DEFAULT_255_2_778
10
1.5540683
20
1.9734159
40
0.0440832
50
2.5066904
51
78.6958323
0
LINE
8
DEFAULT_255_2_778
10
6.6149094
20
1.2533439
11
7.0467094
21
1.2533439
0
LINE
8
DEFAULT_255_2_778
10
7.0763094
20
1.2829439
11
7.0763094
21
1.4697439
0
LINE
8
DEFAULT_255_2_778
10
6.0146094
20
1.6882439
11
5.8611094
21
1.6406439
0
LINE
8
DEFAULT_255_2_778
10
5.8553094
20
1.6935439
11
5.8553094
21
1.9359439
0
LINE
8
DEFAULT_255_2_778
10
7.4936094
20
1.3678439
11
7.4936094
21
-0.0809561
0
LINE
8
DEFAULT_255_2_778
10
7.4639094
20
-0.1106561
11
7.1681094
21
-0.1106561
0
LINE
8
DEFAULT_255_2_778
10
7.1269094
20
-0.0751561
11
7.1091094
21
0.0730439
0
LINE
8
DEFAULT_255_2_778
10
7.0795094
20
0.1558439
11
7.0848094
21
0.1563439
0
LINE
8
DEFAULT_255_2_778
10
7.0790094
20
0.7180439
11
7.0790094
21
0.9604439
0
LINE
8
DEFAULT_255_2_778
10
7.0710094
20
0.4929439
11
7.0769094
21
0.7178439
0
LINE
8
DEFAULT_255_2_778
10
7.0769094
20
0.7178439
11
7.0790094
21
0.7180439
0
LINE
8
DEFAULT_255_2_778
10
3.2023094
20
-0.1452561
11
3.0541094
21
-0.1452561
0
LINE
8
DEFAULT_255_2_778
10
3.1420094
20
2.1224439
11
3.1404094
21
2.1198439
0
LINE
8
DEFAULT_255_2_778
10
3.7288094
20
0.9900439
11
3.7317094
21
0.9900439
0
LINE
8
DEFAULT_255_2_778
10
14.7437094
20
0.9847439
11
14.7437094
21
2.0518439
0
LINE
8
DEFAULT_255_2_778
10
14.7733094
20
2.0782439
11
15.0337094
21
2.0782439
0
LINE
8
DEFAULT_255_2_778
10
15.0813094
20
2.0428439
11
15.1289094
21
1.8655439
0
LINE
8
DEFAULT_255_2_778
10
15.1289094
20
1.8655439
11
15.1466094
21
1.8004439
0
LINE
8
DEFAULT_255_2_778
10
16.6990094
20
1.0617439
11
16.6990094
21
-0.0738561
0
LINE
8
DEFAULT_255_2_778
10
16.6725094
20
-0.1002561
11
16.3055094
21
-0.1002561
0
LINE
8
DEFAULT_255_2_778
10
16.2701094
20
-0.0648561
11
16.2701094
21
1.3639439
0
LINE
8
DEFAULT_255_2_778
10
16.2701094
20
1.3639439
11
16.2642094
21
1.4882439
0
LINE
8
DEFAULT_255_2_778
10
15.1522094
20
1.4467439
11
15.1522094
21
-0.0732561
0
LINE
8
DEFAULT_255_2_778
10
15.1168094
20
-0.1087561
11
14.7622094
21
-0.1087561
0
LINE
8
DEFAULT_255_2_778
10
14.7326094
20
-0.0791561
11
14.7326094
21
-0.0119561
0
LINE
8
DEFAULT_255_2_778
10
14.7326094
20
-0.0119561
11
14.7445094
21
0.9876439
0
LINE
8
DEFAULT_255_2_778
10
14.7445094
20
0.9876439
11
14.7437094
21
0.9847439
0
LINE
8
DEFAULT_255_2_778
10
21.2080094
20
1.6589439
11
21.1016094
21
1.6943439
0
LINE
8
DEFAULT_255_2_778
10
19.7501094
20
-0.0137561
11
19.7501094
21
0.2997439
0
LINE
8
DEFAULT_255_2_778
10
19.7798094
20
0.3174439
11
20.0637094
21
0.2381439
0
LINE
8
DEFAULT_255_2_778
10
20.8622094
20
0.4513439
11
20.8622094
21
0.5095439
0
LINE
8
DEFAULT_255_2_778
10
20.5367094
20
0.7934439
11
20.1822094
21
0.8998439
0
LINE
8
DEFAULT_255_2_778
10
20.4603094
20
2.1267439
11
20.6968094
21
2.1267439
0
LINE
8
DEFAULT_255_2_778
10
21.1995094
20
1.9790439
11
21.2053094
21
1.6536439
0
LINE
8
DEFAULT_255_2_778
10
21.2053094
20
1.6536439
11
21.2080094
21
1.6589439
0
LINE
8
DEFAULT_255_2_778
10
0.8763094
20
1.1977439
11
1.1483094
21
1.1183439
0
LINE
8
DEFAULT_255_2_778
10
0.1432094
20
0.0269439
11
0.1432094
21
0.2923439
0
LINE
8
DEFAULT_255_2_778
10
0.1728094
20
0.3188439
11
0.4625094
21
0.2394439
0
LINE
8
DEFAULT_255_2_778
10
0.9298094
20
0.7953439
11
0.6104094
21
0.8839439
0
LINE
8
DEFAULT_255_2_778
10
1.5981094
20
1.9753439
11
1.5981094
21
1.6618439
0
LINE
8
DEFAULT_255_2_778
10
1.5981094
20
1.6618439
11
1.5971094
21
1.6586439
0
ARC
8
DEFAULT_255_2_778
10
25.4368074
20
2.5874977
40
0.0472841
50
304.4633909
51
352.1366148
0
ARC
8
DEFAULT_255_2_778
10
25.6958912
20
2.2872236
40
0.349639
50
131.642094
51
133.7645836
0
ARC
8
DEFAULT_255_2_778
10
23.1838943
20
1.0756724
40
0.6180795
50
314.958892
51
315.0136943
0
ARC
8
DEFAULT_255_2_778
10
23.5932372
20
0.6629772
40
0.0368611
50
300.9545915
51
317.9965896
0
ARC
8
DEFAULT_255_2_778
10
23.6083123
20
0.6386197
40
0.0082283
50
271.531509
51
298.1711578
0
ARC
8
DEFAULT_255_2_778
10
23.6087688
20
0.6374498
40
0.0070594
50
219.8237563
51
268.0796489
0
ARC
8
DEFAULT_255_2_778
10
23.6277043
20
0.6554409
40
0.0331675
50
204.3906019
51
222.7456814
0
ARC
8
DEFAULT_255_2_778
10
23.5704433
20
0.6295884
40
0.0296591
50
24.195554
51
45.1866348
0
ARC
8
DEFAULT_255_2_778
10
19.9300477
20
0.2942816
40
3.6785997
50
5.5589766
51
20.6393157
0
ARC
8
DEFAULT_255_2_778
10
23.3509855
20
1.5887789
40
0.0216683
50
5.6936799
51
30.545086
0
ARC
8
DEFAULT_255_2_778
10
23.4791444
20
1.6532978
40
0.1218715
50
205.1079368
51
206.0427304
0
ARC
8
DEFAULT_255_2_778
10
23.3842183
20
1.6098579
40
0.0175078
50
183.6980132
51
208.1995577
0
ARC
8
DEFAULT_255_2_778
10
23.6836922
20
1.7227668
40
0.3368367
50
194.1201308
51
199.7889328
0
ARC
8
DEFAULT_255_2_778
10
23.4013496
20
1.6508927
40
0.0454981
50
181.1524728
51
193.0831158
0
ARC
8
DEFAULT_255_2_778
10
23.3752195
20
1.6499127
40
0.0193588
50
108.7922687
51
179.8078986
0
ARC
8
DEFAULT_255_2_778
10
23.4651719
20
1.472847
40
0.2177855
50
109.6362338
51
116.2102851
0
ARC
8
DEFAULT_255_2_778
10
24.9031114
20
-2.2817287
40
4.2382415
50
110.8250975
51
110.8881897
0
ARC
8
DEFAULT_255_2_778
10
25.1787387
20
3.0060846
40
0.50957
50
289.3939076
51
295.3657982
0
LINE
8
DEFAULT_255_2_778
10
25.3970364
20
2.5456416
11
25.3982469
21
2.5461912
0
ARC
8
DEFAULT_255_2_778
10
25.6066974
20
2.1075222
40
0.4856769
50
109.0036849
51
115.416536
0
ARC
8
DEFAULT_255_2_778
10
25.4910929
20
2.5247468
40
0.0597715
50
120.739073
51
135.3823255
0
ARC
8
DEFAULT_255_2_778
10
25.477163
20
2.5498166
40
0.0311152
50
92.6585693
51
122.2881323
0
ARC
8
DEFAULT_255_2_778
10
25.4760262
20
2.5659627
40
0.0149387
50
57.9799376
51
91.1755451
0
LINE
8
DEFAULT_255_2_778
10
25.4540469
20
2.5397287
11
24.8449469
21
1.9127287
0
LINE
8
DEFAULT_255_2_778
10
24.8449469
20
1.9127287
11
23.7982469
21
0.8279287
0
LINE
8
DEFAULT_255_2_778
10
23.7982469
20
0.8279287
11
23.6210469
21
0.6387287
0
LINE
8
DEFAULT_255_2_778
10
23.3963469
20
1.6796287
11
24.1060469
21
1.9870287
0
LINE
8
DEFAULT_255_2_778
10
24.1060469
20
1.9870287
11
24.7801469
21
2.2767287
0
LINE
8
DEFAULT_255_2_778
10
24.7801469
20
2.2767287
11
25.3479469
21
2.5254287
0
LINE
8
DEFAULT_255_2_778
10
25.4839469
20
2.5786287
11
25.4836469
21
2.5810287
0
ARC
8
DEFAULT_255_2_778
10
5.0625915
20
-0.0799045
40
0.0351487
50
350.9865233
51
0.0678751
0
ARC
8
DEFAULT_255_2_778
10
5.0738115
20
-0.0827471
40
0.0236453
50
264.0006624
51
353.5309892
0
ARC
8
DEFAULT_255_2_778
10
4.6986986
20
-0.0711142
40
0.0351487
50
260.9865233
51
270.0678751
0
ARC
8
DEFAULT_255_2_778
10
4.6958559
20
-0.0823342
40
0.0236453
50
174.0006624
51
263.5309892
0
ARC
8
DEFAULT_255_2_778
10
3.2242433
20
2.728004
40
1.4480974
50
0.0487922
51
0.9420368
0
ARC
8
DEFAULT_255_2_778
10
0.9830543
20
2.6955064
40
3.6895203
50
0.8744231
51
0.9186867
0
ARC
8
DEFAULT_255_2_778
10
5.984957
20
2.7805198
40
1.3131115
50
180.2703699
51
181.1283416
0
ARC
8
DEFAULT_255_2_778
10
4.7157347
20
2.7819951
40
0.0445345
50
146.7775771
51
189.8758502
0
ARC
8
DEFAULT_255_2_778
10
4.702641
20
2.7662244
40
0.0468772
50
80.9426461
51
121.0258282
0
ARC
8
DEFAULT_255_2_778
10
4.7039191
20
1.5050474
40
1.307484
50
88.87142
51
89.7326254
0
ARC
8
DEFAULT_255_2_778
10
4.7575911
20
4.4031883
40
1.5911554
50
268.9961738
51
269.8479899
0
ARC
8
DEFAULT_255_2_778
10
4.7546958
20
3.5928503
40
0.7808128
50
269.9026881
51
270.0326104
0
ARC
8
DEFAULT_255_2_778
10
5.0607307
20
2.7889474
40
0.0234321
50
343.8689349
51
99.8054411
0
ARC
8
DEFAULT_255_2_778
10
9.0379716
20
1.5843474
40
0.5441952
50
109.8102827
51
145.9009319
0
ARC
8
DEFAULT_255_2_778
10
9.0070235
20
1.7168993
40
0.4093046
50
91.6356844
51
112.0234151
0
ARC
8
DEFAULT_255_2_778
10
8.9896196
20
6.2902871
40
4.1642538
50
270.0787088
51
270.532626
0
ARC
8
DEFAULT_255_2_778
10
9.0671584
20
-2.0734689
40
4.1998615
50
90.073843
51
90.5297116
0
ARC
8
DEFAULT_255_2_778
10
9.0675121
20
1.0561192
40
1.0702854
50
86.5810518
51
90.3087029
0
ARC
8
DEFAULT_255_2_778
10
9.1116344
20
1.6868785
40
0.4380646
50
69.1795807
51
87.421756
0
ARC
8
DEFAULT_255_2_778
10
9.3212093
20
2.2069269
40
0.1230121
50
244.0289294
51
244.9118282
0
ARC
8
DEFAULT_255_2_778
10
9.3315879
20
2.2298253
40
0.1481512
50
245.0316114
51
252.7642419
0
ARC
8
DEFAULT_255_2_778
10
9.3119093
20
2.1604026
40
0.0760357
50
251.426396
51
267.5358713
0
ARC
8
DEFAULT_255_2_778
10
9.3008556
20
2.0478529
40
0.0374033
50
1.8144361
51
77.9874372
0
ARC
8
DEFAULT_255_2_778
10
9.3236358
20
1.7713131
40
0.0667922
50
269.9753078
51
282.6299679
0
ARC
8
DEFAULT_255_2_778
10
9.327348
20
1.806786
40
0.1023334
50
246.4619807
51
267.9050242
0
ARC
8
DEFAULT_255_2_778
10
9.1126997
20
1.2757765
40
0.4704632
50
68.3224829
51
70.0605705
0
ARC
8
DEFAULT_255_2_778
10
8.9774665
20
0.7289149
40
1.032369
50
73.3572657
51
86.3916219
0
ARC
8
DEFAULT_255_2_778
10
9.012319
20
1.3215378
40
0.4387345
50
86.0632836
51
89.9994485
0
ARC
8
DEFAULT_255_2_778
10
9.0123495
20
1.3216271
40
0.4386451
50
90.0034282
51
127.2828451
0
ARC
8
DEFAULT_255_2_778
10
9.2158732
20
0.993874
40
0.8235217
50
124.735461
51
137.3015208
0
ARC
8
DEFAULT_255_2_778
10
8.7386628
20
1.4320972
40
0.1756344
50
136.795536
51
179.3344958
0
ARC
8
DEFAULT_255_2_778
10
8.5399619
20
-0.0780058
40
0.0234127
50
253.5713213
51
9.6954279
0
ARC
8
DEFAULT_255_2_778
10
8.1668964
20
-0.0652695
40
0.0351933
50
260.7460253
51
270.0712125
0
ARC
8
DEFAULT_255_2_778
10
8.1639982
20
-0.0764842
40
0.0236821
50
174.1314367
51
263.3044026
0
ARC
8
DEFAULT_255_2_778
10
8.1667801
20
2.061023
40
0.027863
50
70.8068555
51
199.0315204
0
ARC
8
DEFAULT_255_2_778
10
8.4437999
20
2.062101
40
0.0263442
50
4.9473495
51
106.676095
0
ARC
8
DEFAULT_255_2_778
10
8.2244321
20
1.9981213
40
0.2543923
50
13.5531055
51
15.0956411
0
ARC
8
DEFAULT_255_2_778
10
13.7083753
20
2.0707039
40
0.0233742
50
73.688473
51
189.7706096
0
ARC
8
DEFAULT_255_2_778
10
14.0774235
20
2.0714205
40
0.0231033
50
340.0488337
51
109.9511663
0
ARC
8
DEFAULT_255_2_778
10
14.0760506
20
-0.0872534
40
0.0234319
50
253.8685711
51
9.8056021
0
ARC
8
DEFAULT_255_2_778
10
13.7070757
20
-0.0880006
40
0.0231397
50
159.937793
51
289.869041
0
LINE
8
DEFAULT_255_2_778
10
5.0977402
20
1.3454372
11
5.0977402
21
-0.0798628
0
LINE
8
DEFAULT_255_2_778
10
5.0713402
20
-0.1062628
11
4.6987402
21
-0.1062628
0
LINE
8
DEFAULT_255_2_778
10
4.6723402
20
-0.0798628
11
4.6723402
21
2.7292372
0
LINE
8
DEFAULT_255_2_778
10
4.7551402
20
2.8120372
11
5.0567402
21
2.8120372
0
LINE
8
DEFAULT_255_2_778
10
5.0832402
20
2.7824372
11
5.0832402
21
2.7231372
0
LINE
8
DEFAULT_255_2_778
10
5.0832402
20
2.7231372
11
5.0951402
21
1.3452372
0
LINE
8
DEFAULT_255_2_778
10
5.0951402
20
1.3452372
11
5.0977402
21
1.3454372
0
LINE
8
DEFAULT_255_2_778
10
8.5222402
20
1.7947372
11
8.5873402
21
1.8894372
0
LINE
8
DEFAULT_255_2_778
10
9.3382402
20
2.0490372
11
9.3382402
21
1.7061372
0
LINE
8
DEFAULT_255_2_778
10
8.5630402
20
1.4341372
11
8.5630402
21
-0.0740628
0
LINE
8
DEFAULT_255_2_778
10
8.5333402
20
-0.1004628
11
8.1669402
21
-0.1004628
0
LINE
8
DEFAULT_255_2_778
10
8.1404402
20
-0.0740628
11
8.1404402
21
2.0519372
0
LINE
8
DEFAULT_255_2_778
10
8.1759402
20
2.0873372
11
8.4362402
21
2.0873372
0
LINE
8
DEFAULT_255_2_778
10
8.4717402
20
2.0577372
11
8.5193402
21
1.7915372
0
LINE
8
DEFAULT_255_2_778
10
8.5193402
20
1.7915372
11
8.5222402
21
1.7947372
0
LINE
8
DEFAULT_255_2_778
10
13.6853402
20
0.9904372
11
13.6853402
21
2.0667372
0
LINE
8
DEFAULT_255_2_778
10
13.7149402
20
2.0931372
11
14.0695402
21
2.0931372
0
LINE
8
DEFAULT_255_2_778
10
14.0991402
20
2.0635372
11
14.0991402
21
-0.0832628
0
LINE
8
DEFAULT_255_2_778
10
14.0695402
20
-0.1097628
11
13.7149402
21
-0.1097628
0
LINE
8
DEFAULT_255_2_778
10
13.6853402
20
-0.0800628
11
13.6853402
21
0.9904372
0
LINE
8
DEFAULT_255_2_778
10
13.6853402
20
0.9904372
11
13.6853402
21
0.9904372
0
ARC
8
DEFAULT_255_2_778
10
25.7622391
20
2.581255
40
0.2783058
50
179.8738342
51
180.0420213
0
ARC
8
DEFAULT_255_2_778
10
25.491669
20
2.5848792
40
0.0083005
50
103.4848576
51
201.2717205
0
ARC
8
DEFAULT_255_2_778
10
25.4830155
20
2.583956
40
0.0112267
50
15.2360945
51
53.2457113
0
ARC
8
DEFAULT_255_2_778
10
25.4900763
20
2.5885202
40
0.0041021
50
261.6512144
51
336.8313072
0
ARC
8
DEFAULT_255_2_778
10
25.5272674
20
2.3711653
40
0.2166175
50
100.0460469
51
100.2046319
0
ARC
8
DEFAULT_255_2_778
10
25.4883337
20
2.5798216
40
0.0045686
50
82.9991681
51
164.392213
0
LINE
8
DEFAULT_255_2_778
10
25.4839334
20
2.5810509
11
25.4839334
21
2.5810509
0
ENDSEC
0
EOF