0
SECTION
2
HEADER
9
$MEASUREMENT
70
1
0
ENDSEC
0
SECTION
2
TABLES
0
TABLE
2
LTYPE
0
LTYPE
72
65
70
64
2
CONTINUOUS
3
______
73
0
40
0
0
ENDTAB
0
TABLE
2
LAYER
0
LAYER
2
DEFAULT_255_2_778
70
0
62
255
6
CONTINUOUS
0
ENDTAB
0
ENDSEC
0
SECTION
2
ENTITIES
0
ARC
8
DEFAULT_255_2_778
10
7.2582118
20
2.3168328
40
2.7280371
50
89.8778307
51
89.9979844
0
ARC
8
DEFAULT_255_2_778
10
7.2573806
20
2.4503799
40
2.5944903
50
89.9795235
51
118.5049124
0
ARC
8
DEFAULT_255_2_778
10
7.2573431
20
2.4476536
40
2.5968684
50
118.4754794
51
154.281849
0
ARC
8
DEFAULT_255_2_778
10
7.2694971
20
2.4421144
40
2.6102221
50
154.2880764
51
157.4391488
0
ARC
8
DEFAULT_255_2_778
10
7.260178
20
2.4448797
40
2.6005552
50
157.4166375
51
169.5311409
0
ARC
8
DEFAULT_255_2_778
10
7.254548
20
2.4462555
40
2.5947691
50
169.5384264
51
176.7001215
0
ARC
8
DEFAULT_255_2_778
10
7.2581983
20
2.4460129
40
2.5984276
50
176.6994133
51
180.0003185
0
ARC
8
DEFAULT_255_2_778
10
7.2612934
20
2.445653
40
2.6015227
50
179.9923931
51
217.7316792
0
ARC
8
DEFAULT_255_2_778
10
7.2642534
20
2.4493906
40
2.6061511
50
217.7568441
51
224.9285255
0
ARC
8
DEFAULT_255_2_778
10
7.2567254
20
2.4408521
40
2.5947915
50
224.9124339
51
245.9409691
0
ARC
8
DEFAULT_255_2_778
10
7.259687
20
2.4478721
40
2.6024089
50
245.9444375
51
269.9913362
0
ARC
8
DEFAULT_255_2_778
10
7.2593137
20
2.4377373
40
2.5922742
50
269.9995549
51
273.0868295
0
ARC
8
DEFAULT_255_2_778
10
7.2599065
20
2.4301019
40
2.584618
50
273.082821
51
287.5970465
0
ARC
8
DEFAULT_255_2_778
10
7.2570581
20
2.4388969
40
2.5938626
50
287.5982885
51
292.5105779
0
ARC
8
DEFAULT_255_2_778
10
7.2414754
20
2.4367967
40
2.5979327
50
292.8457952
51
314.1985901
0
ARC
8
DEFAULT_255_2_778
10
7.235043
20
2.4422626
40
2.606336
50
314.2161987
51
359.9507423
0
ARC
8
DEFAULT_255_2_778
10
7.239222
20
2.4398018
40
2.6021562
50
0.0048463
51
7.908447
0
ARC
8
DEFAULT_255_2_778
10
7.2159612
20
2.4368095
40
2.6256075
50
7.903285
51
11.0164464
0
ARC
8
DEFAULT_255_2_778
10
7.1420461
20
2.4224355
40
2.7009073
50
11.0161205
51
11.1766295
0
ARC
8
DEFAULT_255_2_778
10
7.2439862
20
2.4446055
40
2.5966039
50
11.1327162
51
34.6799292
0
ARC
8
DEFAULT_255_2_778
10
7.2369605
20
2.4398746
40
2.6050733
50
34.6775741
51
81.4751053
0
ARC
8
DEFAULT_255_2_778
10
7.2381772
20
2.430833
40
2.6138359
50
81.5308616
51
89.4859322
0
ARC
8
DEFAULT_255_2_778
10
7.2498247
20
2.4618258
40
1.6813221
50
270.0001662
51
270.4840465
0
ARC
8
DEFAULT_255_2_778
10
7.2499185
20
2.4499745
40
1.6694708
50
203.0745689
51
269.9969506
0
ARC
8
DEFAULT_255_2_778
10
6.9172062
20
2.3082308
40
1.3078233
50
203.0314071
51
203.0743936
0
ARC
8
DEFAULT_255_2_778
10
7.2350376
20
2.442996
40
1.6530456
50
185.456575
51
203.020181
0
ARC
8
DEFAULT_255_2_778
10
7.2426506
20
2.4439465
40
1.6607145
50
182.6446429
51
185.4642455
0
ARC
8
DEFAULT_255_2_778
10
7.2458801
20
2.4440992
40
1.6639477
50
179.9995804
51
182.6447637
0
ARC
8
DEFAULT_255_2_778
10
7.2495292
20
2.4445748
40
1.667597
50
138.5603093
51
180.0159228
0
ARC
8
DEFAULT_255_2_778
10
7.2468056
20
2.4452482
40
1.6651098
50
135.2813043
51
138.5156521
0
ARC
8
DEFAULT_255_2_778
10
7.2455823
20
2.4475926
40
1.6625911
50
106.0940175
51
135.3090515
0
ARC
8
DEFAULT_255_2_778
10
7.2473385
20
2.4428477
40
1.6676369
50
90.0041387
51
106.1067979
0
ARC
8
DEFAULT_255_2_778
10
7.2472288
20
2.4468984
40
1.6635862
50
86.5812375
51
90.0003714
0
ARC
8
DEFAULT_255_2_778
10
7.2472459
20
2.448024
40
1.6624617
50
69.7212973
51
86.5795127
0
ARC
8
DEFAULT_255_2_778
10
7.2434019
20
2.436675
40
1.6744395
50
67.635247
51
69.7325081
0
ARC
8
DEFAULT_255_2_778
10
7.2469518
20
2.4449068
40
1.6654762
50
0.6750374
51
67.6404289
0
ARC
8
DEFAULT_255_2_778
10
7.2302004
20
2.4447392
40
1.6822283
50
0.0008336
51
0.6740247
0
ARC
8
DEFAULT_255_2_778
10
7.2911735
20
2.441974
40
1.6212576
50
0.0000077
51
0.098588
0
ARC
8
DEFAULT_255_2_778
10
7.2555288
20
2.4395559
40
1.656904
50
332.3647437
51
0.0836267
0
ARC
8
DEFAULT_255_2_778
10
7.2475325
20
2.4432989
40
1.6657241
50
279.135458
51
332.3782602
0
ARC
8
DEFAULT_255_2_778
10
7.2485868
20
2.4553628
40
1.6774702
50
270.5274423
51
279.0344837
0
ARC
8
DEFAULT_255_2_778
10
1.7586717
20
0.6515843
40
2.195698
50
52.8838218
51
62.2147138
0
ARC
8
DEFAULT_255_2_778
10
1.2379557
20
-0.3266248
40
3.3038602
50
62.1336156
51
67.737673
0
ARC
8
DEFAULT_255_2_778
10
0.524006
20
-2.053948
40
5.1729091
50
67.6674649
51
71.1852879
0
ARC
8
DEFAULT_255_2_778
10
-0.090034
20
-3.8124522
40
7.0354977
50
71.0704874
51
72.0174833
0
ARC
8
DEFAULT_255_2_778
10
-0.3605384
20
-4.6414348
40
7.9074972
50
72.0076189
51
72.4130888
0
ARC
8
DEFAULT_255_2_778
10
3.6352858
20
7.9796422
40
5.3310158
50
249.7265456
51
252.4606693
0
ARC
8
DEFAULT_255_2_778
10
2.9810172
20
6.2183486
40
3.452132
50
245.8664251
51
249.7837444
0
ARC
8
DEFAULT_255_2_778
10
2.413738
20
4.958706
40
2.0706498
50
240.480764
51
245.940357
0
ARC
8
DEFAULT_255_2_778
10
1.9516006
20
4.1500075
40
1.1392317
50
232.0984384
51
240.666294
0
ARC
8
DEFAULT_255_2_778
10
1.6024759
20
3.7065911
40
0.5748849
50
218.510938
51
232.4063274
0
ARC
8
DEFAULT_255_2_778
10
1.3879248
20
3.5378053
40
0.3019079
50
195.2458314
51
218.7994457
0
ARC
8
DEFAULT_255_2_778
10
1.4228329
20
3.5363993
40
0.3353834
50
178.1265519
51
193.4456026
0
ARC
8
DEFAULT_255_2_778
10
1.4462726
20
3.5472225
40
0.3586439
50
173.4161307
51
179.9774471
0
ARC
8
DEFAULT_255_2_778
10
1.5384543
20
3.5258814
40
0.4527896
50
136.4938526
51
172.0707603
0
ARC
8
DEFAULT_255_2_778
10
1.7220263
20
3.3628143
40
0.6982422
50
114.8308383
51
137.1588764
0
ARC
8
DEFAULT_255_2_778
10
1.8406031
20
3.1159397
40
0.9720967
50
98.1796402
51
115.063178
0
ARC
8
DEFAULT_255_2_778
10
1.883478
20
2.861747
40
1.2298196
50
89.876504
51
98.471884
0
ARC
8
DEFAULT_255_2_778
10
1.8506658
20
2.5808452
40
1.5111347
50
53.2256777
51
88.6552728
0
ARC
8
DEFAULT_255_2_778
10
1.8836419
20
2.8565789
40
2.1879863
50
42.8848771
51
89.9348778
0
ARC
8
DEFAULT_255_2_778
10
1.8771927
20
2.9701846
40
2.0743983
50
89.7531829
51
108.9567278
0
ARC
8
DEFAULT_255_2_778
10
1.7619656
20
3.2991264
40
1.7258663
50
108.8863604
51
130.5164385
0
ARC
8
DEFAULT_255_2_778
10
1.5511403
20
3.5242912
40
1.4177945
50
129.9510031
51
179.0796801
0
ARC
8
DEFAULT_255_2_778
10
1.3887898
20
3.5328392
40
1.2553417
50
179.3507572
51
225.8198363
0
ARC
8
DEFAULT_255_2_778
10
1.7020453
20
3.8192366
40
1.6792323
50
224.9648677
51
232.823376
0
ARC
8
DEFAULT_255_2_778
10
2.0148993
20
4.2366388
40
2.2008602
50
232.9001908
51
242.2601275
0
ARC
8
DEFAULT_255_2_778
10
2.5387463
20
5.22257
40
3.3173104
50
242.1784053
51
247.7962444
0
ARC
8
DEFAULT_255_2_778
10
3.2570495
20
6.9653977
40
5.2023519
50
247.7255282
51
251.2495212
0
ARC
8
DEFAULT_255_2_778
10
3.8747612
20
8.7407448
40
7.082053
50
251.1342554
51
252.0825356
0
ARC
8
DEFAULT_255_2_778
10
4.1372519
20
9.5479018
40
7.9308179
50
252.0721251
51
252.4228674
0
ARC
8
DEFAULT_255_2_778
10
0.1361046
20
-3.0944538
40
5.3295876
50
69.7258354
51
72.460698
0
ARC
8
DEFAULT_255_2_778
10
0.7896401
20
-1.33521
40
3.4528805
50
65.8665305
51
69.7830095
0
ARC
8
DEFAULT_255_2_778
10
1.3565891
20
-0.0762845
40
2.0721876
50
60.4848082
51
65.9402535
0
ARC
8
DEFAULT_255_2_778
10
1.8187832
20
0.7326576
40
1.1405298
50
52.112683
51
60.6698813
0
ARC
8
DEFAULT_255_2_778
10
2.1682071
20
1.1766804
40
0.5755214
50
38.5466774
51
52.4206365
0
ARC
8
DEFAULT_255_2_778
10
2.3832369
20
1.346066
40
0.3017972
50
15.38943
51
38.8351737
0
ARC
8
DEFAULT_255_2_778
10
2.3515562
20
1.3481556
40
0.3319512
50
358.1196938
51
13.5902708
0
ARC
8
DEFAULT_255_2_778
10
2.3199255
20
1.3373096
40
0.3634032
50
355.7899346
51
359.9927609
0
ARC
8
DEFAULT_255_2_778
10
2.2357172
20
1.3546931
40
0.4487991
50
316.1607798
51
354.3657439
0
ARC
8
DEFAULT_255_2_778
10
2.0500345
20
1.5196756
40
0.6970686
50
294.6116618
51
316.9507954
0
ARC
8
DEFAULT_255_2_778
10
1.9297066
20
1.7733428
40
0.9778102
50
277.7830888
51
294.8315477
0
ARC
8
DEFAULT_255_2_778
10
1.8873151
20
2.0326255
40
1.2404641
50
269.8851581
51
278.1012467
0
ARC
8
DEFAULT_255_2_778
10
1.9180267
20
2.2959255
40
1.5041282
50
233.1338633
51
268.7353096
0
ARC
8
DEFAULT_255_2_778
10
1.8914932
20
2.031495
40
2.1944449
50
222.8831396
51
269.7972723
0
ARC
8
DEFAULT_255_2_778
10
1.8927252
20
1.9119861
40
2.0749419
50
269.7515782
51
289.4707067
0
ARC
8
DEFAULT_255_2_778
10
2.0176374
20
1.5653827
40
1.706525
50
289.3955929
51
310.6410799
0
ARC
8
DEFAULT_255_2_778
10
2.2338106
20
1.3442204
40
1.3980515
50
309.8219702
51
359.6042389
0
ARC
8
DEFAULT_255_2_778
10
2.3963189
20
1.3361422
40
1.2355108
50
359.9267992
51
0.0066477
0
ARC
8
DEFAULT_255_2_778
10
2.3829591
20
1.3515502
40
1.2489639
50
359.2997226
51
45.5496303
0
ARC
8
DEFAULT_255_2_778
10
2.054415
20
1.0521917
40
1.6929227
50
44.7070266
51
52.8732969
0
ARC
8
DEFAULT_255_2_778
10
19.4608865
20
2.4330233
40
2.5959405
50
89.9792041
51
118.4361584
0
ARC
8
DEFAULT_255_2_778
10
19.4609524
20
2.4301181
40
2.598527
50
118.4069334
51
154.3528428
0
ARC
8
DEFAULT_255_2_778
10
19.4730175
20
2.4246528
40
2.611769
50
154.3593199
51
157.5016577
0
ARC
8
DEFAULT_255_2_778
10
19.4620707
20
2.4283773
40
2.6002302
50
157.4851782
51
169.5239741
0
ARC
8
DEFAULT_255_2_778
10
19.4558264
20
2.4298753
40
2.5938177
50
169.5314337
51
176.6498986
0
ARC
8
DEFAULT_255_2_778
10
19.4593719
20
2.4296481
40
2.5973704
50
176.6494657
51
180.0001886
0
ARC
8
DEFAULT_255_2_778
10
19.4622373
20
2.4293061
40
2.6002358
50
179.9926515
51
217.798467
0
ARC
8
DEFAULT_255_2_778
10
19.4656903
20
2.4333841
40
2.6054638
50
217.8227899
51
225.0055794
0
ARC
8
DEFAULT_255_2_778
10
19.4602056
20
2.4274399
40
2.5973822
50
224.9984287
51
245.9826054
0
ARC
8
DEFAULT_255_2_778
10
19.4629523
20
2.4344906
40
2.6049404
50
245.9905431
51
269.9959813
0
ARC
8
DEFAULT_255_2_778
10
19.462784
20
2.4284213
40
2.598871
50
269.9996826
51
273.3290524
0
ARC
8
DEFAULT_255_2_778
10
19.4630073
20
2.4249678
40
2.5954104
50
273.3285571
51
287.6084117
0
ARC
8
DEFAULT_255_2_778
10
19.4587099
20
2.4388056
40
2.6098998
50
287.6064351
51
292.4822611
0
ARC
8
DEFAULT_255_2_778
10
19.4644391
20
2.4248202
40
2.5947863
50
292.4834599
51
321.0744438
0
ARC
8
DEFAULT_255_2_778
10
19.4620447
20
2.4287008
40
2.5990878
50
321.0410562
51
356.8405058
0
ARC
8
DEFAULT_255_2_778
10
19.4502176
20
2.4289562
40
2.610911
50
356.8492151
51
0.0013372
0
LINE
8
DEFAULT_255_2_778
10
22.0611288
20
2.4290171
11
22.0611287
21
2.4297637
0
ARC
8
DEFAULT_255_2_778
10
19.4636585
20
2.4284228
40
2.5974706
50
0.0295784
51
20.6657815
0
ARC
8
DEFAULT_255_2_778
10
19.4551823
20
2.421944
40
2.6076898
50
20.733247
51
79.1776088
0
ARC
8
DEFAULT_255_2_778
10
19.4588128
20
2.4111102
40
2.6176551
50
79.3001859
51
89.9383646
0
ARC
8
DEFAULT_255_2_778
10
19.4476247
20
2.4459241
40
1.6813204
50
270.0001663
51
270.4840465
0
ARC
8
DEFAULT_255_2_778
10
19.4477876
20
2.4341785
40
1.6695748
50
203.1105961
51
269.9945787
0
ARC
8
DEFAULT_255_2_778
10
19.8960669
20
2.6251625
40
2.1568418
50
203.0506139
51
203.102745
0
ARC
8
DEFAULT_255_2_778
10
19.4453822
20
2.4293879
40
1.6654898
50
186.8704427
51
202.9239865
0
ARC
8
DEFAULT_255_2_778
10
19.4437327
20
2.4289889
40
1.6638045
50
183.2148033
51
186.8635962
0
ARC
8
DEFAULT_255_2_778
10
19.4456049
20
2.4290857
40
1.6656791
50
179.9999418
51
183.2145169
0
ARC
8
DEFAULT_255_2_778
10
19.446686
20
2.4294159
40
1.6667602
50
138.9243082
51
180.0112904
0
ARC
8
DEFAULT_255_2_778
10
19.45244
20
2.4239275
40
1.6747042
50
135.3405061
51
138.9121075
0
ARC
8
DEFAULT_255_2_778
10
19.4434021
20
2.4318643
40
1.6626969
50
105.4784794
51
135.316133
0
ARC
8
DEFAULT_255_2_778
10
19.4454081
20
2.4265318
40
1.6683715
50
90.0045313
51
105.4960001
0
ARC
8
DEFAULT_255_2_778
10
19.4452843
20
2.4308829
40
1.6640205
50
86.634992
51
90.0002802
0
ARC
8
DEFAULT_255_2_778
10
19.4454143
20
2.4332853
40
1.6616146
50
69.7451837
51
86.6346032
0
ARC
8
DEFAULT_255_2_778
10
19.4418006
20
2.4227212
40
1.6727765
50
67.6525063
51
69.7543312
0
ARC
8
DEFAULT_255_2_778
10
19.4440586
20
2.4294739
40
1.6656727
50
0.2887177
51
67.6360233
0
ARC
8
DEFAULT_255_2_778
10
19.4490257
20
2.4300073
40
1.660703
50
359.9984967
51
0.271179
0
ARC
8
DEFAULT_255_2_778
10
19.3963968
20
2.4250656
40
1.713339
50
0.0024018
51
0.1637965
0
ARC
8
DEFAULT_255_2_778
10
19.4556031
20
2.4227329
40
1.6541342
50
332.3413524
51
0.0832895
0
ARC
8
DEFAULT_255_2_778
10
19.4487317
20
2.4256983
40
1.6615972
50
279.0846044
51
332.3607733
0
ARC
8
DEFAULT_255_2_778
10
19.4497976
20
2.4382426
40
1.6738185
50
270.394721
51
278.9807772
0
ARC
8
DEFAULT_255_2_778
10
24.9630531
20
4.2131557
40
2.1872534
50
232.8554614
51
242.2194122
0
ARC
8
DEFAULT_255_2_778
10
25.4872575
20
5.1977948
40
3.3027302
50
242.13516
51
247.7417194
0
ARC
8
DEFAULT_255_2_778
10
26.2039099
20
6.9318656
40
5.1790473
50
247.6707367
51
251.1846024
0
ARC
8
DEFAULT_255_2_778
10
26.819937
20
8.6960143
40
7.0476197
50
251.0696895
51
252.0149737
0
ARC
8
DEFAULT_255_2_778
10
27.0915858
20
9.5283629
40
7.9231743
50
252.0050493
51
252.4096513
0
ARC
8
DEFAULT_255_2_778
10
23.0906016
20
-3.1063329
40
5.3298798
50
69.7229633
51
72.4571474
0
ARC
8
DEFAULT_255_2_778
10
23.7444349
20
-1.3465593
40
3.4525723
50
65.8641013
51
69.7801707
0
ARC
8
DEFAULT_255_2_778
10
24.3114364
20
-0.0876652
40
2.0718865
50
60.4827136
51
65.9378958
0
ARC
8
DEFAULT_255_2_778
10
24.7736398
20
0.7212202
40
1.1402734
50
52.1104133
51
60.6679261
0
ARC
8
DEFAULT_255_2_778
10
25.1230243
20
1.165157
40
0.5753571
50
38.5426693
51
52.4183867
0
ARC
8
DEFAULT_255_2_778
10
25.3381697
20
1.3345694
40
0.3015259
50
15.2938899
51
38.8375026
0
ARC
8
DEFAULT_255_2_778
10
25.3053595
20
1.3364334
40
0.3328469
50
358.1285742
51
13.4943454
0
ARC
8
DEFAULT_255_2_778
10
25.274131
20
1.3256127
40
0.3638977
50
355.7539183
51
359.9922858
0
ARC
8
DEFAULT_255_2_778
10
25.1901978
20
1.3429582
40
0.4490218
50
316.1809043
51
354.3395151
0
ARC
8
DEFAULT_255_2_778
10
25.005329
20
1.5071854
40
0.6961831
50
294.6155737
51
316.9632177
0
ARC
8
DEFAULT_255_2_778
10
24.8853613
20
1.7598914
40
0.9759013
50
277.8798855
51
294.8390409
0
ARC
8
DEFAULT_255_2_778
10
24.8425788
20
2.0198332
40
1.2392723
50
269.8821008
51
278.191563
0
ARC
8
DEFAULT_255_2_778
10
24.8785541
20
2.2906831
40
1.5106108
50
233.1320504
51
268.538617
0
ARC
8
DEFAULT_255_2_778
10
24.8446685
20
2.0223364
40
2.1908751
50
222.9142205
51
269.9152725
0
ARC
8
DEFAULT_255_2_778
10
24.8504436
20
1.9059743
40
2.0745302
50
269.7510208
51
289.4726636
0
ARC
8
DEFAULT_255_2_778
10
24.9751876
20
1.5597825
40
1.7065573
50
289.3986909
51
310.6423532
0
ARC
8
DEFAULT_255_2_778
10
25.1913612
20
1.3386428
40
1.3981003
50
309.8229364
51
359.6074349
0
ARC
8
DEFAULT_255_2_778
10
25.3354204
20
1.3430849
40
1.2540867
50
359.3593978
51
45.8488959
0
ARC
8
DEFAULT_255_2_778
10
25.0188433
20
1.0536658
40
1.6824531
50
44.9787583
51
52.8266854
0
ARC
8
DEFAULT_255_2_778
10
24.7133855
20
0.6484375
40
2.1899103
50
52.8648325
51
62.2184807
0
ARC
8
DEFAULT_255_2_778
10
24.1904355
20
-0.3339187
40
3.3027827
50
62.1353375
51
67.7418431
0
ARC
8
DEFAULT_255_2_778
10
23.4747589
20
-2.0656938
40
5.1766055
50
67.6711542
51
71.1868986
0
ARC
8
DEFAULT_255_2_778
10
22.8597766
20
-3.8270126
40
7.0421618
50
71.0719083
51
72.0180579
0
ARC
8
DEFAULT_255_2_778
10
22.5882096
20
-4.6592609
40
7.9175955
50
72.008125
51
72.4130833
0
ARC
8
DEFAULT_255_2_778
10
26.5862632
20
7.9672276
40
5.3267493
50
249.7199047
51
252.4554441
0
ARC
8
DEFAULT_255_2_778
10
25.9329155
20
6.2090479
40
3.451105
50
245.8596595
51
249.7770826
0
ARC
8
DEFAULT_255_2_778
10
25.366163
20
4.9509661
40
2.0712622
50
240.4769222
51
245.9334193
0
ARC
8
DEFAULT_255_2_778
10
24.9041306
20
4.1425643
40
1.1401536
50
232.1037933
51
240.6619238
0
ARC
8
DEFAULT_255_2_778
10
24.554813
20
3.6988163
40
0.575427
50
218.5375315
51
232.4115173
0
ARC
8
DEFAULT_255_2_778
10
24.3396495
20
3.5294227
40
0.3015932
50
195.2953641
51
218.83256
0
ARC
8
DEFAULT_255_2_778
10
24.3722163
20
3.5275059
40
0.3326647
50
178.1295926
51
193.4969731
0
ARC
8
DEFAULT_255_2_778
10
24.4036264
20
3.5383147
40
0.3638977
50
175.7539183
51
179.9922858
0
ARC
8
DEFAULT_255_2_778
10
24.4877256
20
3.5209191
40
0.4491918
50
136.1343876
51
174.3352408
0
ARC
8
DEFAULT_255_2_778
10
24.6726423
20
3.3564671
40
0.6965367
50
114.5985968
51
136.9222125
0
ARC
8
DEFAULT_255_2_778
10
24.7926969
20
3.1031409
40
0.9768535
50
97.7750419
51
114.8161958
0
ARC
8
DEFAULT_255_2_778
10
24.8351393
20
2.843273
40
1.2400933
50
89.8849819
51
98.0936723
0
ARC
8
DEFAULT_255_2_778
10
24.8035547
20
2.5781688
40
1.5055805
50
53.1574151
51
88.7031807
0
ARC
8
DEFAULT_255_2_778
10
24.8346869
20
2.8471057
40
2.1892594
50
42.8994081
51
89.9360948
0
ARC
8
DEFAULT_255_2_778
10
24.8280647
20
2.9614352
40
2.0749483
50
89.7497131
51
109.4675347
0
ARC
8
DEFAULT_255_2_778
10
24.7031733
20
3.3082519
40
1.7063376
50
109.394776
51
130.6444218
0
ARC
8
DEFAULT_255_2_778
10
24.4976617
20
3.5220972
40
1.4103145
50
129.9682016
51
179.3838294
0
ARC
8
DEFAULT_255_2_778
10
24.3317967
20
3.5200652
40
1.2444868
50
179.2081615
51
225.1560515
0
ARC
8
DEFAULT_255_2_778
10
24.6476015
20
3.8077603
40
1.6713026
50
224.4347778
51
233.0532993
0
LINE
8
DEFAULT_255_2_778
10
14.4644287
20
4.8591637
11
14.4644287
21
2.0762637
0
LINE
8
DEFAULT_255_2_778
10
14.4644287
20
2.0762637
11
11.3307287
21
4.9977637
0
LINE
8
DEFAULT_255_2_778
10
11.3307287
20
4.9977637
11
11.3307287
21
0.0447637
0
LINE
8
DEFAULT_255_2_778
10
11.3307287
20
0.0447637
11
12.2567287
21
0.0447637
0
LINE
8
DEFAULT_255_2_778
10
12.2567287
20
0.0447637
11
12.2567287
21
2.8107637
0
LINE
8
DEFAULT_255_2_778
10
12.2567287
20
2.8107637
11
15.3894287
21
-0.1060363
0
LINE
8
DEFAULT_255_2_778
10
15.3894287
20
-0.1060363
11
15.3894287
21
4.8591637
0
LINE
8
DEFAULT_255_2_778
10
15.3894287
20
4.8591637
11
14.4644287
21
4.8591637
0
LINE
8
DEFAULT_255_2_778
10
7.2616287
20
5.0445637
11
7.2640287
21
5.0448637
0
LINE
8
DEFAULT_255_2_778
10
7.2640287
20
0.7779637
11
7.2640287
21
0.7805637
0
LINE
8
DEFAULT_255_2_778
10
2.7553287
20
3.7912637
11
2.8201287
21
3.7425637
0
LINE
8
DEFAULT_255_2_778
10
2.8201287
20
3.7425637
11
3.5683287
21
4.2484637
0
LINE
8
DEFAULT_255_2_778
10
3.5683287
20
4.2484637
11
3.4868287
21
4.3455637
0
LINE
8
DEFAULT_255_2_778
10
1.0156287
20
1.0925637
11
0.9508287
21
1.1411637
0
LINE
8
DEFAULT_255_2_778
10
0.9508287
20
1.1411637
11
0.2020287
21
0.6352637
0
LINE
8
DEFAULT_255_2_778
10
0.2020287
20
0.6352637
11
0.2835287
21
0.5381637
0
LINE
8
DEFAULT_255_2_778
10
3.0762287
20
2.4019637
11
3.0836287
21
2.4024637
0
LINE
8
DEFAULT_255_2_778
10
19.4616287
20
5.0287637
11
19.4618287
21
5.0289637
0
LINE
8
DEFAULT_255_2_778
10
19.4613287
20
0.7644637
11
19.4618287
21
0.7646637
0
LINE
8
DEFAULT_255_2_778
10
23.9722287
20
1.0821637
11
23.9068287
21
1.1303637
0
LINE
8
DEFAULT_255_2_778
10
23.9068287
20
1.1303637
11
23.1586287
21
0.6276637
0
LINE
8
DEFAULT_255_2_778
10
23.1586287
20
0.6276637
11
23.2401287
21
0.5305637
0
LINE
8
DEFAULT_255_2_778
10
25.7063287
20
3.7830637
11
25.7716287
21
3.7343637
0
LINE
8
DEFAULT_255_2_778
10
25.7716287
20
3.7343637
11
26.5199287
21
4.2402637
0
LINE
8
DEFAULT_255_2_778
10
26.5199287
20
4.2402637
11
26.4384287
21
4.3373637
0
LINE
8
DEFAULT_255_2_778
10
23.6430287
20
2.4720637
11
23.6423287
21
2.4696637
0
ENDSEC
0
EOF